  0
SECTION
  2
HEADER
  9
$ACADVER
  1
AC1015
  9
$ACADMAINTVER
 70
     0
  9
$DWGCODEPAGE
  3
ANSI_932
  9
$INSBASE
 10
0.0
 20
0.0
 30
0.0
  9
$EXTMIN
 10
-98.5
 20
-68.5
  9
$EXTMAX
 10
98.5
 20
68.5
  9
$LIMMIN
 10
-98.5
 20
-68.5
  9
$LIMMAX
 10
98.5
 20
68.5
  9
$ORTHOMODE
 70
     0
  9
$REGENMODE
 70
     1
  9
$FILLMODE
 70
     1
  9
$QTEXTMODE
 70
     0
  9
$MIRRTEXT
 70
     1
  9
$LTSCALE
 40
1.0
  9
$OSMODE
 70
     0
  9
$ATTMODE
 70
     1
  9
$TEXTSIZE
 40
3.0
  9
$TRACEWID
 40
0.5
  9
$TEXTSTYLE
  7
STANDARD
  9
$CLAYER
  8
0
  9
$CELTYPE
  6
BYLAYER
  9
$CECOLOR
 62
   256
  9
$CELTSCALE
 40
1.0
  9
$DISPSILH
 70
     0
  9
$DIMSCALE
 40
1.0
  9
$DIMASZ
 40
3.0
  9
$DIMEXO
 40
1.0
  9
$DIMDLI
 40
5.0
  9
$DIMRND
 40
0.0
  9
$DIMDLE
 40
5.0
  9
$DIMEXE
 40
2.0
  9
$DIMTP
 40
0.0
  9
$DIMTM
 40
0.0
  9
$DIMTXT
 40
3.0
  9
$DIMCEN
 40
2.0
  9
$DIMTSZ
 40
0.0
  9
$DIMTOL
 70
     0
  9
$DIMLIM
 70
     0
  9
$DIMTIH
 70
     0
  9
$DIMTOH
 70
     0
  9
$DIMSE1
 70
     0
  9
$DIMSE2
 70
     0
  9
$DIMTAD
 70
     1
  9
$DIMZIN
 70
     8
  9
$DIMBLK
  1

  9
$DIMASO
 70
     1
  9
$DIMSHO
 70
     1
  9
$DIMPOST
  1

  9
$DIMAPOST
  1

  9
$DIMALT
 70
     0
  9
$DIMALTD
 70
     0
  9
$DIMALTF
 40
25.4
  9
$DIMLFAC
 40
1.0
  9
$DIMTOFL
 70
     1
  9
$DIMTVP
 40
1.0
  9
$DIMTIX
 70
     0
  9
$DIMSOXD
 70
     0
  9
$DIMSAH
 70
     0
  9
$DIMBLK1
  1

  9
$DIMBLK2
  1

  9
$DIMSTYLE
  2
ISO-25
  9
$DIMCLRD
 70
     0
  9
$DIMCLRE
 70
     0
  9
$DIMCLRT
 70
     0
  9
$DIMTFAC
 40
1.0
  9
$DIMGAP
 40
1.0
  9
$DIMJUST
 70
     0
  9
$DIMSD1
 70
     0
  9
$DIMSD2
 70
     0
  9
$DIMTOLJ
 70
     0
  9
$DIMTZIN
 70
     8
  9
$DIMALTZ
 70
     0
  9
$DIMALTTZ
 70
     0
  9
$DIMUPT
 70
     0
  9
$DIMDEC
 70
     2
  9
$DIMTDEC
 70
     2
  9
$DIMALTU
 70
     2
  9
$DIMALTTD
 70
     3
  9
$DIMTXSTY
  7
STANDARD
  9
$DIMAUNIT
 70
     0
  9
$DIMADEC
 70
     0
  9
$DIMALTRND
 40
0.0
  9
$DIMAZIN
 70
     0
  9
$DIMDSEP
 70
    46
  9
$DIMATFIT
 70
     3
  9
$DIMFRAC
 70
     0
  9
$DIMLDRBLK
  1

  9
$DIMLUNIT
 70
     2
  9
$DIMLWD
 70
    -2
  9
$DIMLWE
 70
    -2
  9
$DIMTMOVE
 70
     0
  9
$LUNITS
 70
     2
  9
$LUPREC
 70
     4
  9
$SKETCHINC
 40
1.0
  9
$FILLETRAD
 40
0.0
  9
$AUNITS
 70
     0
  9
$AUPREC
 70
     0
  9
$MENU
  1
.
  9
$ELEVATION
 40
0.0
  9
$PELEVATION
 40
0.0
  9
$THICKNESS
 40
0.0
  9
$LIMCHECK
 70
     0
  9
$CHAMFERA
 40
0.0
  9
$CHAMFERB
 40
0.0
  9
$CHAMFERC
 40
0.0
  9
$CHAMFERD
 40
0.0
  9
$SKPOLY
 70
     0
  9
$TDCREATE
 40
2454067.551342593
  9
$TDUCREATE
 40
2454067.551342593
  9
$TDUPDATE
 40
2454067.551342593
  9
$TDUUPDATE
 40
2454067.551342593
  9
$TDINDWG
 40
0.0
  9
$TDUSRTIMER
 40
0.0
  9
$USRTIMER
 70
     1
  9
$ANGBASE
 50
0.0
  9
$ANGDIR
 70
     0
  9
$PDMODE
 70
     0
  9
$PDSIZE
 40
0.0
  9
$PLINEWID
 40
0.0
  9
$SPLFRAME
 70
     0
  9
$SPLINETYPE
 70
     6
  9
$SPLINESEGS
 70
     8
  9
$HANDSEED
  5
E4
  9
$SURFTAB1
 70
     6
  9
$SURFTAB2
 70
     6
  9
$SURFTYPE
 70
     6
  9
$SURFU
 70
     6
  9
$SURFV
 70
     6
  9
$UCSBASE
  2

  9
$UCSNAME
  2

  9
$UCSORG
 10
0.0
 20
0.0
 30
0.0
  9
$UCSXDIR
 10
1.0
 20
0.0
 30
0.0
  9
$UCSYDIR
 10
0.0
 20
1.0
 30
0.0
  9
$UCSORTHOREF
  2

  9
$UCSORTHOVIEW
 70
     0
  9
$UCSORGTOP
 10
0.0
 20
0.0
 30
0.0
  9
$UCSORGBOTTOM
 10
0.0
 20
0.0
 30
0.0
  9
$UCSORGLEFT
 10
0.0
 20
0.0
 30
0.0
  9
$UCSORGRIGHT
 10
0.0
 20
0.0
 30
0.0
  9
$UCSORGFRONT
 10
0.0
 20
0.0
 30
0.0
  9
$UCSORGBACK
 10
0.0
 20
0.0
 30
0.0
  9
$PUCSBASE
  2

  9
$PUCSNAME
  2

  9
$PUCSORG
 10
0.0
 20
0.0
 30
0.0
  9
$PUCSXDIR
 10
1.0
 20
0.0
 30
0.0
  9
$PUCSYDIR
 10
0.0
 20
1.0
 30
0.0
  9
$PUCSORTHOREF
  2

  9
$PUCSORTHOVIEW
 70
     0
  9
$PUCSORGTOP
 10
0.0
 20
0.0
 30
0.0
  9
$PUCSORGBOTTOM
 10
0.0
 20
0.0
 30
0.0
  9
$PUCSORGLEFT
 10
0.0
 20
0.0
 30
0.0
  9
$PUCSORGRIGHT
 10
0.0
 20
0.0
 30
0.0
  9
$PUCSORGFRONT
 10
0.0
 20
0.0
 30
0.0
  9
$PUCSORGBACK
 10
0.0
 20
0.0
 30
0.0
  9
$USERI1
 70
     0
  9
$USERI2
 70
     0
  9
$USERI3
 70
     0
  9
$USERI4
 70
     0
  9
$USERI5
 70
     0
  9
$USERR1
 40
0.0
  9
$USERR2
 40
0.0
  9
$USERR3
 40
0.0
  9
$USERR4
 40
0.0
  9
$USERR5
 40
0.0
  9
$WORLDVIEW
 70
     1
  9
$SHADEDGE
 70
     3
  9
$SHADEDIF
 70
    70
  9
$MAXACTVP
 70
    16
  9
$PINSBASE
 10
0.0
 20
0.0
 30
0.0
  9
$PLIMCHECK
 70
     0
  9
$PEXTMIN
 10
1.000000E+20
 20
1.000000E+20
 30
1.000000E+20
  9
$PEXTMAX
 10
-1.000000E+20
 20
-1.000000E+20
 30
-1.000000E+20
  9
$PLIMMIN
 10
-98.5
 20
-68.5
  9
$PLIMMAX
 10
98.5
 20
68.5
  9
$UNITMODE
 70
     0
  9
$VISRETAIN
 70
     0
  9
$PLINEGEN
 70
     0
  9
$PSLTSCALE
 70
     0
  9
$TREEDEPTH
 70
  3020
  9
$CMLSTYLE
  2
STANDARD
  9
$CMLJUST
 70
     0
  9
$CMLSCALE
 40
1.0
  9
$PROXYGRAPHICS
 70
     1
  9
$MEASUREMENT
 70
     0
  9
$CELWEIGHT
370
    -3
  9
$ENDCAPS
280
     0
  9
$JOINSTYLE
280
     0
  9
$LWDISPLAY
290
     1
  9
$INSUNITS
 70
     0
  9
$HYPERLINKBASE
  1

  9
$STYLESHEET
  1

  9
$XEDIT
290
     1
  9
$CEPSNTYPE
380
     0
  9
$PSTYLEMODE
290
     1
  9
$FINGERPRINTGUID
  2
{6F25CFC2-5053-11D3-9BE9-00805F4AB38E}
  9
$VERSIONGUID
  2
{6F25CFC5-5053-11D3-9BE9-00805F4AB38E}
  9
$EXTNAMES
290
     1
  9
$PSVPSCALE
 40
0.0
  9
$OLESTARTUP
290
     0
  0
ENDSEC
  0
SECTION
  2
CLASSES
  0
CLASS
  1
LWPOLYLINE
  2
AcDbPolyline
  3
AutoCAD 2000
 90
    32768
280
     0
281
     1
  0
CLASS
  1
DICTIONARYVAR
  2
AcDbDictionaryVar
  3
AutoCAD 2000
 90
        0
280
     0
281
     1
  0
CLASS
  1
ACDBDICTIONARYWDFLT
  2
AcDbDictionaryWithDefault
  3
AutoCAD 2000
 90
        0
280
     0
281
     1
  0
CLASS
  1
ACDBPLACEHOLDER
  2
AcDbPlaceHolder
  3
AutoCAD 2000
 90
        0
280
     0
281
     1
  0
CLASS
  1
LAYOUT
  2
AcDbLayout
  3
AutoCAD 2000
 90
        0
280
     0
281
     1
  0
CLASS
  1
HATCH
  2
AcDbHatch
  3
AutoCAD 2000
 90
        0
280
     0
281
     1
  0
ENDSEC
  0
SECTION
  2
TABLES
  0
TABLE
  2
VPORT
  5
8
100
AcDbSymbolTable
 70
     1
  0
VPORT
  5
DA
330
0
100
AcDbSymbolTableRecord
100
AcDbViewportTableRecord
  2
*ACTIVE
 70
     0
 10
0.0
 20
0.0
 11
1.0
 21
1.0
 12
0.0
 22
0.0
 13
0.0
 23
0.0
 14
0.0
 24
0.0
 15
0.0
 25
0.0
 16
0.0
 26
0.0
 36
1.0
 17
0.0
 27
0.0
 37
0.0
 40
137.0
 41
1.5
 42
50.0
 43
0.0
 44
0.0
 50
0.0
 51
0.0
 71
     0
 72
   100
 73
     1
 74
     1
 75
     0
 76
     0
 77
     0
 78
     0
281
     0
 65
     1
110
0.0
120
0.0
130
0.0
111
1.0
121
0.0
131
0.0
112
0.0
122
1.0
132
0.0
 79
     0
146
0.0
  0
ENDTAB
  0
TABLE
  2
LTYPE
  5
5
330
0
100
AcDbSymbolTable
 70
    20
  0
LTYPE
  5
DB
330
5
100
AcDbSymbolTableRecord
100
AcDbLinetypeTableRecord
  2
BYBLOCK
 70
     0
  3

 72
    65
 73
     0
 40
0.0
  0
LTYPE
  5
DC
330
5
100
AcDbSymbolTableRecord
100
AcDbLinetypeTableRecord
  2
BYLAYER
 70
     0
  3

 72
    65
 73
     0
 40
0.0
  0
LTYPE
  5
DD
330
5
100
AcDbSymbolTableRecord
100
AcDbLinetypeTableRecord
  2
CONTINUOUS
 70
    64
  3
solid line
 72
    65
 73
     0
 40
0.0
  0
LTYPE
  5
DE
330
0
100
AcDbSymbolTableRecord
100
AcDbLinetypeTableRecord
  2
DASHED
 70
    64
  3
-- -- -- -- -- -- -- -- -- -- 
 72
    65
 73
     2
 40
3.0
 49
2.0
 74
     0
 49
-1.0
 74
     0
  0
LTYPE
  5
DF
330
0
100
AcDbSymbolTableRecord
100
AcDbLinetypeTableRecord
  2
CENTER
 70
    64
  3
--- - --- - --- - --- - --- - 
 72
    65
 73
     4
 40
6.0
 49
3.0
 74
     0
 49
-1.0
 74
     0
 49
1.0
 74
     0
 49
-1.0
 74
     0
  0
ENDTAB
  0
TABLE
  2
LAYER
  5
2
330
0
100
AcDbSymbolTable
 70
    20
  0
LAYER
  5
E0
330
2
100
AcDbSymbolTableRecord
100
AcDbLayerTableRecord
  2
0
 70
    64
 62
     7
  6
CONTINUOUS
370
    -3
390
D6
  0
LAYER
  5
25
330
2
100
AcDbSymbolTableRecord
100
AcDbLayerTableRecord
  2
100
 70
    64
 62
     7
  6
CONTINUOUS
370
    -3
390
D6
  0
ENDTAB
  0
TABLE
  2
STYLE
  5
3
330
0
100
AcDbSymbolTable
 70
     4
  0
STYLE
  5
E1
330
3
100
AcDbSymbolTableRecord
100
AcDbTextStyleTableRecord
  2
STANDARD
 70
    64
 40
0.0
 41
1.052631578947368
 50
0.0
 71
     0
 42
3.0
  3
monotxt
  4

  0
ENDTAB
  0
TABLE
  2
VIEW
  5
6
330
0
100
AcDbSymbolTable
 70
     0
  0
ENDTAB
  0
TABLE
  2
UCS
  5
7
330
0
100
AcDbSymbolTable
 70
     0
  0
ENDTAB
  0
TABLE
  2
APPID
  5
9
330
0
100
AcDbSymbolTable
 70
     1
  0
APPID
  5
E2
330
9
100
AcDbSymbolTableRecord
100
AcDbRegAppTableRecord
  2
ACAD
 70
     0
  0
ENDTAB
  0
TABLE
  2
DIMSTYLE
  5
A
330
0
100
AcDbSymbolTable
 70
     8
100
AcDbDimStyleTable
 71
     0
  0
DIMSTYLE
105
E3
330
A
100
AcDbSymbolTableRecord
100
AcDbDimStyleTableRecord
  2
ISO-25
 70
     0
  3

  4

  5

  6

  7

 40
1.0
 41
3.0
 42
1.0
 43
5.0
 44
2.0
 45
0.0
 46
5.0
 47
0.0
 48
0.0
140
3.0
141
2.0
142
0.0
143
25.4
144
1.0
145
1.0
146
1.0
147
1.0
 71
     0
 72
     0
 73
     0
 74
     0
 75
     0
 76
     0
 77
     1
 78
     8
170
     0
171
     0
172
     1
173
     0
174
     0
175
     0
176
     0
177
     0
178
     0
270
     0
271
     2
272
     2
273
     2
274
     3
340
E1
275
     0
277
     2
280
     0
281
     0
282
     0
283
     0
284
     8
285
     0
286
     0
287
     3
288
     0
  0
ENDTAB
  0
TABLE
  2
BLOCK_RECORD
  5
1
330
0
100
AcDbSymbolTable
 70
     2
  0
BLOCK_RECORD
  5
20
330
1
100
AcDbSymbolTableRecord
100
AcDbBlockTableRecord
  2
*MODEL_SPACE
340
D7
  0
BLOCK_RECORD
  5
22
330
1
100
AcDbSymbolTableRecord
100
AcDbBlockTableRecord
  2
*PAPER_SPACE
340
0
  0
ENDTAB
  0
ENDSEC
  0
SECTION
  2
BLOCKS
  0
BLOCK
  5
21
330
20
100
AcDbEntity
  8
0
100
AcDbBlockBegin
  2
*MODEL_SPACE
 70
     0
 10
0.0
 20
0.0
 30
0.0
  3
*MODEL_SPACE
  1

  0
ENDBLK
  5
D8
330
20
100
AcDbEntity
  8
0
100
AcDbBlockEnd
  0
BLOCK
  5
23
330
22
100
AcDbEntity
 67
     1
  8
0
100
AcDbBlockBegin
  2
*PAPER_SPACE
 70
     0
 10
0.0
 20
0.0
 30
0.0
  3
*PAPER_SPACE
  1

  0
ENDBLK
  5
D9
330
22
100
AcDbEntity
 67
     1
  8
0
100
AcDbBlockEnd
  0
ENDSEC
  0
SECTION
  2
ENTITIES
  0
LINE
  5
24
330
20
100
AcDbEntity
  8
100
  6
CONTINUOUS
100
AcDbLine
 10
55.0
 20
-16.5
 11
55.0
 21
16.5
  0
LINE
  5
26
330
20
100
AcDbEntity
  8
100
  6
CONTINUOUS
100
AcDbLine
 10
-55.0
 20
-16.5
 11
-55.0
 21
16.5
  0
LINE
  5
27
330
20
100
AcDbEntity
  8
100
  6
CONTINUOUS
100
AcDbLine
 10
-55.0
 20
16.5
 11
-37.0
 21
16.5
  0
LINE
  5
28
330
20
100
AcDbEntity
  8
100
  6
CONTINUOUS
100
AcDbLine
 10
37.0
 20
-16.5
 11
55.0
 21
-16.5
  0
LINE
  5
29
330
20
100
AcDbEntity
  8
100
  6
CONTINUOUS
100
AcDbLine
 10
55.0
 20
16.5
 11
37.0
 21
16.5
  0
LINE
  5
2A
330
20
100
AcDbEntity
  8
100
  6
CONTINUOUS
100
AcDbLine
 10
-55.0
 20
-16.5
 11
-37.0
 21
-16.5
  0
LINE
  5
2B
330
20
100
AcDbEntity
  8
100
  6
CONTINUOUS
100
AcDbLine
 10
-25.00000000000068
 20
7.5
 11
17.06274606680623
 21
7.5
  0
LINE
  5
2C
330
20
100
AcDbEntity
  8
100
  6
CONTINUOUS
100
AcDbLine
 10
-25.00000000000068
 20
-7.5
 11
17.06274606680623
 21
-7.5
  0
LINE
  5
2D
330
20
100
AcDbEntity
  8
100
  6
CONTINUOUS
100
AcDbLine
 10
33.0
 20
-6.5
 11
33.0
 21
6.5
  0
LINE
  5
2E
330
20
100
AcDbEntity
  8
100
  6
CONTINUOUS
100
AcDbLine
 10
-33.0
 20
-6.5
 11
-33.0
 21
6.5
  0
ARC
  5
2F
330
20
100
AcDbEntity
  8
100
  6
CONTINUOUS
100
AcDbCircle
 10
25.0
 20
6.5
 40
8.0
100
AcDbArc
 50
0.0
 51
172.8192442185417
  0
ARC
  5
30
330
20
100
AcDbEntity
  8
100
  6
CONTINUOUS
100
AcDbCircle
 10
25.0
 20
-6.5
 40
8.000000000000002
100
AcDbArc
 50
187.1807557814583
 51
0.0
  0
ARC
  5
31
330
20
100
AcDbEntity
  8
100
  6
CONTINUOUS
100
AcDbCircle
 10
-49.0
 20
10.5
 40
2.499999999999991
100
AcDbArc
 50
290.025666707074
 51
210.6060844200876
  0
LINE
  5
32
330
20
100
AcDbEntity
  8
100
  6
CONTINUOUS
100
AcDbLine
 10
15.0
 20
7.5
 11
15.0
 21
15.5
  0
LINE
  5
33
330
20
100
AcDbEntity
  8
100
  6
CONTINUOUS
100
AcDbLine
 10
-15.0
 20
7.5
 11
-15.0
 21
15.5
  0
LINE
  5
34
330
20
100
AcDbEntity
  8
100
  6
CONTINUOUS
100
AcDbLine
 10
-15.0
 20
-7.5
 11
-15.0
 21
-15.5
  0
LINE
  5
35
330
20
100
AcDbEntity
  8
100
  6
CONTINUOUS
100
AcDbLine
 10
15.0
 20
-7.5
 11
15.0
 21
-15.5
  0
ARC
  5
36
330
20
100
AcDbEntity
  8
100
  6
DASHED
100
AcDbCircle
 10
-49.0
 20
10.5
 40
2.499999999999991
100
AcDbArc
 50
210.6060844200876
 51
290.025666707074
  0
ARC
  5
37
330
20
100
AcDbEntity
  8
100
  6
CONTINUOUS
100
AcDbCircle
 10
-49.0
 20
10.5
 40
1.5
100
AcDbArc
 50
325.4023069144973
 51
180.0
  0
LINE
  5
38
330
20
100
AcDbEntity
  8
100
  6
CONTINUOUS
100
AcDbLine
 10
37.0
 20
16.5
 11
-37.0
 21
16.5
  0
LINE
  5
39
330
20
100
AcDbEntity
  8
100
  6
CONTINUOUS
100
AcDbLine
 10
-37.0
 20
-16.5
 11
37.0
 21
-16.5
  0
HATCH
  5
3A
330
20
100
AcDbEntity
  8
100
  6
CONTINUOUS
100
AcDbHatch
 10
0.0
 20
0.0
 30
0.0
210
0.0
220
0.0
230
1.0
  2
_U
 70
     0
 71
     0
 91
        1
 92
        5
 93
        9
 72
     1
 10
15.0
 20
7.5
 11
15.0
 21
15.5
 72
     1
 10
15.0
 20
15.5
 11
35.0
 21
15.5
 72
     1
 10
35.0
 20
15.5
 11
37.0
 21
16.5
 72
     1
 10
37.0
 20
16.5
 11
-37.0
 21
16.5
 72
     1
 10
-37.0
 20
16.5
 11
-35.0
 21
15.5
 72
     1
 10
-35.0
 20
15.5
 11
-15.0
 21
15.5
 72
     1
 10
-15.0
 20
15.5
 11
-15.0
 21
7.5
 72
     1
 10
-15.0
 20
7.5
 11
15.0
 21
7.5
 72
     1
 10
15.0
 20
7.5
 11
15.0
 21
7.5
 97
        0
 75
     0
 76
     0
 52
0.0
 41
2.0
 77
     0
 78
     1
 53
45.0
 43
0.0
 44
0.0
 45
-1.414213562373095
 46
1.414213562373095
 79
     0
 47
0.322189
 98
        1
 10
0.0
 20
0.0
  0
HATCH
  5
3B
330
20
100
AcDbEntity
  8
100
  6
CONTINUOUS
100
AcDbHatch
 10
0.0
 20
0.0
 30
0.0
210
0.0
220
0.0
230
1.0
  2
_U
 70
     0
 71
     0
 91
        1
 92
        5
 93
        9
 72
     1
 10
37.0
 20
-16.5
 11
35.0
 21
-15.5
 72
     1
 10
35.0
 20
-15.5
 11
15.0
 21
-15.5
 72
     1
 10
15.0
 20
-15.5
 11
15.0
 21
-7.5
 72
     1
 10
15.0
 20
-7.5
 11
-15.0
 21
-7.5
 72
     1
 10
-15.0
 20
-7.5
 11
-15.0
 21
-15.5
 72
     1
 10
-15.0
 20
-15.5
 11
-35.0
 21
-15.5
 72
     1
 10
-35.0
 20
-15.5
 11
-37.0
 21
-16.5
 72
     1
 10
-37.0
 20
-16.5
 11
37.0
 21
-16.5
 72
     1
 10
37.0
 20
-16.5
 11
37.0
 21
-16.5
 97
        0
 75
     0
 76
     0
 52
0.0
 41
2.0
 77
     0
 78
     1
 53
45.0
 43
0.0
 44
0.0
 45
-1.414213562373095
 46
1.414213562373095
 79
     0
 47
0.322189
 98
        1
 10
0.0
 20
0.0
  0
ARC
  5
3C
330
20
100
AcDbEntity
  8
100
  6
CONTINUOUS
100
AcDbCircle
 10
34.0
 20
-20.5
 40
5.0
100
AcDbArc
 50
53.13010235415598
 51
90.0
  0
ARC
  5
3D
330
20
100
AcDbEntity
  8
100
  6
CONTINUOUS
100
AcDbCircle
 10
34.0
 20
20.5
 40
5.0
100
AcDbArc
 50
270.0
 51
306.8698976458441
  0
ARC
  5
3E
330
20
100
AcDbEntity
  8
100
  6
CONTINUOUS
100
AcDbCircle
 10
-34.0
 20
20.5
 40
5.0
100
AcDbArc
 50
233.130102354156
 51
270.0
  0
ARC
  5
3F
330
20
100
AcDbEntity
  8
100
  6
CONTINUOUS
100
AcDbCircle
 10
-34.0
 20
-20.5
 40
5.0
100
AcDbArc
 50
90.0
 51
126.869897645844
  0
ARC
  5
40
330
20
100
AcDbEntity
  8
100
  6
CONTINUOUS
100
AcDbCircle
 10
-49.90000000000001
 20
10.5
 40
0.5999999999996122
100
AcDbArc
 50
68.2030141588851
 51
180.0000000001717
  0
ARC
  5
41
330
20
100
AcDbEntity
  8
100
  6
CONTINUOUS
100
AcDbCircle
 10
-49.0
 20
11.4
 40
0.6000000000000014
100
AcDbArc
 50
340.6790845239612
 51
179.9999999999963
  0
ARC
  5
42
330
20
100
AcDbEntity
  8
100
  6
CONTINUOUS
100
AcDbCircle
 10
-48.09999999999999
 20
10.5
 40
0.6000000000000014
100
AcDbArc
 50
0.0
 51
128.4479837966045
  0
SPLINE
  5
43
330
20
100
AcDbEntity
  8
100
  6
CONTINUOUS
100
AcDbSpline
210
0.0
220
0.0
230
1.0
 70
     8
 71
     3
 72
    11
 73
     7
 74
     0
 42
1.000000000000000E-007
 43
1.000000000000000E-007
 40
0.0
 40
0.0
 40
0.0
 40
0.0
 40
1.941860290090338
 40
2.546679890528917
 40
3.552239805702858
 40
4.457792224302049
 40
4.457792224302049
 40
4.457792224302049
 40
4.457792224302049
 10
-49.59999999999999
 20
11.40000000000004
 30
0.0
 10
-49.70861244019142
 20
10.91913875598068
 30
0.0
 10
-50.14306220095693
 20
8.995693779904345
 30
0.0
 10
-49.93636363636364
 20
9.136363636363591
 30
0.0
 10
-50.1114832535886
 20
7.858851674640307
 30
0.0
 10
-50.18229665071772
 20
7.171770334928214
 30
0.0
 10
-50.19999999999999
 20
6.999999999999999
 30
0.0
  0
SPLINE
  5
44
330
20
100
AcDbEntity
  8
100
  6
CONTINUOUS
100
AcDbSpline
210
0.0
220
0.0
230
1.0
 70
     8
 71
     3
 72
    31
 73
    27
 74
     0
 42
1.000000000000000E-007
 43
1.000000000000000E-007
 40
0.0
 40
0.0
 40
0.0
 40
0.0
 40
0.2800150899950999
 40
0.5881110951478741
 40
0.9118594168861016
 40
1.238832772105402
 40
1.556606115140629
 40
1.852758464305868
 40
2.114877030565831
 40
2.330568389637369
 40
2.505025208714492
 40
2.62246050697122
 40
2.697497589804736
 40
2.744841493850826
 40
2.778798071725345
 40
2.812598207473528
 40
2.859719993069711
 40
2.934785103783618
 40
3.048631077160837
 40
3.195959910571392
 40
3.367307395884278
 40
3.553148145144362
 40
3.743935036707902
 40
3.930111272273012
 40
4.102115124464965
 40
4.250382179915781
 40
4.250382179915781
 40
4.250382179915781
 40
4.250382179915781
 10
-48.43379185814098
 20
11.20148466030941
 30
0.0
 10
-48.44842176295615
 20
11.11544238790266
 30
0.0
 10
-48.47988862642441
 20
10.93003588475738
 30
0.0
 10
-48.5314039885066
 20
10.62417632391516
 30
0.0
 10
-48.58492832283231
 20
10.30278302583407
 30
0.0
 10
-48.63815553476946
 20
9.978072059374243
 30
0.0
 10
-48.68877952968109
 20
9.662259493425154
 30
0.0
 10
-48.73449421293427
 20
9.367561396852151
 30
0.0
 10
-48.77299348989469
 20
9.106193838528073
 30
0.0
 10
-48.8029690427927
 20
8.882941635466716
 30
0.0
 10
-48.82064732142859
 20
8.717187499999865
 30
0.0
 10
-48.82751116071429
 20
8.602343749999839
 30
0.0
 10
-48.8260044642857
 20
8.529687500000019
 30
0.0
 10
-48.81914062500002
 20
8.485156250000117
 30
0.0
 10
-48.80993303571428
 20
8.45468750000002
 30
0.0
 10
-48.80139508928572
 20
8.424218750000055
 30
0.0
 10
-48.79654017857144
 20
8.379687500000065
 30
0.0
 10
-48.79838169642858
 20
8.307031250000012
 30
0.0
 10
-48.80993303571432
 20
8.192187499999776
 30
0.0
 10
-48.82926897321428
 20
8.044531250000029
 30
0.0
 10
-48.85446428571428
 20
7.873437500000007
 30
0.0
 10
-48.88359375000016
 20
7.688281249998947
 30
0.0
 10
-48.91473214285765
 20
7.49843749999692
 30
0.0
 10
-48.94595424107219
 20
7.313281249995513
 30
0.0
 10
-48.97533482142925
 20
7.142187499996111
 30
0.0
 10
-48.99241071428571
 20
7.043750000000001
 30
0.0
 10
-49.0
 20
7.0
 30
0.0
  0
SPLINE
  5
45
330
20
100
AcDbEntity
  8
100
  6
CONTINUOUS
100
AcDbSpline
210
0.0
220
0.0
230
1.0
 70
     8
 71
     3
 72
    12
 73
     8
 74
     0
 42
1.000000000000000E-007
 43
1.000000000000000E-007
 40
0.0
 40
0.0
 40
0.0
 40
0.0
 40
0.7313285868375453
 40
1.660002578933286
 40
2.444362755641274
 40
3.162756059426603
 40
4.062774440837054
 40
4.062774440837054
 40
4.062774440837054
 40
4.062774440837054
 10
-50.5
 20
10.50000000000003
 30
0.0
 10
-50.52153846153851
 20
10.35551282051269
 30
0.0
 10
-50.60769230769234
 20
9.777564102564094
 30
0.0
 10
-51.29076923076923
 20
9.045256410256389
 30
0.0
 10
-52.02923076923082
 20
8.641410256410216
 30
0.0
 10
-51.99230769230768
 20
7.98910256410344
 30
0.0
 10
-51.99846153846153
 20
7.197820512820504
 30
0.0
 10
-52.0
 20
6.999999999999999
 30
0.0
  0
SPLINE
  5
46
330
20
100
AcDbEntity
  8
100
  6
CONTINUOUS
100
AcDbSpline
210
0.0
220
0.0
230
1.0
 70
     8
 71
     3
 72
    31
 73
    27
 74
     0
 42
1.000000000000000E-007
 43
1.000000000000000E-007
 40
0.0
 40
0.0
 40
0.0
 40
0.0
 40
0.1026092007135702
 40
0.2026397362288182
 40
0.2992246304763452
 40
0.3915046892316102
 40
0.4786335390016191
 40
0.5597853640440244
 40
0.6341676626066095
 40
0.7010437960691859
 40
0.8065777218160377
 40
0.8900553058663334
 40
0.9571267901796605
 40
1.011843584595028
 40
1.05803628584455
 40
1.102765264993446
 40
1.158198565974638
 40
1.237356092147391
 40
1.348280549391795
 40
1.486489957257827
 40
1.644113755962359
 40
1.813070918423021
 40
1.985198906543055
 40
2.152297078462385
 40
2.306144766373631
 40
2.438510157693733
 40
2.438510157693733
 40
2.438510157693733
 40
2.438510157693733
 10
-50.01067787501418
 20
8.999477768924949
 30
0.0
 10
-50.03231026413614
 20
8.972555977993931
 30
0.0
 10
-50.07578491731
 20
8.919611216257779
 30
0.0
 10
-50.14104054677672
 20
8.843597859983539
 30
0.0
 10
-50.20575385086433
 20
8.771695615993053
 30
0.0
 10
-50.26933885448781
 20
8.704611810239955
 30
0.0
 10
-50.33120958256271
 20
8.643053768677294
 30
0.0
 10
-50.39078006000414
 20
8.587728817258563
 30
0.0
 10
-50.44746431172746
 20
8.539344281937012
 30
0.0
 10
-50.51645384586885
 20
8.486528945155847
 30
0.0
 10
-50.59188098086124
 20
8.440864234449752
 30
0.0
 10
-50.66791267942587
 20
8.408304052033467
 30
0.0
 10
-50.73156399521525
 20
8.389122308612443
 30
0.0
 10
-50.78388905502391
 20
8.375093450956927
 30
0.0
 10
-50.82594198564593
 20
8.357991925837302
 30
0.0
 10
-50.85877691387559
 20
8.329592180023917
 30
0.0
 10
-50.88344796650716
 20
8.281668660287092
 30
0.0
 10
-50.90100927033494
 20
8.205995813397122
 30
0.0
 10
-50.91251495215314
 20
8.094348086124139
 30
0.0
 10
-50.91887335526318
 20
7.954934210525864
 30
0.0
 10
-50.92099282296652
 20
7.795962918659581
 30
0.0
 10
-50.91978169856461
 20
7.625642942584236
 30
0.0
 10
-50.91614832535886
 20
7.452183014354063
 30
0.0
 10
-50.91100104665069
 20
7.28379186602762
 30
0.0
 10
-50.90524820574164
 20
7.128678229665068
 30
0.0
 10
-50.90161483253589
 20
7.039593301435405
 30
0.0
 10
-50.90000000000001
 20
7.0
 30
0.0
  0
SPLINE
  5
47
330
20
100
AcDbEntity
  8
100
  6
CONTINUOUS
100
AcDbSpline
210
0.0
220
0.0
230
1.0
 70
     8
 71
     3
 72
    10
 73
     6
 74
     0
 42
1.000000000000000E-007
 43
1.000000000000000E-007
 40
0.0
 40
0.0
 40
0.0
 40
0.0
 40
1.772325267465851
 40
3.204307319441341
 40
3.657781929039023
 40
3.657781929039023
 40
3.657781929039023
 40
3.657781929039023
 10
-47.5
 20
10.50000000000003
 30
0.0
 10
-47.61607142857145
 20
10.13749999999993
 30
0.0
 10
-48.08035714285711
 20
8.68750000000003
 30
0.0
 10
-48.29464285714286
 20
7.187500000000004
 30
0.0
 10
-48.45892857142857
 20
7.037500000000007
 30
0.0
 10
-48.5
 20
6.999999999999999
 30
0.0
  0
ARC
  5
48
330
20
100
AcDbEntity
  8
100
  6
DASHED
100
AcDbCircle
 10
-49.0
 20
10.5
 40
1.500000000000142
100
AcDbArc
 50
180.0000000000376
 51
325.4023069144972
  0
ARC
  5
49
330
20
100
AcDbEntity
  8
100
  6
CONTINUOUS
100
AcDbCircle
 10
-25.0
 20
6.5
 40
8.000000000000002
100
AcDbArc
 50
7.180755781458281
 51
153.4349488229221
  0
ARC
  5
4A
330
20
100
AcDbEntity
  8
100
  6
CONTINUOUS
100
AcDbCircle
 10
-25.0
 20
6.5
 40
8.000000000000005
100
AcDbArc
 50
153.4349488229221
 51
180.0
  0
ARC
  5
4B
330
20
100
AcDbEntity
  8
100
  6
CONTINUOUS
100
AcDbCircle
 10
-25.0
 20
-6.5
 40
8.0
100
AcDbArc
 50
180.0
 51
206.565051177078
  0
ARC
  5
4C
330
20
100
AcDbEntity
  8
100
  6
CONTINUOUS
100
AcDbCircle
 10
-25.0
 20
-6.5
 40
8.000000000000005
100
AcDbArc
 50
206.565051177078
 51
352.8192442185417
  0
LINE
  5
4D
330
20
100
AcDbEntity
  8
100
  6
CONTINUOUS
100
AcDbLine
 10
-34.0
 20
15.5
 11
-29.0
 21
15.5
  0
LINE
  5
4E
330
20
100
AcDbEntity
  8
100
  6
CONTINUOUS
100
AcDbLine
 10
-29.0
 20
15.5
 11
34.0
 21
15.5
  0
LINE
  5
4F
330
20
100
AcDbEntity
  8
100
  6
CONTINUOUS
100
AcDbLine
 10
-34.0
 20
-15.5
 11
-29.0
 21
-15.5
  0
LINE
  5
50
330
20
100
AcDbEntity
  8
100
  6
CONTINUOUS
100
AcDbLine
 10
-29.0
 20
-15.5
 11
34.0
 21
-15.5
  0
LINE
  5
51
330
20
100
AcDbEntity
  8
100
  6
CONTINUOUS
100
AcDbLine
 10
77.0
 20
16.5
 11
77.0
 21
-16.5
  0
LINE
  5
52
330
20
100
AcDbEntity
  8
100
  6
CONTINUOUS
100
AcDbLine
 10
83.0
 20
16.5
 11
83.0
 21
-16.5
  0
LINE
  5
53
330
20
100
AcDbEntity
  8
100
  6
CONTINUOUS
100
AcDbLine
 10
77.0
 20
16.5
 11
83.0
 21
16.5
  0
LINE
  5
54
330
20
100
AcDbEntity
  8
100
  6
CONTINUOUS
100
AcDbLine
 10
77.0
 20
-16.5
 11
83.0
 21
-16.5
  0
CIRCLE
  5
55
330
20
100
AcDbEntity
  8
100
  6
CONTINUOUS
100
AcDbCircle
 10
80.0
 20
-10.5
 40
1.5
  0
CIRCLE
  5
56
330
20
100
AcDbEntity
  8
100
  6
CONTINUOUS
100
AcDbCircle
 10
80.0
 20
-10.5
 40
1.2
  0
LINE
  5
57
330
20
100
AcDbEntity
  8
100
  6
CONTINUOUS
100
AcDbLine
 10
88.0
 20
12.0
 11
98.0
 21
12.0
  0
LINE
  5
58
330
20
100
AcDbEntity
  8
100
  6
CONTINUOUS
100
AcDbLine
 10
88.0
 20
9.0
 11
98.0
 21
9.0
  0
ARC
  5
59
330
20
100
AcDbEntity
  8
100
  6
CONTINUOUS
100
AcDbCircle
 10
97.6875
 20
11.25
 40
0.8125
100
AcDbArc
 50
292.6198649480405
 51
67.38013505195957
  0
ARC
  5
5A
330
20
100
AcDbEntity
  8
100
  6
CONTINUOUS
100
AcDbCircle
 10
98.3125
 20
9.75
 40
0.8125
100
AcDbArc
 50
112.6198649480404
 51
247.3801350519596
  0
ARC
  5
5B
330
20
100
AcDbEntity
  8
100
  6
CONTINUOUS
100
AcDbCircle
 10
97.6875
 20
9.75
 40
0.8125
100
AcDbArc
 50
292.6198649480405
 51
67.38013505195957
  0
LINE
  5
5C
330
20
100
AcDbEntity
  8
100
  6
CONTINUOUS
100
AcDbLine
 10
76.0
 20
6.0
 11
76.0
 21
-10.0
  0
LINE
  5
5D
330
20
100
AcDbEntity
  8
100
  6
CONTINUOUS
100
AcDbLine
 10
77.0
 20
7.0
 11
76.0
 21
6.0
  0
LINE
  5
5E
330
20
100
AcDbEntity
  8
100
  6
CONTINUOUS
100
AcDbLine
 10
77.0
 20
-11.0
 11
76.0
 21
-10.0
  0
HATCH
  5
5F
330
20
100
AcDbEntity
  8
100
  6
CONTINUOUS
100
AcDbHatch
 10
0.0
 20
0.0
 30
0.0
210
0.0
220
0.0
230
1.0
  2
_U
 70
     0
 71
     0
 91
        1
 92
        5
 93
        4
 72
     1
 10
77.0
 20
-11.0
 11
77.0
 21
7.0
 72
     1
 10
77.0
 20
7.0
 11
76.0
 21
6.0
 72
     1
 10
76.0
 20
6.0
 11
76.0
 21
-10.0
 72
     1
 10
76.0
 20
-10.0
 11
77.0
 21
-11.0
 97
        0
 75
     0
 76
     0
 52
0.0
 41
2.0
 77
     0
 78
     1
 53
45.0
 43
-18.0
 44
0.0
 45
-1.414213562373096
 46
1.414213562373095
 79
     0
 47
0.322189
 98
        1
 10
0.0
 20
0.0
  0
SPLINE
  5
60
330
20
100
AcDbEntity
  8
100
  6
CONTINUOUS
100
AcDbSpline
210
0.0
220
0.0
230
1.0
 70
     8
 71
     3
 72
    11
 73
     7
 74
     0
 42
1.000000000000000E-007
 43
1.000000000000000E-007
 40
0.0
 40
0.0
 40
0.0
 40
0.0
 40
0.3670754583772751
 40
0.6948931400298155
 40
1.011872587156895
 40
1.328160771416629
 40
1.328160771416629
 40
1.328160771416629
 40
1.328160771416629
 10
77.0
 20
9.000000000000009
 30
0.0
 10
76.91387559808612
 20
8.963636363636317
 30
0.0
 10
76.56937799043065
 20
8.818181818181847
 30
0.0
 10
76.83636363636353
 20
8.490909090909259
 30
0.0
 10
76.885167464115
 20
8.218181818181503
 30
0.0
 10
76.97703349282295
 20
7.96363636363636
 30
0.0
 10
77.0
 20
7.9
 30
0.0
  0
SPLINE
  5
61
330
20
100
AcDbEntity
  8
100
  6
CONTINUOUS
100
AcDbSpline
210
0.0
220
0.0
230
1.0
 70
     8
 71
     3
 72
    16
 73
    12
 74
     0
 42
1.000000000000000E-007
 43
1.000000000000000E-007
 40
0.0
 40
0.0
 40
0.0
 40
0.0
 40
0.4484076585940005
 40
0.8735276177089536
 40
1.516549349697104
 40
2.036188959836942
 40
2.668890950648573
 40
3.208031988601668
 40
3.610362607542941
 40
4.011588656768423
 40
4.42428163839026
 40
4.42428163839026
 40
4.42428163839026
 40
4.42428163839026
 10
77.00000000000006
 20
10.0000000000004
 30
0.0
 10
76.90494329747014
 20
9.962156017869793
 30
0.0
 10
76.52471648735093
 20
9.810780089348798
 30
0.0
 10
76.4060773480663
 20
9.519035660472554
 30
0.0
 10
75.65097412038375
 20
9.113077268761732
 30
0.0
 10
75.79002617039745
 20
8.62865526448328
 30
0.0
 10
75.98892119802258
 20
7.97230167331932
 30
0.0
 10
76.25428903751096
 20
7.48213804224283
 30
0.0
 10
76.19392265193373
 20
7.099146157710274
 30
0.0
 10
76.17002035475433
 20
6.721277326918342
 30
0.0
 10
76.27400407095087
 20
6.384255465383696
 30
0.0
 10
76.30000000000001
 20
6.300000000000006
 30
0.0
  0
SPLINE
  5
62
330
20
100
AcDbEntity
  8
100
  6
CONTINUOUS
100
AcDbSpline
210
0.0
220
0.0
230
1.0
 70
     8
 71
     3
 72
    14
 73
    10
 74
     0
 42
1.000000000000000E-007
 43
1.000000000000000E-007
 40
0.0
 40
0.0
 40
0.0
 40
0.0
 40
1.208308245211358
 40
2.226767277483631
 40
3.477781174707292
 40
4.436837258236239
 40
5.243420707004842
 40
5.965681627185485
 40
6.478898545870129
 40
6.478898545870129
 40
6.478898545870129
 40
6.478898545870129
 10
77.0
 20
11.00000000000012
 30
0.0
 10
76.75578976435929
 20
10.88986561119277
 30
0.0
 10
75.7789488217968
 20
10.44932805596456
 30
0.0
 10
75.03999447717229
 20
10.09255338733438
 30
0.0
 10
74.66107326951402
 20
8.580458394698024
 30
0.0
 10
75.1157124447717
 20
7.785613033873354
 30
0.0
 10
75.47607695139921
 20
7.077089469808374
 30
0.0
 10
75.97997974963175
 20
6.506029086892612
 30
0.0
 10
75.9959959499264
 20
6.101205817378485
 30
0.0
 10
76.0
 20
5.999999999999999
 30
0.0
  0
SPLINE
  5
63
330
20
100
AcDbEntity
  8
100
  6
CONTINUOUS
100
AcDbSpline
210
0.0
220
0.0
230
1.0
 70
     8
 71
     3
 72
    11
 73
     7
 74
     0
 42
1.000000000000000E-007
 43
1.000000000000000E-007
 40
0.0
 40
0.0
 40
0.0
 40
0.0
 40
1.237366304706584
 40
2.128297480398616
 40
3.039409891418954
 40
3.539412942848488
 40
3.539412942848488
 40
3.539412942848488
 40
3.539412942848488
 10
77.0
 20
12.00000000000002
 30
0.0
 10
76.72679425837316
 20
11.94066985645924
 30
0.0
 10
75.6339712918662
 20
11.70334928229671
 30
0.0
 10
74.99090909090904
 20
11.32727272727274
 30
0.0
 10
75.00239234449759
 20
10.18755980861243
 30
0.0
 10
75.00047846889947
 20
9.87751196172248
 30
0.0
 10
75.0
 20
9.800000000000001
 30
0.0
  0
LINE
  5
64
330
20
100
AcDbEntity
  8
100
  6
CONTINUOUS
100
AcDbLine
 10
-55.0
 20
47.0
 11
55.0
 21
47.0
  0
LINE
  5
65
330
20
100
AcDbEntity
  8
100
  6
CONTINUOUS
100
AcDbLine
 10
-55.0
 20
53.0
 11
55.0
 21
53.0
  0
LINE
  5
66
330
20
100
AcDbEntity
  8
100
  6
CONTINUOUS
100
AcDbLine
 10
55.0
 20
53.0
 11
55.0
 21
47.0
  0
LINE
  5
67
330
20
100
AcDbEntity
  8
100
  6
CONTINUOUS
100
AcDbLine
 10
-55.0
 20
53.0
 11
-55.0
 21
47.0
  0
LINE
  5
68
330
20
100
AcDbEntity
  8
100
  6
CONTINUOUS
100
AcDbLine
 10
37.0
 20
53.0
 11
37.0
 21
47.0
  0
LINE
  5
69
330
20
100
AcDbEntity
  8
100
  6
CONTINUOUS
100
AcDbLine
 10
-37.0
 20
53.0
 11
-37.0
 21
47.0
  0
CIRCLE
  5
6A
330
20
100
AcDbEntity
  8
100
  6
CONTINUOUS
100
AcDbCircle
 10
50.0
 20
50.0
 40
1.5
  0
CIRCLE
  5
6B
330
20
100
AcDbEntity
  8
100
  6
CONTINUOUS
100
AcDbCircle
 10
43.0
 20
50.0
 40
1.5
  0
CIRCLE
  5
6C
330
20
100
AcDbEntity
  8
100
  6
CONTINUOUS
100
AcDbCircle
 10
50.0
 20
50.0
 40
1.0
  0
CIRCLE
  5
6D
330
20
100
AcDbEntity
  8
100
  6
CONTINUOUS
100
AcDbCircle
 10
43.0
 20
50.0
 40
1.0
  0
LINE
  5
6E
330
20
100
AcDbEntity
  8
100
  6
CONTINUOUS
100
AcDbLine
 10
-53.5
 20
46.0
 11
-50.34721359549997
 21
46.0
  0
LINE
  5
6F
330
20
100
AcDbEntity
  8
100
  6
CONTINUOUS
100
AcDbLine
 10
-47.65278640450003
 20
46.0
 11
-34.0
 21
46.0
  0
ARC
  5
70
330
20
100
AcDbEntity
  8
100
  6
CONTINUOUS
100
AcDbCircle
 10
-49.75
 20
67.6875
 40
0.8125
100
AcDbArc
 50
22.61986494804043
 51
157.3801350519596
  0
ARC
  5
71
330
20
100
AcDbEntity
  8
100
  6
CONTINUOUS
100
AcDbCircle
 10
-48.25
 20
68.3125
 40
0.8125
100
AcDbArc
 50
202.6198649480404
 51
337.3801350519596
  0
ARC
  5
72
330
20
100
AcDbEntity
  8
100
  6
CONTINUOUS
100
AcDbCircle
 10
-48.25
 20
67.6875
 40
0.8125
100
AcDbArc
 50
22.61986494804043
 51
157.3801350519596
  0
ARC
  5
73
330
20
100
AcDbEntity
  8
100
  6
CONTINUOUS
100
AcDbCircle
 10
-49.90000000000001
 20
46.40000000000001
 40
0.5999999999999943
100
AcDbArc
 50
180.0
 51
318.5420175178224
  0
ARC
  5
74
330
20
100
AcDbEntity
  8
100
  6
CONTINUOUS
100
AcDbCircle
 10
-48.09999999999999
 20
46.40000000000001
 40
0.6000000000000001
100
AcDbArc
 50
221.8103148957789
 51
0.0
  0
ARC
  5
75
330
20
100
AcDbEntity
  8
100
  6
CONTINUOUS
100
AcDbCircle
 10
-49.0
 20
46.40000000000001
 40
0.6000000000000014
100
AcDbArc
 50
180.0
 51
1.357036664091113E-012
  0
LINE
  5
76
330
20
100
AcDbEntity
  8
100
  6
CONTINUOUS
100
AcDbLine
 10
-47.5
 20
46.40000000000001
 11
-47.5
 21
47.0
  0
LINE
  5
77
330
20
100
AcDbEntity
  8
100
  6
CONTINUOUS
100
AcDbLine
 10
-48.40000000000001
 20
46.40000000000002
 11
-48.40000000000001
 21
47.0
  0
LINE
  5
78
330
20
100
AcDbEntity
  8
100
  6
CONTINUOUS
100
AcDbLine
 10
-49.59999999999999
 20
46.40000000000001
 11
-49.59999999999999
 21
47.0
  0
LINE
  5
79
330
20
100
AcDbEntity
  8
100
  6
CONTINUOUS
100
AcDbLine
 10
-50.5
 20
46.40000000000001
 11
-50.5
 21
47.0
  0
LINE
  5
7A
330
20
100
AcDbEntity
  8
100
  6
CONTINUOUS
100
AcDbLine
 10
-33.0
 20
47.0
 11
-34.0
 21
46.0
  0
LINE
  5
7B
330
20
100
AcDbEntity
  8
100
  6
CONTINUOUS
100
AcDbLine
 10
-53.5
 20
46.0
 11
-54.5
 21
47.0
  0
HATCH
  5
7C
330
20
100
AcDbEntity
  8
100
  6
CONTINUOUS
100
AcDbHatch
 10
0.0
 20
0.0
 30
0.0
210
0.0
220
0.0
230
1.0
  2
_U
 70
     0
 71
     0
 91
        1
 92
        5
 93
        7
 72
     1
 10
-34.0
 20
46.0
 11
-33.0
 21
47.0
 72
     1
 10
-33.0
 20
47.0
 11
-47.5
 21
47.0
 72
     1
 10
-47.5
 20
47.0
 11
-47.5
 21
46.40000152587891
 72
     1
 10
-47.5
 20
46.40000152587891
 11
-47.53078842163086
 21
46.21026611328125
 72
     1
 10
-47.53078842163086
 20
46.21026611328125
 11
-47.65278625488281
 21
46.0
 72
     1
 10
-47.65278625488281
 20
46.0
 11
-34.0
 21
46.0
 72
     1
 10
-34.0
 20
46.0
 11
-34.0
 21
46.0
 97
        0
 75
     0
 76
     0
 52
0.0
 41
2.0
 77
     0
 78
     1
 53
45.0
 43
0.0
 44
-23.0
 45
-1.414213562373095
 46
1.414213562373096
 79
     0
 47
0.322189
 98
        1
 10
0.0
 20
0.0
  0
HATCH
  5
7D
330
20
100
AcDbEntity
  8
100
  6
CONTINUOUS
100
AcDbHatch
 10
0.0
 20
0.0
 30
0.0
210
0.0
220
0.0
230
1.0
  2
_U
 70
     0
 71
     0
 91
        1
 92
        5
 93
        7
 72
     1
 10
-53.5
 20
46.0
 11
-54.5
 21
47.0
 72
     1
 10
-54.5
 20
47.0
 11
-50.5
 21
47.0
 72
     1
 10
-50.5
 20
47.0
 11
-50.5
 21
46.40000152587891
 72
     1
 10
-50.5
 20
46.40000152587891
 11
-50.46921157836914
 21
46.21026611328125
 72
     1
 10
-50.46921157836914
 20
46.21026611328125
 11
-50.34721374511719
 21
46.0
 72
     1
 10
-50.34721374511719
 20
46.0
 11
-53.5
 21
46.0
 72
     1
 10
-53.5
 20
46.0
 11
-53.5
 21
46.0
 97
        0
 75
     0
 76
     0
 52
0.0
 41
2.0
 77
     0
 78
     1
 53
45.0
 43
0.0
 44
-23.0
 45
-1.414213562373095
 46
1.414213562373096
 79
     0
 47
0.322189
 98
        1
 10
0.0
 20
0.0
  0
CIRCLE
  5
7E
330
20
100
AcDbEntity
  8
100
  6
CONTINUOUS
100
AcDbCircle
 10
-50.0
 20
-50.0
 40
1.5
  0
CIRCLE
  5
7F
330
20
100
AcDbEntity
  8
100
  6
CONTINUOUS
100
AcDbCircle
 10
-43.0
 20
-50.0
 40
1.5
  0
CIRCLE
  5
80
330
20
100
AcDbEntity
  8
100
  6
CONTINUOUS
100
AcDbCircle
 10
-50.0
 20
-50.0
 40
1.0
  0
CIRCLE
  5
81
330
20
100
AcDbEntity
  8
100
  6
CONTINUOUS
100
AcDbCircle
 10
-43.0
 20
-50.0
 40
1.0
  0
LINE
  5
82
330
20
100
AcDbEntity
  8
100
  6
CONTINUOUS
100
AcDbLine
 10
-55.0
 20
-53.0
 11
55.0
 21
-53.0
  0
LINE
  5
83
330
20
100
AcDbEntity
  8
100
  6
CONTINUOUS
100
AcDbLine
 10
55.0
 20
-53.0
 11
55.0
 21
-47.0
  0
LINE
  5
84
330
20
100
AcDbEntity
  8
100
  6
CONTINUOUS
100
AcDbLine
 10
-55.0
 20
-47.0
 11
55.0
 21
-47.0
  0
LINE
  5
85
330
20
100
AcDbEntity
  8
100
  6
CONTINUOUS
100
AcDbLine
 10
37.0
 20
-53.0
 11
37.0
 21
-47.0
  0
LINE
  5
86
330
20
100
AcDbEntity
  8
100
  6
CONTINUOUS
100
AcDbLine
 10
-37.0
 20
-53.0
 11
-37.0
 21
-47.0
  0
LINE
  5
87
330
20
100
AcDbEntity
  8
100
  6
CONTINUOUS
100
AcDbLine
 10
-55.0
 20
-53.0
 11
-55.0
 21
-47.0
  0
LINE
  5
88
330
20
100
AcDbEntity
  8
100
  6
CONTINUOUS
100
AcDbLine
 10
-33.0
 20
-47.0
 11
-34.0
 21
-46.0
  0
LINE
  5
89
330
20
100
AcDbEntity
  8
100
  6
CONTINUOUS
100
AcDbLine
 10
-53.5
 20
-46.0
 11
-34.0
 21
-46.0
  0
LINE
  5
8A
330
20
100
AcDbEntity
  8
100
  6
CONTINUOUS
100
AcDbLine
 10
-53.5
 20
-46.0
 11
-54.5
 21
-47.0
  0
HATCH
  5
8B
330
20
100
AcDbEntity
  8
100
  6
CONTINUOUS
100
AcDbHatch
 10
0.0
 20
0.0
 30
0.0
210
0.0
220
0.0
230
1.0
  2
_U
 70
     0
 71
     0
 91
        1
 92
        5
 93
        5
 72
     1
 10
-33.0
 20
-47.0
 11
-34.0
 21
-46.0
 72
     1
 10
-34.0
 20
-46.0
 11
-53.5
 21
-46.0
 72
     1
 10
-53.5
 20
-46.0
 11
-54.5
 21
-47.0
 72
     1
 10
-54.5
 20
-47.0
 11
-33.0
 21
-47.0
 72
     1
 10
-33.0
 20
-47.0
 11
-33.0
 21
-47.0
 97
        0
 75
     0
 76
     0
 52
0.0
 41
2.0
 77
     0
 78
     1
 53
45.0
 43
0.0
 44
23.0
 45
-1.414213562373095
 46
1.414213562373096
 79
     0
 47
0.322189
 98
        1
 10
0.0
 20
0.0
  0
ARC
  5
8C
330
20
100
AcDbEntity
  8
100
  6
CONTINUOUS
100
AcDbCircle
 10
-24.984375
 20
-2.53125
 40
10.03126216899574
100
AcDbArc
 50
89.91075430969244
 51
143.040856663851
  0
ARC
  5
8D
330
20
100
AcDbEntity
  8
100
  6
CONTINUOUS
100
AcDbCircle
 10
-24.984375
 20
2.53125
 40
10.03126216899574
100
AcDbArc
 50
216.959143336149
 51
270.0892456903076
  0
LINE
  5
8E
330
20
100
AcDbEntity
  8
100
  6
CONTINUOUS
100
AcDbLine
 10
-53.0
 20
-11.0
 11
-38.0
 21
-11.0
  0
ARC
  5
8F
330
20
100
AcDbEntity
  8
100
  6
CONTINUOUS
100
AcDbCircle
 10
-38.0
 20
-9.5
 40
1.5
100
AcDbArc
 50
270.0
 51
334.3701787811681
  0
LINE
  5
90
330
20
100
AcDbEntity
  8
100
  6
CONTINUOUS
100
AcDbLine
 10
-33.0
 20
-5.0
 11
-36.64758873059026
 21
-10.14883261198367
  0
HATCH
  5
91
330
20
100
AcDbEntity
  8
100
  6
CONTINUOUS
100
AcDbHatch
 10
0.0
 20
0.0
 30
0.0
210
0.0
220
0.0
230
1.0
  2
_U
 70
     0
 71
     0
 91
        1
 92
        5
 93
        9
 72
     1
 10
-33.0
 20
-5.0
 11
-33.0
 21
5.0
 72
     1
 10
-33.0
 20
5.0
 11
-38.0
 21
7.0
 72
     1
 10
-38.0
 20
7.0
 11
-53.0
 21
7.0
 72
     2
 10
-53.0
 20
5.5
 40
1.5
 50
90.0
 51
180.0
 73
     1
 72
     1
 10
-54.5
 20
5.5
 11
-54.5
 21
-9.5
 72
     2
 10
-53.0
 20
-9.5
 40
1.5
 50
180.0
 51
270.0
 73
     1
 72
     1
 10
-53.0
 20
-11.0
 11
-38.0
 21
-11.0
 72
     2
 10
-38.0
 20
-9.5
 40
1.5
 50
270.0
 51
334.3701787811675
 73
     1
 72
     1
 10
-36.64758873059026
 20
-10.14883261198368
 11
-33.0
 21
-5.0
 97
        0
 75
     0
 76
     0
 52
0.0
 41
2.0
 77
     0
 78
     1
 53
45.0
 43
0.0
 44
0.0
 45
-1.414213562373095
 46
1.414213562373095
 79
     0
 47
0.322189
 98
        1
 10
0.0
 20
0.0
  0
LINE
  5
92
330
20
100
AcDbEntity
  8
100
  6
CONTINUOUS
100
AcDbLine
 10
-33.0
 20
5.0
 11
-38.0
 21
7.0
  0
LINE
  5
93
330
20
100
AcDbEntity
  8
100
  6
CONTINUOUS
100
AcDbLine
 10
-53.0
 20
7.0
 11
-38.0
 21
7.0
  0
LINE
  5
94
330
20
100
AcDbEntity
  8
100
  6
CONTINUOUS
100
AcDbLine
 10
-54.5
 20
-9.5
 11
-54.5
 21
5.5
  0
ARC
  5
95
330
20
100
AcDbEntity
  8
100
  6
CONTINUOUS
100
AcDbCircle
 10
-53.0
 20
5.5
 40
1.5
100
AcDbArc
 50
90.0
 51
180.0
  0
ARC
  5
96
330
20
100
AcDbEntity
  8
100
  6
CONTINUOUS
100
AcDbCircle
 10
-53.0
 20
-9.5
 40
1.5
100
AcDbArc
 50
180.0
 51
270.0
  0
LINE
  5
97
330
20
100
AcDbEntity
  8
100
  6
CONTINUOUS
100
AcDbLine
 10
-51.0
 20
58.0
 11
-47.0
 21
58.0
  0
LINE
  5
98
330
20
100
AcDbEntity
  8
100
  6
CONTINUOUS
100
AcDbLine
 10
-47.0
 20
53.0
 11
-47.0
 21
58.0
  0
LINE
  5
99
330
20
100
AcDbEntity
  8
100
  6
CONTINUOUS
100
AcDbLine
 10
-51.0
 20
53.0
 11
-51.0
 21
58.0
  0
LINE
  5
9A
330
20
100
AcDbEntity
  8
100
  6
CONTINUOUS
100
AcDbLine
 10
-51.0
 20
-58.0
 11
-47.0
 21
-58.0
  0
LINE
  5
9B
330
20
100
AcDbEntity
  8
100
  6
CONTINUOUS
100
AcDbLine
 10
-47.0
 20
-53.0
 11
-47.0
 21
-58.0
  0
LINE
  5
9C
330
20
100
AcDbEntity
  8
100
  6
CONTINUOUS
100
AcDbLine
 10
-51.0
 20
-53.0
 11
-51.0
 21
-58.0
  0
LINE
  5
9D
330
20
100
AcDbEntity
  8
100
  6
CONTINUOUS
100
AcDbLine
 10
88.0
 20
8.5
 11
88.0
 21
12.5
  0
LINE
  5
9E
330
20
100
AcDbEntity
  8
100
  6
CONTINUOUS
100
AcDbLine
 10
83.0
 20
12.5
 11
88.0
 21
12.5
  0
LINE
  5
9F
330
20
100
AcDbEntity
  8
100
  6
CONTINUOUS
100
AcDbLine
 10
83.0
 20
8.5
 11
88.0
 21
8.5
  0
HATCH
  5
A0
330
20
100
AcDbEntity
  8
100
  6
CONTINUOUS
100
AcDbHatch
 10
0.0
 20
0.0
 30
0.0
210
0.0
220
0.0
230
1.0
  2
_U
 70
     0
 71
     0
 91
        1
 92
        5
 93
        5
 72
     1
 10
37.0
 20
47.0
 11
-33.0
 21
47.0
 72
     1
 10
-33.0
 20
47.0
 11
-37.0
 21
47.0
 72
     1
 10
-37.0
 20
47.0
 11
-37.0
 21
53.0
 72
     1
 10
-37.0
 20
53.0
 11
37.0
 21
53.0
 72
     1
 10
37.0
 20
53.0
 11
37.0
 21
47.0
 97
        0
 75
     0
 76
     0
 52
0.0
 41
2.0
 77
     0
 78
     1
 53
45.0
 43
0.0
 44
-5.0
 45
-1.414213562373095
 46
1.414213562373095
 79
     0
 47
0.322189
 98
        1
 10
0.0
 20
0.0
  0
HATCH
  5
A1
330
20
100
AcDbEntity
  8
100
  6
CONTINUOUS
100
AcDbHatch
 10
0.0
 20
0.0
 30
0.0
210
0.0
220
0.0
230
1.0
  2
_U
 70
     0
 71
     0
 91
        1
 92
        5
 93
        5
 72
     1
 10
-33.0
 20
-47.0
 11
37.0
 21
-47.0
 72
     1
 10
37.0
 20
-47.0
 11
37.0
 21
-53.0
 72
     1
 10
37.0
 20
-53.0
 11
-37.0
 21
-53.0
 72
     1
 10
-37.0
 20
-53.0
 11
-37.0
 21
-47.0
 72
     1
 10
-37.0
 20
-47.0
 11
-33.0
 21
-47.0
 97
        0
 75
     0
 76
     0
 52
0.0
 41
2.0
 77
     0
 78
     1
 53
45.0
 43
0.0
 44
0.0
 45
-1.414213562373095
 46
1.414213562373095
 79
     0
 47
0.322189
 98
        1
 10
0.0
 20
0.0
  0
LINE
  5
A2
330
20
100
AcDbEntity
  8
100
  6
CONTINUOUS
100
AcDbLine
 10
-47.5
 20
58.0
 11
-47.5
 21
68.0
  0
LINE
  5
A3
330
20
100
AcDbEntity
  8
100
  6
CONTINUOUS
100
AcDbLine
 10
-50.5
 20
58.0
 11
-50.5
 21
68.0
  0
ARC
  5
A4
330
20
100
AcDbEntity
  8
100
  6
CONTINUOUS
100
AcDbCircle
 10
-48.25
 20
-67.6875
 40
0.8125
100
AcDbArc
 50
202.6198649480404
 51
337.3801350519596
  0
ARC
  5
A5
330
20
100
AcDbEntity
  8
100
  6
CONTINUOUS
100
AcDbCircle
 10
-49.75
 20
-68.3125
 40
0.8125
100
AcDbArc
 50
22.61986494804043
 51
157.3801350519596
  0
ARC
  5
A6
330
20
100
AcDbEntity
  8
100
  6
CONTINUOUS
100
AcDbCircle
 10
-49.75
 20
-67.6875
 40
0.8125
100
AcDbArc
 50
202.6198649480404
 51
337.3801350519596
  0
LINE
  5
A7
330
20
100
AcDbEntity
  8
100
  6
CONTINUOUS
100
AcDbLine
 10
-50.5
 20
-58.0
 11
-50.5
 21
-68.0
  0
LINE
  5
A8
330
20
100
AcDbEntity
  8
100
  6
CONTINUOUS
100
AcDbLine
 10
-47.5
 20
-58.0
 11
-47.5
 21
-68.0
  0
LINE
  5
A9
330
20
100
AcDbEntity
  8
100
  6
CENTER
100
AcDbLine
 10
56.5
 20
50.0
 11
36.5
 21
50.0
  0
LINE
  5
AA
330
20
100
AcDbEntity
  8
100
  6
CENTER
100
AcDbLine
 10
50.0
 20
56.5
 11
50.0
 21
43.5
  0
LINE
  5
AB
330
20
100
AcDbEntity
  8
100
  6
CENTER
100
AcDbLine
 10
43.0
 20
56.5
 11
43.0
 21
43.5
  0
LINE
  5
AC
330
20
100
AcDbEntity
  8
100
  6
CENTER
100
AcDbLine
 10
-56.5
 20
-50.0
 11
-36.5
 21
-50.0
  0
LINE
  5
AD
330
20
100
AcDbEntity
  8
100
  6
CENTER
100
AcDbLine
 10
-50.0
 20
-56.5
 11
-50.0
 21
-43.5
  0
LINE
  5
AE
330
20
100
AcDbEntity
  8
100
  6
CENTER
100
AcDbLine
 10
-43.0
 20
-56.5
 11
-43.0
 21
-43.5
  0
LINE
  5
AF
330
20
100
AcDbEntity
  8
100
  6
CENTER
100
AcDbLine
 10
73.5
 20
-10.5
 11
86.5
 21
-10.5
  0
LINE
  5
B0
330
20
100
AcDbEntity
  8
100
  6
CENTER
100
AcDbLine
 10
80.0
 20
-17.0
 11
80.0
 21
-4.0
  0
LINE
  5
B1
330
20
100
AcDbEntity
  8
100
  6
CENTER
100
AcDbLine
 10
-56.49999999999999
 20
10.5
 11
-41.50000000000001
 21
10.5
  0
LINE
  5
B2
330
20
100
AcDbEntity
  8
100
  6
CENTER
100
AcDbLine
 10
-49.0
 20
3.000000000000009
 11
-49.0
 21
17.99999999999999
  0
LINE
  5
B3
330
20
100
AcDbEntity
  8
100
  6
CONTINUOUS
100
AcDbLine
 10
-77.0
 20
16.5
 11
-77.0
 21
-16.5
  0
LINE
  5
B4
330
20
100
AcDbEntity
  8
100
  6
CONTINUOUS
100
AcDbLine
 10
-83.0
 20
16.5
 11
-83.0
 21
-16.5
  0
LINE
  5
B5
330
20
100
AcDbEntity
  8
100
  6
CONTINUOUS
100
AcDbLine
 10
-77.0
 20
16.5
 11
-83.0
 21
16.5
  0
LINE
  5
B6
330
20
100
AcDbEntity
  8
100
  6
CONTINUOUS
100
AcDbLine
 10
-77.0
 20
-16.5
 11
-83.0
 21
-16.5
  0
LINE
  5
B7
330
20
100
AcDbEntity
  8
100
  6
CONTINUOUS
100
AcDbLine
 10
-88.0
 20
12.0
 11
-98.0
 21
12.0
  0
LINE
  5
B8
330
20
100
AcDbEntity
  8
100
  6
CONTINUOUS
100
AcDbLine
 10
-88.0
 20
9.0
 11
-98.0
 21
9.0
  0
ARC
  5
B9
330
20
100
AcDbEntity
  8
100
  6
CONTINUOUS
100
AcDbCircle
 10
-97.6875
 20
11.25
 40
0.8125
100
AcDbArc
 50
112.6198649480404
 51
247.3801350519596
  0
ARC
  5
BA
330
20
100
AcDbEntity
  8
100
  6
CONTINUOUS
100
AcDbCircle
 10
-98.3125
 20
9.75
 40
0.8125
100
AcDbArc
 50
292.6198649480405
 51
67.38013505195957
  0
ARC
  5
BB
330
20
100
AcDbEntity
  8
100
  6
CONTINUOUS
100
AcDbCircle
 10
-97.6875
 20
9.75
 40
0.8125
100
AcDbArc
 50
112.6198649480404
 51
247.3801350519596
  0
LINE
  5
BC
330
20
100
AcDbEntity
  8
100
  6
CONTINUOUS
100
AcDbLine
 10
-76.0
 20
6.0
 11
-76.0
 21
-10.0
  0
LINE
  5
BD
330
20
100
AcDbEntity
  8
100
  6
CONTINUOUS
100
AcDbLine
 10
-77.0
 20
7.0
 11
-76.0
 21
6.0
  0
LINE
  5
BE
330
20
100
AcDbEntity
  8
100
  6
CONTINUOUS
100
AcDbLine
 10
-77.0
 20
-11.0
 11
-76.0
 21
-10.0
  0
HATCH
  5
BF
330
20
100
AcDbEntity
  8
100
  6
CONTINUOUS
100
AcDbHatch
 10
0.0
 20
0.0
 30
0.0
210
0.0
220
0.0
230
1.0
  2
_U
 70
     0
 71
     0
 91
        1
 92
        5
 93
        4
 72
     1
 10
-77.0
 20
-11.0
 11
-77.0
 21
7.0
 72
     1
 10
-77.0
 20
7.0
 11
-76.0
 21
6.0
 72
     1
 10
-76.0
 20
6.0
 11
-76.0
 21
-10.0
 72
     1
 10
-76.0
 20
-10.0
 11
-77.0
 21
-11.0
 97
        0
 75
     0
 76
     0
 52
0.0
 41
2.0
 77
     0
 78
     1
 53
45.0
 43
-18.0
 44
0.0
 45
-1.414213562373096
 46
1.414213562373095
 79
     0
 47
0.322189
 98
        1
 10
0.0
 20
0.0
  0
SPLINE
  5
C0
330
20
100
AcDbEntity
  8
100
  6
CONTINUOUS
100
AcDbSpline
210
0.0
220
0.0
230
1.0
 70
     8
 71
     3
 72
    11
 73
     7
 74
     0
 42
1.000000000000000E-007
 43
1.000000000000000E-007
 40
0.0
 40
0.0
 40
0.0
 40
0.0
 40
0.3670754583772751
 40
0.6948931400298155
 40
1.011872587156895
 40
1.328160771416629
 40
1.328160771416629
 40
1.328160771416629
 40
1.328160771416629
 10
-77.0
 20
9.000000000000009
 30
0.0
 10
-76.91387559808612
 20
8.963636363636317
 30
0.0
 10
-76.56937799043065
 20
8.818181818181847
 30
0.0
 10
-76.83636363636353
 20
8.490909090909259
 30
0.0
 10
-76.885167464115
 20
8.218181818181503
 30
0.0
 10
-76.97703349282295
 20
7.96363636363636
 30
0.0
 10
-77.0
 20
7.9
 30
0.0
  0
SPLINE
  5
C1
330
20
100
AcDbEntity
  8
100
  6
CONTINUOUS
100
AcDbSpline
210
0.0
220
0.0
230
1.0
 70
     8
 71
     3
 72
    16
 73
    12
 74
     0
 42
1.000000000000000E-007
 43
1.000000000000000E-007
 40
0.0
 40
0.0
 40
0.0
 40
0.0
 40
0.4484076585940005
 40
0.8735276177089536
 40
1.516549349697104
 40
2.036188959836942
 40
2.668890950648573
 40
3.208031988601668
 40
3.610362607542941
 40
4.011588656768423
 40
4.42428163839026
 40
4.42428163839026
 40
4.42428163839026
 40
4.42428163839026
 10
-77.00000000000006
 20
10.0000000000004
 30
0.0
 10
-76.90494329747014
 20
9.962156017869793
 30
0.0
 10
-76.52471648735093
 20
9.810780089348798
 30
0.0
 10
-76.4060773480663
 20
9.519035660472554
 30
0.0
 10
-75.65097412038375
 20
9.113077268761732
 30
0.0
 10
-75.79002617039745
 20
8.62865526448328
 30
0.0
 10
-75.98892119802258
 20
7.97230167331932
 30
0.0
 10
-76.25428903751096
 20
7.48213804224283
 30
0.0
 10
-76.19392265193373
 20
7.099146157710274
 30
0.0
 10
-76.17002035475433
 20
6.721277326918342
 30
0.0
 10
-76.27400407095087
 20
6.384255465383696
 30
0.0
 10
-76.30000000000001
 20
6.300000000000006
 30
0.0
  0
SPLINE
  5
C2
330
20
100
AcDbEntity
  8
100
  6
CONTINUOUS
100
AcDbSpline
210
0.0
220
0.0
230
1.0
 70
     8
 71
     3
 72
    14
 73
    10
 74
     0
 42
1.000000000000000E-007
 43
1.000000000000000E-007
 40
0.0
 40
0.0
 40
0.0
 40
0.0
 40
1.208308245211358
 40
2.226767277483631
 40
3.477781174707292
 40
4.436837258236239
 40
5.243420707004842
 40
5.965681627185485
 40
6.478898545870129
 40
6.478898545870129
 40
6.478898545870129
 40
6.478898545870129
 10
-77.0
 20
11.00000000000012
 30
0.0
 10
-76.75578976435929
 20
10.88986561119277
 30
0.0
 10
-75.7789488217968
 20
10.44932805596456
 30
0.0
 10
-75.03999447717229
 20
10.09255338733438
 30
0.0
 10
-74.66107326951402
 20
8.580458394698024
 30
0.0
 10
-75.1157124447717
 20
7.785613033873354
 30
0.0
 10
-75.47607695139921
 20
7.077089469808374
 30
0.0
 10
-75.97997974963175
 20
6.506029086892612
 30
0.0
 10
-75.9959959499264
 20
6.101205817378485
 30
0.0
 10
-76.0
 20
5.999999999999999
 30
0.0
  0
SPLINE
  5
C3
330
20
100
AcDbEntity
  8
100
  6
CONTINUOUS
100
AcDbSpline
210
0.0
220
0.0
230
1.0
 70
     8
 71
     3
 72
    11
 73
     7
 74
     0
 42
1.000000000000000E-007
 43
1.000000000000000E-007
 40
0.0
 40
0.0
 40
0.0
 40
0.0
 40
1.237366304706584
 40
2.128297480398616
 40
3.039409891418954
 40
3.539412942848488
 40
3.539412942848488
 40
3.539412942848488
 40
3.539412942848488
 10
-77.0
 20
12.00000000000002
 30
0.0
 10
-76.72679425837316
 20
11.94066985645924
 30
0.0
 10
-75.6339712918662
 20
11.70334928229671
 30
0.0
 10
-74.99090909090904
 20
11.32727272727274
 30
0.0
 10
-75.00239234449759
 20
10.18755980861243
 30
0.0
 10
-75.00047846889947
 20
9.87751196172248
 30
0.0
 10
-75.0
 20
9.800000000000001
 30
0.0
  0
LINE
  5
C4
330
20
100
AcDbEntity
  8
100
  6
CONTINUOUS
100
AcDbLine
 10
-88.0
 20
8.5
 11
-88.0
 21
12.5
  0
LINE
  5
C5
330
20
100
AcDbEntity
  8
100
  6
CONTINUOUS
100
AcDbLine
 10
-83.0
 20
12.5
 11
-88.0
 21
12.5
  0
LINE
  5
C6
330
20
100
AcDbEntity
  8
100
  6
CONTINUOUS
100
AcDbLine
 10
-83.0
 20
8.5
 11
-88.0
 21
8.5
  0
LINE
  5
C7
330
20
100
AcDbEntity
  8
100
  6
CONTINUOUS
100
AcDbLine
 10
-14.0
 20
-46.0
 11
14.0
 21
-46.0
  0
ARC
  5
C8
330
20
100
AcDbEntity
  8
100
  6
CONTINUOUS
100
AcDbCircle
 10
14.0
 20
-47.0
 40
1.0
100
AcDbArc
 50
0.0
 51
90.0
  0
ARC
  5
C9
330
20
100
AcDbEntity
  8
100
  6
CONTINUOUS
100
AcDbCircle
 10
-14.0
 20
-47.0
 40
1.0
100
AcDbArc
 50
90.0
 51
180.0
  0
LWPOLYLINE
  5
CA
330
20
100
AcDbEntity
  8
100
  6
CONTINUOUS
100
AcDbPolyline
 90
        5
 70
     0
 43
0.0
 10
15.0
 20
-47.0
 10
-15.0
 20
-47.0
 42
-0.414213562373094
 10
-14.0
 20
-46.0
 10
14.0
 20
-46.0
 42
-0.414213562373094
 10
15.0
 20
-47.0
  0
HATCH
  5
CB
330
20
100
AcDbEntity
  8
100
  6
CONTINUOUS
100
AcDbHatch
 10
0.0
 20
0.0
 30
0.0
210
0.0
220
0.0
230
1.0
  2
_U
 70
     0
 71
     0
 91
        1
 92
        5
 93
        4
 72
     1
 10
15.0
 20
-47.0
 11
-15.0
 21
-47.0
 72
     2
 10
-14.0
 20
-47.0
 40
1.0
 50
-180.0
 51
-90.0
 73
     0
 72
     1
 10
-14.0
 20
-46.0
 11
14.0
 21
-46.0
 72
     2
 10
14.0
 20
-47.0
 40
1.0
 50
-90.0
 51
0.0
 73
     0
 97
        0
 75
     0
 76
     0
 52
0.0
 41
2.0
 77
     0
 78
     1
 53
45.0
 43
0.0
 44
0.0
 45
-1.414213562373095
 46
1.414213562373095
 79
     0
 47
0.322189
 98
        1
 10
0.0
 20
0.0
  0
ARC
  5
CC
330
20
100
AcDbEntity
  8
100
  6
CONTINUOUS
100
AcDbCircle
 10
14.0
 20
47.0
 40
1.0
100
AcDbArc
 50
270.0
 51
0.0
  0
LINE
  5
CD
330
20
100
AcDbEntity
  8
100
  6
CONTINUOUS
100
AcDbLine
 10
-14.0
 20
46.0
 11
14.0
 21
46.0
  0
ARC
  5
CE
330
20
100
AcDbEntity
  8
100
  6
CONTINUOUS
100
AcDbCircle
 10
-14.0
 20
47.0
 40
1.0
100
AcDbArc
 50
180.0
 51
270.0
  0
LWPOLYLINE
  5
CF
330
20
100
AcDbEntity
  8
100
  6
CONTINUOUS
100
AcDbPolyline
 90
        5
 70
     0
 43
0.0
 10
15.0
 20
47.0
 10
-15.0
 20
47.0
 42
0.4142135623730994
 10
-14.0
 20
46.0
 10
14.0
 20
46.0
 42
0.4142135623730994
 10
15.0
 20
47.0
  0
HATCH
  5
D0
330
20
100
AcDbEntity
  8
100
  6
CONTINUOUS
100
AcDbHatch
 10
0.0
 20
0.0
 30
0.0
210
0.0
220
0.0
230
1.0
  2
_U
 70
     0
 71
     0
 91
        1
 92
        5
 93
        4
 72
     1
 10
15.0
 20
47.0
 11
-15.0
 21
47.0
 72
     2
 10
-14.0
 20
47.0
 40
1.0
 50
180.0
 51
270.0
 73
     1
 72
     1
 10
-14.0
 20
46.0
 11
14.0
 21
46.0
 72
     2
 10
14.0
 20
47.0
 40
1.0
 50
270.0
 51
360.0
 73
     1
 97
        0
 75
     0
 76
     0
 52
0.0
 41
2.0
 77
     0
 78
     1
 53
45.0
 43
0.0
 44
0.0
 45
-1.414213562373095
 46
1.414213562373095
 79
     0
 47
0.322189
 98
        1
 10
0.0
 20
0.0
  0
ENDSEC
  0
SECTION
  2
OBJECTS
  0
DICTIONARY
  5
C
100
AcDbDictionary
281
     1
  3
ACAD_GROUP
350
D
  3
ACAD_MLINESTYLE
350
E
  3
ACDBVARIABLEDICTIONARY
350
D1
  3
ACAD_PLOTSTYLENAME
350
D2
  3
ACAD_LAYOUT
350
D3
  3
ACAD_PLOTSETTINGS
350
D4
  0
DICTIONARY
  5
D
102
{ACAD_REACTORS
330
C
102
}
330
C
100
AcDbDictionary
281
     1
  0
DICTIONARY
  5
E
102
{ACAD_REACTORS
330
C
102
}
330
C
100
AcDbDictionary
281
     1
  3
STANDARD
350
13
  0
DICTIONARY
  5
D1
102
{ACAD_REACTORS
330
C
102
}
330
C
100
AcDbDictionary
281
     1
  3
SORTENTS
350
D5
  0
ACDBDICTIONARYWDFLT
  5
D2
102
{ACAD_REACTORS
330
C
102
}
330
C
100
AcDbDictionary
281
     1
  3
Normal
350
D6
100
AcDbDictionaryWithDefault
340
D6
  0
DICTIONARY
  5
D3
102
{ACAD_REACTORS
330
C
102
}
330
C
100
AcDbDictionary
281
     1
  3
Model
350
D7
  0
DICTIONARY
  5
D4
102
{ACAD_REACTORS
330
C
102
}
330
C
100
AcDbDictionary
281
     1
  0
MLINESTYLE
  5
13
102
{ACAD_REACTORS
330
E
102
}
330
E
100
AcDbMlineStyle
  2
STANDARD
 70
     0
  3

 62
   256
 51
90.0
 52
90.0
 71
     2
 49
0.5
 62
   256
  6
BYLAYER
 49
-0.5
 62
   256
  6
BYLAYER
  0
DICTIONARYVAR
  5
D5
102
{ACAD_REACTORS
330
D1
102
}
330
D1
100
DictionaryVariables
280
     0
  1
96
  0
ACDBPLACEHOLDER
  5
D6
102
{ACAD_REACTORS
330
D2
102
}
330
D2
  0
LAYOUT
  5
D7
102
{ACAD_REACTORS
330
D3
102
}
330
D3
100
AcDbPlotSettings
  1

  2

  4

  6

 40
0.0
 41
0.0
 42
0.0
 43
0.0
 44
0.0
 45
0.0
 46
0.0
 47
0.0
 48
0.0
 49
0.0
140
0.0
141
0.0
142
1.0
143
1.0
 70
  1712
 72
     0
 73
     0
 74
     0
  7

 75
     0
147
1.0
148
0.0
149
0.0
100
AcDbLayout
  1
Model
 70
     1
 71
     0
 10
0.0
 20
0.0
 11
297.0
 21
210.0
 12
0.0
 22
0.0
 32
0.0
 14
0.0
 24
0.0
 34
0.0
 15
0.0
 25
0.0
 35
0.0
146
0.0
 13
0.0
 23
0.0
 33
0.0
 16
1.0
 26
0.0
 36
0.0
 17
0.0
 27
1.0
 37
0.0
 76
     0
330
20
  0
ENDSEC
  0
EOF
