  0
SECTION
  2
HEADER
  9
$ACADVER
  1
AC1015
  9
$ACADMAINTVER
 70
     0
  9
$DWGCODEPAGE
  3
ANSI_932
  9
$INSBASE
 10
0.0
 20
0.0
 30
0.0
  9
$EXTMIN
 10
-231.0
 20
-171.5
  9
$EXTMAX
 10
246.0
 20
161.5
  9
$LIMMIN
 10
-231.0
 20
-171.5
  9
$LIMMAX
 10
246.0
 20
161.5
  9
$ORTHOMODE
 70
     0
  9
$REGENMODE
 70
     1
  9
$FILLMODE
 70
     1
  9
$QTEXTMODE
 70
     0
  9
$MIRRTEXT
 70
     1
  9
$LTSCALE
 40
1.0
  9
$OSMODE
 70
     0
  9
$ATTMODE
 70
     1
  9
$TEXTSIZE
 40
3.0
  9
$TRACEWID
 40
0.5
  9
$TEXTSTYLE
  7
STANDARD
  9
$CLAYER
  8
0
  9
$CELTYPE
  6
BYLAYER
  9
$CECOLOR
 62
   256
  9
$CELTSCALE
 40
1.0
  9
$DISPSILH
 70
     0
  9
$DIMSCALE
 40
1.0
  9
$DIMASZ
 40
3.0
  9
$DIMEXO
 40
1.0
  9
$DIMDLI
 40
5.0
  9
$DIMRND
 40
0.0
  9
$DIMDLE
 40
5.0
  9
$DIMEXE
 40
2.0
  9
$DIMTP
 40
0.0
  9
$DIMTM
 40
0.0
  9
$DIMTXT
 40
3.0
  9
$DIMCEN
 40
2.0
  9
$DIMTSZ
 40
0.0
  9
$DIMTOL
 70
     0
  9
$DIMLIM
 70
     0
  9
$DIMTIH
 70
     0
  9
$DIMTOH
 70
     0
  9
$DIMSE1
 70
     0
  9
$DIMSE2
 70
     0
  9
$DIMTAD
 70
     1
  9
$DIMZIN
 70
     8
  9
$DIMBLK
  1

  9
$DIMASO
 70
     1
  9
$DIMSHO
 70
     1
  9
$DIMPOST
  1

  9
$DIMAPOST
  1

  9
$DIMALT
 70
     0
  9
$DIMALTD
 70
     4
  9
$DIMALTF
 40
25.4
  9
$DIMLFAC
 40
1.0
  9
$DIMTOFL
 70
     1
  9
$DIMTVP
 40
1.0
  9
$DIMTIX
 70
     0
  9
$DIMSOXD
 70
     0
  9
$DIMSAH
 70
     0
  9
$DIMBLK1
  1

  9
$DIMBLK2
  1

  9
$DIMSTYLE
  2
ISO-25
  9
$DIMCLRD
 70
     0
  9
$DIMCLRE
 70
     0
  9
$DIMCLRT
 70
     0
  9
$DIMTFAC
 40
1.0
  9
$DIMGAP
 40
0.5
  9
$DIMJUST
 70
     0
  9
$DIMSD1
 70
     0
  9
$DIMSD2
 70
     0
  9
$DIMTOLJ
 70
     1
  9
$DIMTZIN
 70
     1
  9
$DIMALTZ
 70
     0
  9
$DIMALTTZ
 70
     0
  9
$DIMUPT
 70
     0
  9
$DIMDEC
 70
     3
  9
$DIMTDEC
 70
     3
  9
$DIMALTU
 70
     8
  9
$DIMALTTD
 70
     4
  9
$DIMTXSTY
  7
STANDARD
  9
$DIMAUNIT
 70
     0
  9
$DIMADEC
 70
     0
  9
$DIMALTRND
 40
0.0
  9
$DIMAZIN
 70
     0
  9
$DIMDSEP
 70
    46
  9
$DIMATFIT
 70
     3
  9
$DIMFRAC
 70
     0
  9
$DIMLDRBLK
  1

  9
$DIMLUNIT
 70
     2
  9
$DIMLWD
 70
    -2
  9
$DIMLWE
 70
    -2
  9
$DIMTMOVE
 70
     0
  9
$LUNITS
 70
     2
  9
$LUPREC
 70
     4
  9
$SKETCHINC
 40
1.0
  9
$FILLETRAD
 40
0.0
  9
$AUNITS
 70
     0
  9
$AUPREC
 70
     0
  9
$MENU
  1
.
  9
$ELEVATION
 40
0.0
  9
$PELEVATION
 40
0.0
  9
$THICKNESS
 40
0.0
  9
$LIMCHECK
 70
     0
  9
$CHAMFERA
 40
0.0
  9
$CHAMFERB
 40
0.0
  9
$CHAMFERC
 40
0.0
  9
$CHAMFERD
 40
0.0
  9
$SKPOLY
 70
     0
  9
$TDCREATE
 40
2455736.663657407
  9
$TDUCREATE
 40
2455736.663657407
  9
$TDUPDATE
 40
2455736.663657407
  9
$TDUUPDATE
 40
2455736.663657407
  9
$TDINDWG
 40
0.0
  9
$TDUSRTIMER
 40
0.0
  9
$USRTIMER
 70
     1
  9
$ANGBASE
 50
0.0
  9
$ANGDIR
 70
     0
  9
$PDMODE
 70
     0
  9
$PDSIZE
 40
0.0
  9
$PLINEWID
 40
0.0
  9
$SPLFRAME
 70
     0
  9
$SPLINETYPE
 70
     6
  9
$SPLINESEGS
 70
     8
  9
$HANDSEED
  5
107
  9
$SURFTAB1
 70
     6
  9
$SURFTAB2
 70
     6
  9
$SURFTYPE
 70
     6
  9
$SURFU
 70
     6
  9
$SURFV
 70
     6
  9
$UCSBASE
  2

  9
$UCSNAME
  2

  9
$UCSORG
 10
0.0
 20
0.0
 30
0.0
  9
$UCSXDIR
 10
1.0
 20
0.0
 30
0.0
  9
$UCSYDIR
 10
0.0
 20
1.0
 30
0.0
  9
$UCSORTHOREF
  2

  9
$UCSORTHOVIEW
 70
     0
  9
$UCSORGTOP
 10
0.0
 20
0.0
 30
0.0
  9
$UCSORGBOTTOM
 10
0.0
 20
0.0
 30
0.0
  9
$UCSORGLEFT
 10
0.0
 20
0.0
 30
0.0
  9
$UCSORGRIGHT
 10
0.0
 20
0.0
 30
0.0
  9
$UCSORGFRONT
 10
0.0
 20
0.0
 30
0.0
  9
$UCSORGBACK
 10
0.0
 20
0.0
 30
0.0
  9
$PUCSBASE
  2

  9
$PUCSNAME
  2

  9
$PUCSORG
 10
0.0
 20
0.0
 30
0.0
  9
$PUCSXDIR
 10
1.0
 20
0.0
 30
0.0
  9
$PUCSYDIR
 10
0.0
 20
1.0
 30
0.0
  9
$PUCSORTHOREF
  2

  9
$PUCSORTHOVIEW
 70
     0
  9
$PUCSORGTOP
 10
0.0
 20
0.0
 30
0.0
  9
$PUCSORGBOTTOM
 10
0.0
 20
0.0
 30
0.0
  9
$PUCSORGLEFT
 10
0.0
 20
0.0
 30
0.0
  9
$PUCSORGRIGHT
 10
0.0
 20
0.0
 30
0.0
  9
$PUCSORGFRONT
 10
0.0
 20
0.0
 30
0.0
  9
$PUCSORGBACK
 10
0.0
 20
0.0
 30
0.0
  9
$USERI1
 70
     0
  9
$USERI2
 70
     0
  9
$USERI3
 70
     0
  9
$USERI4
 70
     0
  9
$USERI5
 70
     0
  9
$USERR1
 40
0.0
  9
$USERR2
 40
0.0
  9
$USERR3
 40
0.0
  9
$USERR4
 40
0.0
  9
$USERR5
 40
0.0
  9
$WORLDVIEW
 70
     1
  9
$SHADEDGE
 70
     3
  9
$SHADEDIF
 70
    70
  9
$MAXACTVP
 70
    16
  9
$PINSBASE
 10
0.0
 20
0.0
 30
0.0
  9
$PLIMCHECK
 70
     0
  9
$PEXTMIN
 10
1.000000000000000E+020
 20
1.000000000000000E+020
 30
1.000000000000000E+020
  9
$PEXTMAX
 10
-1.000000000000000E+020
 20
-1.000000000000000E+020
 30
-1.000000000000000E+020
  9
$PLIMMIN
 10
-231.0
 20
-171.5
  9
$PLIMMAX
 10
246.0
 20
161.5
  9
$UNITMODE
 70
     0
  9
$VISRETAIN
 70
     0
  9
$PLINEGEN
 70
     0
  9
$PSLTSCALE
 70
     0
  9
$TREEDEPTH
 70
  3020
  9
$CMLSTYLE
  2
STANDARD
  9
$CMLJUST
 70
     0
  9
$CMLSCALE
 40
1.0
  9
$PROXYGRAPHICS
 70
     1
  9
$MEASUREMENT
 70
     0
  9
$CELWEIGHT
370
    -3
  9
$ENDCAPS
280
     0
  9
$JOINSTYLE
280
     0
  9
$LWDISPLAY
290
     1
  9
$INSUNITS
 70
     0
  9
$HYPERLINKBASE
  1

  9
$STYLESHEET
  1

  9
$XEDIT
290
     1
  9
$CEPSNTYPE
380
     0
  9
$PSTYLEMODE
290
     1
  9
$FINGERPRINTGUID
  2
{6F25CFC2-5053-11D3-9BE9-00805F4AB38E}
  9
$VERSIONGUID
  2
{6F25CFC5-5053-11D3-9BE9-00805F4AB38E}
  9
$EXTNAMES
290
     1
  9
$PSVPSCALE
 40
0.0
  9
$OLESTARTUP
290
     0
  0
ENDSEC
  0
SECTION
  2
CLASSES
  0
CLASS
  1
LWPOLYLINE
  2
AcDbPolyline
  3
AutoCAD 2000
 90
    32768
280
     0
281
     1
  0
CLASS
  1
DICTIONARYVAR
  2
AcDbDictionaryVar
  3
AutoCAD 2000
 90
        0
280
     0
281
     1
  0
CLASS
  1
ACDBDICTIONARYWDFLT
  2
AcDbDictionaryWithDefault
  3
AutoCAD 2000
 90
        0
280
     0
281
     1
  0
CLASS
  1
ACDBPLACEHOLDER
  2
AcDbPlaceHolder
  3
AutoCAD 2000
 90
        0
280
     0
281
     1
  0
CLASS
  1
LAYOUT
  2
AcDbLayout
  3
AutoCAD 2000
 90
        0
280
     0
281
     1
  0
CLASS
  1
HATCH
  2
AcDbHatch
  3
AutoCAD 2000
 90
        0
280
     0
281
     1
  0
ENDSEC
  0
SECTION
  2
TABLES
  0
TABLE
  2
VPORT
  5
8
100
AcDbSymbolTable
 70
     1
  0
VPORT
  5
FE
330
0
100
AcDbSymbolTableRecord
100
AcDbViewportTableRecord
  2
*ACTIVE
 70
     0
 10
0.0
 20
0.0
 11
1.0
 21
1.0
 12
7.5
 22
-5.0
 13
0.0
 23
0.0
 14
0.0
 24
0.0
 15
0.0
 25
0.0
 16
0.0
 26
0.0
 36
1.0
 17
0.0
 27
0.0
 37
0.0
 40
333.0
 41
1.5
 42
50.0
 43
0.0
 44
0.0
 50
0.0
 51
0.0
 71
     0
 72
   100
 73
     1
 74
     1
 75
     0
 76
     0
 77
     0
 78
     0
281
     0
 65
     1
110
0.0
120
0.0
130
0.0
111
1.0
121
0.0
131
0.0
112
0.0
122
1.0
132
0.0
 79
     0
146
0.0
  0
ENDTAB
  0
TABLE
  2
LTYPE
  5
5
330
0
100
AcDbSymbolTable
 70
    20
  0
LTYPE
  5
FF
330
5
100
AcDbSymbolTableRecord
100
AcDbLinetypeTableRecord
  2
BYBLOCK
 70
     0
  3

 72
    65
 73
     0
 40
0.0
  0
LTYPE
  5
100
330
5
100
AcDbSymbolTableRecord
100
AcDbLinetypeTableRecord
  2
BYLAYER
 70
     0
  3

 72
    65
 73
     0
 40
0.0
  0
LTYPE
  5
101
330
5
100
AcDbSymbolTableRecord
100
AcDbLinetypeTableRecord
  2
CONTINUOUS
 70
    64
  3
solid line
 72
    65
 73
     0
 40
0.0
  0
LTYPE
  5
102
330
0
100
AcDbSymbolTableRecord
100
AcDbLinetypeTableRecord
  2
CENTER
 70
    64
  3
--- - --- - --- - --- - --- - 
 72
    65
 73
     4
 40
6.0
 49
3.0
 74
     0
 49
-1.0
 74
     0
 49
1.0
 74
     0
 49
-1.0
 74
     0
  0
ENDTAB
  0
TABLE
  2
LAYER
  5
2
330
0
100
AcDbSymbolTable
 70
    20
  0
LAYER
  5
103
330
2
100
AcDbSymbolTableRecord
100
AcDbLayerTableRecord
  2
0
 70
    64
 62
     7
  6
CONTINUOUS
370
    -3
390
FA
  0
ENDTAB
  0
TABLE
  2
STYLE
  5
3
330
0
100
AcDbSymbolTable
 70
     4
  0
STYLE
  5
104
330
3
100
AcDbSymbolTableRecord
100
AcDbTextStyleTableRecord
  2
STANDARD
 70
    64
 40
0.0
 41
1.0
 50
0.0
 71
     0
 42
3.0
  3
txt
  4

  0
ENDTAB
  0
TABLE
  2
VIEW
  5
6
330
0
100
AcDbSymbolTable
 70
     0
  0
ENDTAB
  0
TABLE
  2
UCS
  5
7
330
0
100
AcDbSymbolTable
 70
     0
  0
ENDTAB
  0
TABLE
  2
APPID
  5
9
330
0
100
AcDbSymbolTable
 70
     1
  0
APPID
  5
105
330
9
100
AcDbSymbolTableRecord
100
AcDbRegAppTableRecord
  2
ACAD
 70
     0
  0
ENDTAB
  0
TABLE
  2
DIMSTYLE
  5
A
330
0
100
AcDbSymbolTable
 70
     8
100
AcDbDimStyleTable
 71
     0
  0
DIMSTYLE
105
106
330
A
100
AcDbSymbolTableRecord
100
AcDbDimStyleTableRecord
  2
ISO-25
 70
     0
  3

  4

  5

  6

  7

 40
1.0
 41
3.0
 42
1.0
 43
5.0
 44
2.0
 45
0.0
 46
5.0
 47
0.0
 48
0.0
140
3.0
141
2.0
142
0.0
143
25.4
144
1.0
145
1.0
146
1.0
147
0.5
 71
     0
 72
     0
 73
     0
 74
     0
 75
     0
 76
     0
 77
     1
 78
     8
170
     0
171
     0
172
     1
173
     0
174
     0
175
     0
176
     0
177
     0
178
     0
270
     2
271
     3
272
     3
273
     8
274
     4
340
104
275
     0
280
     0
281
     0
282
     0
283
     1
284
     1
285
     0
286
     0
287
     3
288
     0
  0
ENDTAB
  0
TABLE
  2
BLOCK_RECORD
  5
1
330
0
100
AcDbSymbolTable
 70
     2
  0
BLOCK_RECORD
  5
20
330
1
100
AcDbSymbolTableRecord
100
AcDbBlockTableRecord
  2
*MODEL_SPACE
340
FB
  0
BLOCK_RECORD
  5
22
330
1
100
AcDbSymbolTableRecord
100
AcDbBlockTableRecord
  2
*PAPER_SPACE
340
0
  0
BLOCK_RECORD
  5
B7
330
1
100
AcDbSymbolTableRecord
100
AcDbBlockTableRecord
  2
K100001-1_0001
340
0
102
{BLKREFS
331
B8
102
}
  0
BLOCK_RECORD
  5
C0
330
1
100
AcDbSymbolTableRecord
100
AcDbBlockTableRecord
  2
OIMLNAME_BIG_0002
340
0
102
{BLKREFS
331
C1
102
}
  0
ENDTAB
  0
ENDSEC
  0
SECTION
  2
BLOCKS
  0
BLOCK
  5
21
330
20
100
AcDbEntity
  8
0
100
AcDbBlockBegin
  2
*MODEL_SPACE
 70
     0
 10
0.0
 20
0.0
 30
0.0
  3
*MODEL_SPACE
  1

  0
ENDBLK
  5
FC
330
20
100
AcDbEntity
  8
0
100
AcDbBlockEnd
  0
BLOCK
  5
23
330
22
100
AcDbEntity
 67
     1
  8
0
100
AcDbBlockBegin
  2
*PAPER_SPACE
 70
     0
 10
0.0
 20
0.0
 30
0.0
  3
*PAPER_SPACE
  1

  0
ENDBLK
  5
FD
330
22
100
AcDbEntity
 67
     1
  8
0
100
AcDbBlockEnd
  0
BLOCK
  5
B9
330
B7
100
AcDbEntity
  8
0
100
AcDbBlockBegin
  2
K100001-1_0001
 70
    64
 10
0.0
 20
0.0
  0
LINE
  5
BA
330
B7
100
AcDbEntity
  8
0
  6
CONTINUOUS
 62
     1
100
AcDbLine
 10
-4.0
 20
-8.5
 11
-4.0
 21
8.5
  0
LINE
  5
BB
330
B7
100
AcDbEntity
  8
0
  6
CONTINUOUS
 62
     1
100
AcDbLine
 10
4.0
 20
-8.5
 11
4.0
 21
8.5
  0
LINE
  5
BC
330
B7
100
AcDbEntity
  8
0
  6
CONTINUOUS
 62
     1
100
AcDbLine
 10
-4.0
 20
8.5
 11
4.0
 21
8.5
  0
LINE
  5
BD
330
B7
100
AcDbEntity
  8
0
  6
CONTINUOUS
 62
     1
100
AcDbLine
 10
-4.0
 20
-8.5
 11
4.0
 21
-8.5
  0
HATCH
  5
BE
330
B7
100
AcDbEntity
  8
0
 62
     1
100
AcDbHatch
 10
0.0
 20
0.0
 30
0.0
210
0.0
220
0.0
230
1.0
  2
SOLID
 70
     1
 71
     0
 91
        1
 92
        5
 93
        7
 72
     1
 10
3.0
 20
-3.5
 11
1.0
 21
-3.5
 72
     1
 10
1.0
 20
-3.5
 11
1.0
 21
6.5
 72
     1
 10
1.0
 20
6.5
 11
-1.0
 21
6.5
 72
     1
 10
-1.0
 20
6.5
 11
-1.0
 21
-3.5
 72
     1
 10
-1.0
 20
-3.5
 11
-3.0
 21
-3.5
 72
     1
 10
-3.0
 20
-3.5
 11
0.0
 21
-6.5
 72
     1
 10
0.0
 20
-6.5
 11
3.0
 21
-3.5
 97
        0
 75
     0
 76
     0
 47
0.322189
 98
        1
 10
0.0
 20
0.0
  0
ENDBLK
  5
BF
330
B7
100
AcDbEntity
  8
0
100
AcDbBlockEnd
  0
BLOCK
  5
C2
330
C0
100
AcDbEntity
  8
0
100
AcDbBlockBegin
  2
OIMLNAME_BIG_0002
 70
    64
 10
0.0
 20
0.0
  0
LINE
  5
C3
330
C0
100
AcDbEntity
  8
0
  6
CONTINUOUS
 62
     1
100
AcDbLine
 10
25.5
 20
-15.0
 11
-25.5
 21
-15.0
  0
LINE
  5
C4
330
C0
100
AcDbEntity
  8
0
  6
CONTINUOUS
 62
     1
100
AcDbLine
 10
25.5
 20
15.0
 11
-25.5
 21
15.0
  0
LINE
  5
C5
330
C0
100
AcDbEntity
  8
0
  6
CONTINUOUS
 62
     1
100
AcDbLine
 10
-27.5
 20
13.0
 11
-27.5
 21
-13.0
  0
LINE
  5
C6
330
C0
100
AcDbEntity
  8
0
  6
CONTINUOUS
 62
     1
100
AcDbLine
 10
27.5
 20
13.0
 11
27.5
 21
-13.0
  0
ARC
  5
C7
330
C0
100
AcDbEntity
  8
0
  6
CONTINUOUS
 62
     1
100
AcDbCircle
 10
-25.5
 20
-13.0
 40
2.0
100
AcDbArc
 50
180.0
 51
270.0
  0
ARC
  5
C8
330
C0
100
AcDbEntity
  8
0
  6
CONTINUOUS
 62
     1
100
AcDbCircle
 10
-25.5
 20
13.0
 40
2.0
100
AcDbArc
 50
90.0
 51
180.0
  0
ARC
  5
C9
330
C0
100
AcDbEntity
  8
0
  6
CONTINUOUS
 62
     1
100
AcDbCircle
 10
25.5
 20
13.0
 40
2.0
100
AcDbArc
 50
0.0
 51
90.0
  0
ARC
  5
CA
330
C0
100
AcDbEntity
  8
0
  6
CONTINUOUS
 62
     1
100
AcDbCircle
 10
25.5
 20
-13.0
 40
2.0
100
AcDbArc
 50
270.0
 51
0.0
  0
LWPOLYLINE
  5
CB
330
C0
100
AcDbEntity
  8
0
  6
CONTINUOUS
 62
     1
100
AcDbPolyline
 90
      186
 70
     0
 43
0.0
 10
12.1875
 20
-10.25
 10
12.16385998537784
 20
-10.31223835115208
 10
12.09924394541061
 20
-10.48235651096775
 10
12.00310788594719
 20
-10.73545913898624
 10
11.88490781283641
 20
-11.04665089474668
 10
11.75409973192714
 20
-11.39103643778816
 10
11.62013964906827
 20
-11.74372042764998
 10
11.49248357010863
 20
-12.07980752387124
 10
11.38058750089709
 20
-12.37440238599106
 10
11.29180611264582
 20
-12.60814197142889
 10
11.22508873804277
 20
-12.78379242912479
 10
11.17728337513823
 20
-12.90965220589897
 10
11.14523802198244
 20
-12.99401974857182
 10
11.12580067662566
 20
-13.0451935039635
 10
11.1158193371181
 20
-13.07147191889442
 10
11.11214200151007
 20
-13.08115344018472
 10
11.11161666785179
 20
-13.08253651465481
 10
11.11158956804491
 20
-13.08260889313112
 10
11.11139986939687
 20
-13.08311554246558
 10
11.11088497306646
 20
-13.08449073351625
 10
11.1098822802125
 20
-13.08716873714127
 10
11.10822919199383
 20
-13.09158382419867
 10
11.10576310956922
 20
-13.09817026554663
 10
11.10232143409755
 20
-13.10736233204318
 10
11.09774156673761
 20
-13.11959429454652
 10
11.05591023572569
 20
-13.21831407507796
 10
11.00927417621472
 20
-13.29790932125934
 10
10.93679048256215
 20
-13.38407375140275
 10
10.80691835748485
 20
-13.50704378068929
 10
10.70257706196293
 20
-13.59582756911067
 10
10.60567894711689
 20
-13.65804426440002
 10
10.49688897405727
 20
-13.70613831410259
 10
10.3750830766466
 20
-13.7398694304502
 10
10.19366318408275
 20
-13.7645979717388
 10
9.98306497955609
 20
-13.77097951945473
 10
9.77145497024884
 20
-13.75816268071901
 10
9.592084241683025
 20
-13.72805561726165
 10
9.483463052474875
 20
-13.69353672874019
 10
9.393384443035231
 20
-13.64719178066054
 10
9.320354612313409
 20
-13.58906530031703
 10
9.248916123780418
 20
-13.50682584715815
 10
9.160699708250363
 20
-13.38731266244622
 10
9.119177571856383
 20
-13.3012963714574
 10
9.1044582754012
 20
-13.22086271320694
 10
9.105320631860636
 20
-13.12104718472818
 10
9.106147885392915
 20
-13.10867734663003
 10
9.106769549289979
 20
-13.09938166947939
 10
9.107214993499667
 20
-13.09272098742656
 10
9.107513587969905
 20
-13.08825613462193
 10
9.107694702648573
 20
-13.08554794521581
 10
9.107787707483567
 20
-13.08415725335863
 10
9.107821972422769
 20
-13.08364489320076
 10
9.107826867414104
 20
-13.08357169889246
 10
9.107848291868748
 20
-13.08301244613693
 10
9.107998263051286
 20
-13.07909767684811
 10
9.108405327689553
 20
-13.06847187449273
 10
9.109198032511515
 20
-13.0477795225375
 10
9.110504924244964
 20
-13.01366510444922
 10
9.112454549617837
 20
-12.96277310369453
 10
9.115175455357999
 20
-12.89174800374019
 10
9.118796188193343
 20
-12.79723428805289
 10
9.123381021488271
 20
-12.6775541983601
 10
9.128737135151241
 20
-12.53774100946771
 10
9.134607435726267
 20
-12.38450575444216
 10
9.140734829757321
 20
-12.22455946635006
 10
9.146862223788375
 20
-12.06461317825801
 10
9.152732524363401
 20
-11.91137792323247
 10
9.158088638026371
 20
-11.77156473434008
 10
9.162673471321298
 20
-11.65188464464728
 10
9.166294204163904
 20
-11.55737092895481
 10
9.169015109909537
 20
-11.48634582899655
 10
9.170964735286319
 20
-11.43545382823908
 10
9.172271627022411
 20
-11.40133941014886
 10
9.17306433184595
 20
-11.38064705819255
 10
9.173471396485056
 20
-11.37002125583655
 10
9.173621367667877
 20
-11.36610648654755
 10
9.173642792122578
 20
-11.36554723379197
 10
9.173638748434101
 20
-11.36554723379197
 10
9.173610442614717
 20
-11.36554723379197
 10
9.173533612533603
 20
-11.36554723379197
 10
9.173383996059812
 20
-11.36554723379197
 10
9.173137331062478
 20
-11.36554723379197
 10
9.172769355410736
 20
-11.36554723379197
 10
9.172255806973681
 20
-11.36554723379197
 10
9.171572423620447
 20
-11.36554723379197
 10
9.170707074290135
 20
-11.36554723379197
 10
9.169696152175206
 20
-11.36554723379197
 10
9.168588181536961
 20
-11.36554723379197
 10
9.167431686636817
 20
-11.36554723379197
 10
9.16627519173619
 20
-11.36554723379197
 10
9.165167221096397
 20
-11.36554723379197
 10
9.164156298978867
 20
-11.36554723379197
 10
9.16329094964496
 20
-11.36554723379197
 10
9.162607566298973
 20
-11.36554723379197
 10
9.162094017867389
 20
-11.36554723379197
 10
9.161726042219556
 20
-11.36554723379197
 10
9.161479377224865
 20
-11.36554723379197
 10
9.161329760752665
 20
-11.36554723379197
 10
9.161252930672347
 20
-11.36554723379197
 10
9.161224624853304
 20
-11.36554723379197
 10
9.161220581164869
 20
-11.36554723379197
 10
9.160858812931323
 20
-11.36610685899251
 10
9.158326435296587
 20
-11.37002423539639
 10
9.151452838859427
 20
-11.380657114207
 10
9.138067414218682
 20
-11.40136324662763
 10
9.11599955197309
 20
-11.43550038386161
 10
9.083078642721503
 20
-11.48642627711229
 10
9.03713407706266
 20
-11.55749867758306
 10
8.975995245595399
 20
-11.65207533647725
 10
8.898576843619125
 20
-11.77183512939649
 10
8.808134785235581
 20
-11.91174142953577
 10
8.70901028924726
 20
-12.06507873448845
 10
8.605544574456502
 20
-12.22513154184776
 10
8.502078859665744
 20
-12.38518434920712
 10
8.402954363677424
 20
-12.53852165415981
 10
8.312512305293893
 20
-12.67842795429908
 10
8.235093903317605
 20
-12.79818774721832
 10
8.173955071850344
 20
-12.89276440611252
 10
8.128010506191515
 20
-12.96383680658329
 10
8.095089596939928
 20
-13.01476269983397
 10
8.073021734694351
 20
-13.04889983706795
 10
8.059636310053577
 20
-13.06960596948858
 10
8.052762713616417
 20
-13.08023884829913
 10
8.050230335981681
 20
-13.08415622470307
 10
8.049868567748149
 20
-13.0847158499036
 10
8.049806830557174
 20
-13.08480420804364
 10
8.049374670220416
 20
-13.08542271502364
 10
8.04820166359201
 20
-13.0871015196837
 10
8.045917387526174
 20
-13.09037077086379
 10
8.042151418877069
 20
-13.09576061740393
 10
8.036533334498927
 20
-13.10380120814415
 10
8.028692711245924
 20
-13.11502269192448
 10
8.018259125972207
 20
-13.12995521758495
 10
7.932941968566666
 20
-13.24719365901569
 10
7.861206238860149
 20
-13.33303294111892
 10
7.772925430901822
 20
-13.41547696689293
 10
7.622178564177247
 20
-13.52813792984318
 10
7.480422008594488
 20
-13.62490145482855
 10
7.355895950045849
 20
-13.6927508542297
 10
7.22917979221171
 20
-13.7423082140208
 10
7.100486566607174
 20
-13.77287727901478
 10
6.936593726120748
 20
-13.78677583470085
 10
6.751507468561812
 20
-13.7792474148178
 10
6.558421995317559
 20
-13.75057715569949
 10
6.388534060957142
 20
-13.70523616102395
 10
6.299070388745491
 20
-13.66749621797209
 10
6.229398928991699
 20
-13.62321127161903
 10
6.177431934876864
 20
-13.57185793559512
 10
6.130269212363857
 20
-13.50067830562284
 10
6.068699722918922
 20
-13.38419541303756
 10
6.054155611352115
 20
-13.33963046754445
 10
6.048108273246598
 20
-13.29811817420767
 10
6.057295832322069
 20
-13.21810111191229
 10
6.092117224554698
 20
-13.1209472985218
 10
6.097314534771726
 20
-13.10898808989589
 10
6.101220205763241
 20
-13.10000099228938
 10
6.104018757418572
 20
-13.09356141841391
 10
6.10589470962708
 20
-13.08924478098089
 10
6.107032582278137
 20
-13.08662649270184
 10
6.107616895261117
 20
-13.08528196628828
 10
6.107832168465393
 20
-13.08478661445167
 10
6.107862921780281
 20
-13.0847158499036
 10
6.108213623076949
 20
-13.0837930908379
 10
6.110668532153738
 20
-13.07733377737782
 10
6.117331856790742
 20
-13.05980135512908
 10
6.130307804768023
 20
-13.02565926969731
 10
6.151700583865718
 20
-12.96937096668813
 10
6.183614401863935
 20
-12.88539989170727
 10
6.22815346654275
 20
-12.76820949036033
 10
6.2874219856823
 20
-12.61226320825301
 10
6.362472063176213
 20
-12.41479276818814
 10
6.450147387349873
 20
-12.18410300175714
 10
6.546239542643136
 20
-11.93126701774884
 10
6.646540113495945
 20
-11.66735792495183
 10
6.746840684348257
 20
-11.40344883215482
 10
6.842932839639985
 20
-11.15061284814647
 10
6.93060816381103
 20
-10.91992308171552
 10
7.005658241301362
 20
-10.72245264165059
 10
7.064926760444536
 20
-10.56650635954327
 10
7.10946582512608
 20
-10.44931595819634
 10
7.141379643126257
 20
-10.36534488321547
 10
7.162772422225245
 20
-10.30905658020635
 10
7.175748370203351
 20
-10.27491449477452
 10
7.182411694840752
 20
-10.25738207252579
 10
7.184866603917669
 20
-10.2509227590657
 10
7.185217305214394
 20
-10.25
  0
LINE
  5
CC
330
C0
100
AcDbEntity
  8
0
  6
CONTINUOUS
 62
     1
100
AcDbLine
 10
8.257967842926263
 20
-10.25
 11
7.315315965153985
 21
-12.82240214459552
  0
LINE
  5
CD
330
C0
100
AcDbEntity
  8
0
  6
CONTINUOUS
 62
     1
100
AcDbLine
 10
7.315315965153985
 20
-12.82240214459552
 11
9.177238695287869
 21
-10.25
  0
LINE
  5
CE
330
C0
100
AcDbEntity
  8
0
  6
CONTINUOUS
 62
     1
100
AcDbLine
 10
9.177238695287869
 20
-10.25
 11
10.28063613502586
 21
-10.25
  0
LINE
  5
CF
330
C0
100
AcDbEntity
  8
0
  6
CONTINUOUS
 62
     1
100
AcDbLine
 10
10.28063613502586
 20
-10.25
 11
10.19469025737368
 21
-12.75779794867657
  0
LINE
  5
D0
330
C0
100
AcDbEntity
  8
0
  6
CONTINUOUS
 62
     1
100
AcDbLine
 10
10.19469025737368
 20
-12.75779794867657
 11
11.11782777333615
 21
-10.25
  0
LINE
  5
D1
330
C0
100
AcDbEntity
  8
0
  6
CONTINUOUS
 62
     1
100
AcDbLine
 10
11.11782777333615
 20
-10.25
 11
12.1875
 21
-10.25
  0
LINE
  5
D2
330
C0
100
AcDbEntity
  8
0
  6
CONTINUOUS
 62
     1
100
AcDbLine
 10
8.257967842926263
 20
-10.25
 11
7.185217305214394
 21
-10.25
  0
LWPOLYLINE
  5
D3
330
C0
100
AcDbEntity
  8
0
  6
CONTINUOUS
 62
     1
100
AcDbPolyline
 90
      193
 70
     0
 43
0.0
 10
9.162673471321298
 20
-11.65188464464728
 10
9.166294204163904
 20
-11.55737092895481
 10
9.169015109909537
 20
-11.48634582899655
 10
9.170964735286319
 20
-11.43545382823908
 10
9.172271627022411
 20
-11.40133941014886
 10
9.17306433184595
 20
-11.38064705819255
 10
9.173471396485056
 20
-11.37002125583655
 10
9.173621367667877
 20
-11.36610648654755
 10
9.173642792122578
 20
-11.36554723379197
 10
9.173638748434101
 20
-11.36554723379197
 10
9.173610442614717
 20
-11.36554723379197
 10
9.173533612533603
 20
-11.36554723379197
 10
9.173383996059812
 20
-11.36554723379197
 10
9.173137331062478
 20
-11.36554723379197
 10
9.172769355410736
 20
-11.36554723379197
 10
9.172255806973681
 20
-11.36554723379197
 10
9.171572423620447
 20
-11.36554723379197
 10
9.170707074290135
 20
-11.36554723379197
 10
9.169696152175206
 20
-11.36554723379197
 10
9.168588181536961
 20
-11.36554723379197
 10
9.167431686636817
 20
-11.36554723379197
 10
9.16627519173619
 20
-11.36554723379197
 10
9.165167221096397
 20
-11.36554723379197
 10
9.164156298978867
 20
-11.36554723379197
 10
9.16329094964496
 20
-11.36554723379197
 10
9.162607566298973
 20
-11.36554723379197
 10
9.162094017867389
 20
-11.36554723379197
 10
9.161726042219556
 20
-11.36554723379197
 10
9.161479377224865
 20
-11.36554723379197
 10
9.161329760752665
 20
-11.36554723379197
 10
9.161252930672347
 20
-11.36554723379197
 10
9.161224624853304
 20
-11.36554723379197
 10
9.161220581164869
 20
-11.36554723379197
 10
9.160858812931323
 20
-11.36610685899251
 10
9.158326435296587
 20
-11.37002423539639
 10
9.151452838859427
 20
-11.380657114207
 10
9.138067414218682
 20
-11.40136324662763
 10
9.11599955197309
 20
-11.43550038386161
 10
9.083078642721503
 20
-11.48642627711229
 10
9.03713407706266
 20
-11.55749867758306
 10
8.975995245595399
 20
-11.65207533647725
 10
8.898576843619125
 20
-11.77183512939649
 10
8.808134785235581
 20
-11.91174142953577
 10
8.70901028924726
 20
-12.06507873448845
 10
8.605544574456502
 20
-12.22513154184776
 10
8.502078859665744
 20
-12.38518434920712
 10
8.402954363677424
 20
-12.53852165415981
 10
8.312512305293893
 20
-12.67842795429908
 10
8.235093903317605
 20
-12.79818774721832
 10
8.173955071850344
 20
-12.89276440611252
 10
8.128010506191515
 20
-12.96383680658329
 10
8.095089596939928
 20
-13.01476269983397
 10
8.073021734694351
 20
-13.04889983706795
 10
8.059636310053577
 20
-13.06960596948858
 10
8.052762713616417
 20
-13.08023884829913
 10
8.050230335981681
 20
-13.08415622470307
 10
8.049868567748149
 20
-13.0847158499036
 10
8.049806830557174
 20
-13.08480420804364
 10
8.049374670220416
 20
-13.08542271502364
 10
8.04820166359201
 20
-13.0871015196837
 10
8.045917387526174
 20
-13.09037077086379
 10
8.042151418877069
 20
-13.09576061740393
 10
8.036533334498927
 20
-13.10380120814415
 10
8.028692711245924
 20
-13.11502269192448
 10
8.018259125972207
 20
-13.12995521758495
 10
7.932941968566666
 20
-13.24719365901569
 10
7.861206238860149
 20
-13.33303294111892
 10
7.772925430901822
 20
-13.41547696689293
 10
7.622178564177247
 20
-13.52813792984318
 10
7.480422008594488
 20
-13.62490145482855
 10
7.355895950045849
 20
-13.6927508542297
 10
7.22917979221171
 20
-13.7423082140208
 10
7.100486566607174
 20
-13.77287727901478
 10
6.936593726120748
 20
-13.78677583470085
 10
6.751507468561812
 20
-13.7792474148178
 10
6.558421995317559
 20
-13.75057715569949
 10
6.388534060957142
 20
-13.70523616102395
 10
6.299070388745491
 20
-13.66749621797209
 10
6.229398928991699
 20
-13.62321127161903
 10
6.177431934876864
 20
-13.57185793559512
 10
6.130269212363857
 20
-13.50067830562284
 10
6.068699722918922
 20
-13.38419541303756
 10
6.054155611352115
 20
-13.33963046754445
 10
6.048108273246598
 20
-13.29811817420767
 10
6.057295832322069
 20
-13.21810111191229
 10
6.092117224554698
 20
-13.1209472985218
 10
6.097314534771726
 20
-13.10898808989589
 10
6.101220205763241
 20
-13.10000099228938
 10
6.104018757418572
 20
-13.09356141841391
 10
6.10589470962708
 20
-13.08924478098089
 10
6.107032582278137
 20
-13.08662649270184
 10
6.107616895261117
 20
-13.08528196628828
 10
6.107832168465393
 20
-13.08478661445167
 10
6.107862921780281
 20
-13.0847158499036
 10
6.108213623076949
 20
-13.0837930908379
 10
6.110668532153738
 20
-13.07733377737782
 10
6.117331856790742
 20
-13.05980135512908
 10
6.130307804768023
 20
-13.02565926969731
 10
6.151700583865718
 20
-12.96937096668813
 10
6.183614401863935
 20
-12.88539989170727
 10
6.22815346654275
 20
-12.76820949036033
 10
6.2874219856823
 20
-12.61226320825301
 10
6.362472063176213
 20
-12.41479276818814
 10
6.450147387349873
 20
-12.18410300175714
 10
6.546239542643136
 20
-11.93126701774884
 10
6.646540113495945
 20
-11.66735792495183
 10
6.746840684348257
 20
-11.40344883215482
 10
6.842932839639985
 20
-11.15061284814647
 10
6.93060816381103
 20
-10.91992308171552
 10
7.005658241301362
 20
-10.72245264165059
 10
7.064926760444536
 20
-10.56650635954327
 10
7.10946582512608
 20
-10.44931595819634
 10
7.141379643126257
 20
-10.36534488321547
 10
7.162772422225245
 20
-10.30905658020635
 10
7.175748370203351
 20
-10.27491449477452
 10
7.182411694840752
 20
-10.25738207252579
 10
7.184866603917669
 20
-10.2509227590657
 10
7.185217305214394
 20
-10.25
 10
8.257967842926263
 20
-10.25
 10
7.315315965153985
 20
-12.82240214459552
 10
9.177238695287869
 20
-10.25
 10
10.28063613502586
 20
-10.25
 10
10.19469025737368
 20
-12.75779794867657
 10
11.11782777333615
 20
-10.25
 10
12.1875
 20
-10.25
 10
12.16385998537784
 20
-10.31223835115208
 10
12.09924394541061
 20
-10.48235651096775
 10
12.00310788594719
 20
-10.73545913898624
 10
11.88490781283641
 20
-11.04665089474668
 10
11.75409973192714
 20
-11.39103643778816
 10
11.62013964906827
 20
-11.74372042764998
 10
11.49248357010863
 20
-12.07980752387124
 10
11.38058750089709
 20
-12.37440238599106
 10
11.29180611264582
 20
-12.60814197142889
 10
11.22508873804277
 20
-12.78379242912479
 10
11.17728337513823
 20
-12.90965220589897
 10
11.14523802198244
 20
-12.99401974857182
 10
11.12580067662566
 20
-13.0451935039635
 10
11.1158193371181
 20
-13.07147191889442
 10
11.11214200151007
 20
-13.08115344018472
 10
11.11161666785179
 20
-13.08253651465481
 10
11.11158956804491
 20
-13.08260889313112
 10
11.11139986939687
 20
-13.08311554246558
 10
11.11088497306646
 20
-13.08449073351625
 10
11.1098822802125
 20
-13.08716873714127
 10
11.10822919199383
 20
-13.09158382419867
 10
11.10576310956922
 20
-13.09817026554663
 10
11.10232143409755
 20
-13.10736233204318
 10
11.09774156673761
 20
-13.11959429454652
 10
11.05591023572569
 20
-13.21831407507796
 10
11.00927417621472
 20
-13.29790932125934
 10
10.93679048256215
 20
-13.38407375140275
 10
10.80691835748485
 20
-13.50704378068929
 10
10.70257706196293
 20
-13.59582756911067
 10
10.60567894711689
 20
-13.65804426440002
 10
10.49688897405727
 20
-13.70613831410259
 10
10.3750830766466
 20
-13.7398694304502
 10
10.19366318408275
 20
-13.7645979717388
 10
9.98306497955609
 20
-13.77097951945473
 10
9.77145497024884
 20
-13.75816268071901
 10
9.592084241683025
 20
-13.72805561726165
 10
9.483463052474875
 20
-13.69353672874019
 10
9.393384443035231
 20
-13.64719178066054
 10
9.320354612313409
 20
-13.58906530031703
 10
9.248916123780418
 20
-13.50682584715815
 10
9.160699708250363
 20
-13.38731266244622
 10
9.119177571856383
 20
-13.3012963714574
 10
9.1044582754012
 20
-13.22086271320694
 10
9.105320631860636
 20
-13.12104718472818
 10
9.106147885392915
 20
-13.10867734663003
 10
9.106769549289979
 20
-13.09938166947939
 10
9.107214993499667
 20
-13.09272098742656
 10
9.107513587969905
 20
-13.08825613462193
 10
9.107694702648573
 20
-13.08554794521581
 10
9.107787707483567
 20
-13.08415725335863
 10
9.107821972422769
 20
-13.08364489320076
 10
9.107826867414104
 20
-13.08357169889246
 10
9.107848291868748
 20
-13.08301244613693
 10
9.107998263051286
 20
-13.07909767684811
 10
9.108405327689553
 20
-13.06847187449273
 10
9.109198032511515
 20
-13.0477795225375
 10
9.110504924244964
 20
-13.01366510444922
 10
9.112454549617837
 20
-12.96277310369453
 10
9.115175455357999
 20
-12.89174800374019
 10
9.118796188193343
 20
-12.79723428805289
 10
9.123381021488271
 20
-12.6775541983601
 10
9.128737135151241
 20
-12.53774100946771
 10
9.134607435726267
 20
-12.38450575444216
 10
9.140734829757321
 20
-12.22455946635006
 10
9.146862223788375
 20
-12.06461317825801
 10
9.152732524363401
 20
-11.91137792323247
 10
9.158088638026371
 20
-11.77156473434008
 10
9.162673471321298
 20
-11.65188464464728
  0
LWPOLYLINE
  5
D4
330
C0
100
AcDbEntity
  8
0
  6
CONTINUOUS
 62
     1
100
AcDbPolyline
 90
      193
 70
     0
 43
0.0
 10
12.1875
 20
-10.25
 10
11.11782777333615
 20
-10.25
 10
10.19469025737368
 20
-12.75779794867657
 10
10.28063613502586
 20
-10.25
 10
9.177238695287869
 20
-10.25
 10
7.315315965153985
 20
-12.82240214459552
 10
8.257967842926263
 20
-10.25
 10
7.185217305214394
 20
-10.25
 10
7.184866603917669
 20
-10.2509227590657
 10
7.182411694840752
 20
-10.25738207252579
 10
7.175748370203351
 20
-10.27491449477452
 10
7.162772422225245
 20
-10.30905658020635
 10
7.141379643126257
 20
-10.36534488321547
 10
7.10946582512608
 20
-10.44931595819634
 10
7.064926760444536
 20
-10.56650635954327
 10
7.005658241301362
 20
-10.72245264165059
 10
6.93060816381103
 20
-10.91992308171552
 10
6.842932839639985
 20
-11.15061284814647
 10
6.746840684348257
 20
-11.40344883215482
 10
6.646540113495945
 20
-11.66735792495183
 10
6.546239542643136
 20
-11.93126701774884
 10
6.450147387349873
 20
-12.18410300175714
 10
6.362472063176213
 20
-12.41479276818814
 10
6.2874219856823
 20
-12.61226320825301
 10
6.22815346654275
 20
-12.76820949036033
 10
6.183614401863935
 20
-12.88539989170727
 10
6.151700583865718
 20
-12.96937096668813
 10
6.130307804768023
 20
-13.02565926969731
 10
6.117331856790742
 20
-13.05980135512908
 10
6.110668532153738
 20
-13.07733377737782
 10
6.108213623076949
 20
-13.0837930908379
 10
6.107862921780281
 20
-13.0847158499036
 10
6.107832168465393
 20
-13.08478661445167
 10
6.107616895261117
 20
-13.08528196628828
 10
6.107032582278137
 20
-13.08662649270184
 10
6.10589470962708
 20
-13.08924478098089
 10
6.104018757418572
 20
-13.09356141841391
 10
6.101220205763241
 20
-13.10000099228938
 10
6.097314534771726
 20
-13.10898808989589
 10
6.092117224554698
 20
-13.1209472985218
 10
6.057295832322069
 20
-13.21810111191229
 10
6.048108273246598
 20
-13.29811817420767
 10
6.054155611352115
 20
-13.33963046754445
 10
6.068699722918922
 20
-13.38419541303756
 10
6.130269212363857
 20
-13.50067830562284
 10
6.177431934876864
 20
-13.57185793559512
 10
6.229398928991699
 20
-13.62321127161903
 10
6.299070388745491
 20
-13.66749621797209
 10
6.388534060957142
 20
-13.70523616102395
 10
6.558421995317559
 20
-13.75057715569949
 10
6.751507468561812
 20
-13.7792474148178
 10
6.936593726120748
 20
-13.78677583470085
 10
7.100486566607174
 20
-13.77287727901478
 10
7.22917979221171
 20
-13.7423082140208
 10
7.355895950045849
 20
-13.6927508542297
 10
7.480422008594488
 20
-13.62490145482855
 10
7.622178564177247
 20
-13.52813792984318
 10
7.772925430901822
 20
-13.41547696689293
 10
7.861206238860149
 20
-13.33303294111892
 10
7.932941968566666
 20
-13.24719365901569
 10
8.018259125972207
 20
-13.12995521758495
 10
8.028692711245924
 20
-13.11502269192448
 10
8.036533334498927
 20
-13.10380120814415
 10
8.042151418877069
 20
-13.09576061740393
 10
8.045917387526174
 20
-13.09037077086379
 10
8.04820166359201
 20
-13.0871015196837
 10
8.049374670220416
 20
-13.08542271502364
 10
8.049806830557174
 20
-13.08480420804364
 10
8.049868567748149
 20
-13.0847158499036
 10
8.050230335981681
 20
-13.08415622470307
 10
8.052762713616417
 20
-13.08023884829913
 10
8.059636310053577
 20
-13.06960596948858
 10
8.073021734694351
 20
-13.04889983706795
 10
8.095089596939928
 20
-13.01476269983397
 10
8.128010506191515
 20
-12.96383680658329
 10
8.173955071850344
 20
-12.89276440611252
 10
8.235093903317605
 20
-12.79818774721832
 10
8.312512305293893
 20
-12.67842795429908
 10
8.402954363677424
 20
-12.53852165415981
 10
8.502078859665744
 20
-12.38518434920712
 10
8.605544574456502
 20
-12.22513154184776
 10
8.70901028924726
 20
-12.06507873448845
 10
8.808134785235581
 20
-11.91174142953577
 10
8.898576843619125
 20
-11.77183512939649
 10
8.975995245595399
 20
-11.65207533647725
 10
9.03713407706266
 20
-11.55749867758306
 10
9.083078642721503
 20
-11.48642627711229
 10
9.11599955197309
 20
-11.43550038386161
 10
9.138067414218682
 20
-11.40136324662763
 10
9.151452838859427
 20
-11.380657114207
 10
9.158326435296587
 20
-11.37002423539639
 10
9.160858812931323
 20
-11.36610685899251
 10
9.161220581164869
 20
-11.36554723379197
 10
9.161224624853304
 20
-11.36554723379197
 10
9.161252930672347
 20
-11.36554723379197
 10
9.161329760752665
 20
-11.36554723379197
 10
9.161479377224865
 20
-11.36554723379197
 10
9.161726042219556
 20
-11.36554723379197
 10
9.162094017867389
 20
-11.36554723379197
 10
9.162607566298973
 20
-11.36554723379197
 10
9.16329094964496
 20
-11.36554723379197
 10
9.164156298978867
 20
-11.36554723379197
 10
9.165167221096397
 20
-11.36554723379197
 10
9.16627519173619
 20
-11.36554723379197
 10
9.167431686636817
 20
-11.36554723379197
 10
9.168588181536961
 20
-11.36554723379197
 10
9.169696152175206
 20
-11.36554723379197
 10
9.170707074290135
 20
-11.36554723379197
 10
9.171572423620447
 20
-11.36554723379197
 10
9.172255806973681
 20
-11.36554723379197
 10
9.172769355410736
 20
-11.36554723379197
 10
9.173137331062478
 20
-11.36554723379197
 10
9.173383996059812
 20
-11.36554723379197
 10
9.173533612533603
 20
-11.36554723379197
 10
9.173610442614717
 20
-11.36554723379197
 10
9.173638748434101
 20
-11.36554723379197
 10
9.173642792122578
 20
-11.36554723379197
 10
9.173621367667877
 20
-11.36610648654755
 10
9.173471396485056
 20
-11.37002125583655
 10
9.17306433184595
 20
-11.38064705819255
 10
9.172271627022411
 20
-11.40133941014886
 10
9.170964735286319
 20
-11.43545382823908
 10
9.169015109909537
 20
-11.48634582899655
 10
9.166294204163904
 20
-11.55737092895481
 10
9.162673471321298
 20
-11.65188464464728
 10
9.158088638026371
 20
-11.77156473434008
 10
9.152732524363401
 20
-11.91137792323247
 10
9.146862223788375
 20
-12.06461317825801
 10
9.140734829757321
 20
-12.22455946635006
 10
9.134607435726267
 20
-12.38450575444216
 10
9.128737135151241
 20
-12.53774100946771
 10
9.123381021488271
 20
-12.6775541983601
 10
9.118796188193343
 20
-12.79723428805289
 10
9.115175455357999
 20
-12.89174800374019
 10
9.112454549617837
 20
-12.96277310369453
 10
9.110504924244964
 20
-13.01366510444922
 10
9.109198032511515
 20
-13.0477795225375
 10
9.108405327689553
 20
-13.06847187449273
 10
9.107998263051286
 20
-13.07909767684811
 10
9.107848291868748
 20
-13.08301244613693
 10
9.107826867414104
 20
-13.08357169889246
 10
9.107821972422769
 20
-13.08364489320076
 10
9.107787707483567
 20
-13.08415725335863
 10
9.107694702648573
 20
-13.08554794521581
 10
9.107513587969905
 20
-13.08825613462193
 10
9.107214993499667
 20
-13.09272098742656
 10
9.106769549289979
 20
-13.09938166947939
 10
9.106147885392915
 20
-13.10867734663003
 10
9.105320631860636
 20
-13.12104718472818
 10
9.1044582754012
 20
-13.22086271320694
 10
9.119177571856383
 20
-13.3012963714574
 10
9.160699708250363
 20
-13.38731266244622
 10
9.248916123780418
 20
-13.50682584715815
 10
9.320354612313409
 20
-13.58906530031703
 10
9.393384443035231
 20
-13.64719178066054
 10
9.483463052474875
 20
-13.69353672874019
 10
9.592084241683025
 20
-13.72805561726165
 10
9.77145497024884
 20
-13.75816268071901
 10
9.98306497955609
 20
-13.77097951945473
 10
10.19366318408275
 20
-13.7645979717388
 10
10.3750830766466
 20
-13.7398694304502
 10
10.49688897405727
 20
-13.70613831410259
 10
10.60567894711689
 20
-13.65804426440002
 10
10.70257706196293
 20
-13.59582756911067
 10
10.80691835748485
 20
-13.50704378068929
 10
10.93679048256215
 20
-13.38407375140275
 10
11.00927417621472
 20
-13.29790932125934
 10
11.05591023572569
 20
-13.21831407507796
 10
11.09774156673761
 20
-13.11959429454652
 10
11.10232143409755
 20
-13.10736233204318
 10
11.10576310956922
 20
-13.09817026554663
 10
11.10822919199383
 20
-13.09158382419867
 10
11.1098822802125
 20
-13.08716873714127
 10
11.11088497306646
 20
-13.08449073351625
 10
11.11139986939687
 20
-13.08311554246558
 10
11.11158956804491
 20
-13.08260889313112
 10
11.11161666785179
 20
-13.08253651465481
 10
11.11214200151007
 20
-13.08115344018472
 10
11.1158193371181
 20
-13.07147191889442
 10
11.12580067662566
 20
-13.0451935039635
 10
11.14523802198244
 20
-12.99401974857182
 10
11.17728337513823
 20
-12.90965220589897
 10
11.22508873804277
 20
-12.78379242912479
 10
11.29180611264582
 20
-12.60814197142889
 10
11.38058750089709
 20
-12.37440238599106
 10
11.49248357010863
 20
-12.07980752387124
 10
11.62013964906827
 20
-11.74372042764998
 10
11.75409973192714
 20
-11.39103643778816
 10
11.88490781283641
 20
-11.04665089474668
 10
12.00310788594719
 20
-10.73545913898624
 10
12.09924394541061
 20
-10.48235651096775
 10
12.16385998537784
 20
-10.31223835115208
 10
12.1875
 20
-10.25
  0
HATCH
  5
D5
330
C0
100
AcDbEntity
  8
0
 62
     1
100
AcDbHatch
 10
0.0
 20
0.0
 30
0.0
210
0.0
220
0.0
230
1.0
  2
SOLID
 70
     1
 71
     0
 91
        1
 92
        5
 93
       58
 72
     1
 10
12.1875
 20
-10.25
 11
11.11782777333615
 21
-10.25
 72
     1
 10
11.11782777333615
 20
-10.25
 11
10.19469025737368
 21
-12.75779794867657
 72
     1
 10
10.19469025737368
 20
-12.75779794867657
 11
10.28063613502586
 21
-10.25
 72
     1
 10
10.28063613502586
 20
-10.25
 11
9.177238695287869
 21
-10.25
 72
     1
 10
9.177238695287869
 20
-10.25
 11
7.315315965153985
 21
-12.82240214459552
 72
     1
 10
7.315315965153985
 20
-12.82240214459552
 11
8.257967842926263
 21
-10.25
 72
     1
 10
8.257967842926263
 20
-10.25
 11
7.185217305214394
 21
-10.25
 72
     1
 10
7.185217305214394
 20
-10.25
 11
6.107862921743305
 21
-13.08471584988956
 72
     1
 10
6.107862921743305
 20
-13.08471584988956
 11
6.092117243064365
 21
-13.12094730656582
 72
     1
 10
6.092117243064365
 20
-13.12094730656582
 11
6.057295832322069
 21
-13.21810111191229
 72
     1
 10
6.057295832322069
 20
-13.21810111191229
 11
6.048108273246598
 21
-13.29811817420767
 72
     1
 10
6.048108273246598
 20
-13.29811817420767
 11
6.054155611352115
 21
-13.33963046754445
 72
     1
 10
6.054155611352115
 20
-13.33963046754445
 11
6.068699722918922
 21
-13.38419541303756
 72
     1
 10
6.068699722918922
 20
-13.38419541303756
 11
6.130269212363857
 21
-13.50067830562284
 72
     1
 10
6.130269212363857
 20
-13.50067830562284
 11
6.177431934876864
 21
-13.57185793559512
 72
     1
 10
6.177431934876864
 20
-13.57185793559512
 11
6.229398928991699
 21
-13.62321127161903
 72
     1
 10
6.229398928991699
 20
-13.62321127161903
 11
6.299070388745491
 21
-13.66749621797209
 72
     1
 10
6.299070388745491
 20
-13.66749621797209
 11
6.388534060957142
 21
-13.70523616102395
 72
     1
 10
6.388534060957142
 20
-13.70523616102395
 11
6.558421995317559
 21
-13.75057715569949
 72
     1
 10
6.558421995317559
 20
-13.75057715569949
 11
6.751507468561812
 21
-13.7792474148178
 72
     1
 10
6.751507468561812
 20
-13.7792474148178
 11
6.936593726120748
 21
-13.78677583470085
 72
     1
 10
6.936593726120748
 20
-13.78677583470085
 11
7.100486566607174
 21
-13.77287727901478
 72
     1
 10
7.100486566607174
 20
-13.77287727901478
 11
7.22917979221171
 21
-13.7423082140208
 72
     1
 10
7.22917979221171
 20
-13.7423082140208
 11
7.355895950045849
 21
-13.6927508542297
 72
     1
 10
7.355895950045849
 20
-13.6927508542297
 11
7.480422008594488
 21
-13.62490145482855
 72
     1
 10
7.480422008594488
 20
-13.62490145482855
 11
7.622178564177247
 21
-13.52813792984318
 72
     1
 10
7.622178564177247
 20
-13.52813792984318
 11
7.772925430901822
 21
-13.41547696689293
 72
     1
 10
7.772925430901822
 20
-13.41547696689293
 11
7.861206238860149
 21
-13.33303294111892
 72
     1
 10
7.861206238860149
 20
-13.33303294111892
 11
7.932941968566666
 21
-13.24719365901569
 72
     1
 10
7.932941968566666
 20
-13.24719365901569
 11
8.018259125972207
 21
-13.12995521758495
 72
     1
 10
8.018259125972207
 20
-13.12995521758495
 11
8.049868567748149
 21
-13.0847158499036
 72
     1
 10
8.049868567748149
 20
-13.0847158499036
 11
9.161220581167214
 21
-11.36554723379351
 72
     1
 10
9.161220581167214
 20
-11.36554723379351
 11
9.173638748434101
 21
-11.36554723320552
 72
     1
 10
9.173638748434101
 20
-11.36554723320552
 11
9.173621367667877
 21
-11.36610648654755
 72
     1
 10
9.173621367667877
 20
-11.36610648654755
 11
9.107826867316646
 21
-13.08357169888876
 72
     1
 10
9.107826867316646
 20
-13.08357169888876
 11
9.105320681570802
 21
-13.12104718805261
 72
     1
 10
9.105320681570802
 20
-13.12104718805261
 11
9.1044582754012
 21
-13.22086271320694
 72
     1
 10
9.1044582754012
 20
-13.22086271320694
 11
9.119177571856383
 21
-13.3012963714574
 72
     1
 10
9.119177571856383
 20
-13.3012963714574
 11
9.160699708250363
 21
-13.38731266244622
 72
     1
 10
9.160699708250363
 20
-13.38731266244622
 11
9.248916123780418
 21
-13.50682584715815
 72
     1
 10
9.248916123780418
 20
-13.50682584715815
 11
9.320354612313409
 21
-13.58906530031703
 72
     1
 10
9.320354612313409
 20
-13.58906530031703
 11
9.393384443035231
 21
-13.64719178066054
 72
     1
 10
9.393384443035231
 20
-13.64719178066054
 11
9.483463052474875
 21
-13.69353672874019
 72
     1
 10
9.483463052474875
 20
-13.69353672874019
 11
9.592084241683025
 21
-13.72805561726165
 72
     1
 10
9.592084241683025
 20
-13.72805561726165
 11
9.77145497024884
 21
-13.75816268071901
 72
     1
 10
9.77145497024884
 20
-13.75816268071901
 11
9.98306497955609
 21
-13.77097951945473
 72
     1
 10
9.98306497955609
 20
-13.77097951945473
 11
10.19366318408275
 21
-13.7645979717388
 72
     1
 10
10.19366318408275
 20
-13.7645979717388
 11
10.3750830766466
 21
-13.7398694304502
 72
     1
 10
10.3750830766466
 20
-13.7398694304502
 11
10.49688897405727
 21
-13.70613831410259
 72
     1
 10
10.49688897405727
 20
-13.70613831410259
 11
10.60567894711689
 21
-13.65804426440002
 72
     1
 10
10.60567894711689
 20
-13.65804426440002
 11
10.70257706196293
 21
-13.59582756911067
 72
     1
 10
10.70257706196293
 20
-13.59582756911067
 11
10.80691835748485
 21
-13.50704378068929
 72
     1
 10
10.80691835748485
 20
-13.50704378068929
 11
10.93679048256215
 21
-13.38407375140275
 72
     1
 10
10.93679048256215
 20
-13.38407375140275
 11
11.00927417621472
 21
-13.29790932125934
 72
     1
 10
11.00927417621472
 20
-13.29790932125934
 11
11.05591023572569
 21
-13.21831407507796
 72
     1
 10
11.05591023572569
 20
-13.21831407507796
 11
11.09774156673761
 21
-13.11959429454652
 72
     1
 10
11.09774156673761
 20
-13.11959429454652
 11
11.11161666785179
 21
-13.08253651465481
 72
     1
 10
11.11161666785179
 20
-13.08253651465481
 11
12.18750000003053
 21
-10.2500000000116
 97
        0
 75
     0
 76
     0
 47
0.322189
 98
        1
 10
0.0
 20
0.0
  0
HATCH
  5
D6
330
C0
100
AcDbEntity
  8
0
 62
     1
100
AcDbHatch
 10
0.0
 20
0.0
 30
0.0
210
0.0
220
0.0
230
1.0
  2
SOLID
 70
     1
 71
     0
 91
        1
 92
        5
 93
       19
 72
     1
 10
6.914680023581326
 20
-10.25147099886192
 11
5.997343331270827
 21
-12.59131429567685
 72
     1
 10
5.997343331270827
 20
-12.59131429567685
 11
5.979563580739992
 21
-12.62982496248065
 72
     1
 10
5.979563580739992
 20
-12.62982496248065
 11
5.951215286502475
 21
-12.6834150032164
 72
     1
 10
5.951215286502475
 20
-12.6834150032164
 11
5.918597470838719
 21
-12.72542800731316
 72
     1
 10
5.918597470838719
 20
-12.72542800731316
 11
5.879204344395944
 21
-12.75914172880476
 72
     1
 10
5.879204344395944
 20
-12.75914172880476
 11
5.83338013528163
 21
-12.78398569336298
 72
     1
 10
5.83338013528163
 20
-12.78398569336298
 11
5.769894536494206
 21
-12.80314068588018
 72
     1
 10
5.769894536494206
 20
-12.80314068588018
 11
5.687364713392583
 21
-12.81540344512069
 72
     1
 10
5.687364713392583
 20
-12.81540344512069
 11
5.430103226859927
 21
-12.82311384176154
 72
     1
 10
5.430103226859927
 20
-12.82311384176154
 11
5.162845494533499
 21
-12.81599551320034
 72
     1
 10
5.162845494533499
 20
-12.81599551320034
 11
5.083625736149259
 21
-12.80387540723996
 72
     1
 10
5.083625736149259
 20
-12.80387540723996
 11
5.03138476134238
 21
-12.78503903873479
 72
     1
 10
5.03138476134238
 20
-12.78503903873479
 11
5.003483863008597
 21
-12.76014616720067
 72
     1
 10
5.003483863008597
 20
-12.76014616720067
 11
4.99153719959422
 21
-12.7262858201471
 72
     1
 10
4.99153719959422
 20
-12.7262858201471
 11
4.995380386740663
 21
-12.68403208810429
 72
     1
 10
4.995380386740663
 20
-12.68403208810429
 11
5.015357566660143
 21
-12.63008830209549
 72
     1
 10
5.015357566660143
 20
-12.63008830209549
 11
5.032660580522645
 21
-12.59131429567128
 72
     1
 10
5.032660580522645
 20
-12.59131429567128
 11
5.931799823488632
 21
-10.25147099886993
 72
     1
 10
5.931799823488632
 20
-10.25147099886993
 11
6.914680023581354
 21
-10.2514709823439
 97
        0
 75
     0
 76
     0
 47
0.322189
 98
        1
 10
0.0
 20
0.0
  0
HATCH
  5
D7
330
C0
100
AcDbEntity
  8
0
 62
     1
100
AcDbHatch
 10
0.0
 20
0.0
 30
0.0
210
0.0
220
0.0
230
1.0
  2
SOLID
 70
     1
 71
     0
 91
        1
 92
        5
 93
       28
 72
     1
 10
4.727471991477017
 20
-13.40137323868021
 11
4.736608937581224
 21
-13.46715327591818
 72
     1
 10
4.736608937581224
 20
-13.46715327591818
 11
4.763919555425801
 21
-13.53017248864268
 72
     1
 10
4.763919555425801
 20
-13.53017248864268
 11
4.808543347993151
 21
-13.58841621697036
 72
     1
 10
4.808543347993151
 20
-13.58841621697036
 11
4.868762530815019
 21
-13.63961893268959
 72
     1
 10
4.868762530815019
 20
-13.63961893268959
 11
4.942119378586909
 21
-13.68169566931948
 72
     1
 10
4.942119378586909
 20
-13.68169566931948
 11
5.02562682690612
 21
-13.71292916175935
 72
     1
 10
5.02562682690612
 20
-13.71292916175935
 11
5.210458379149458
 21
-13.73865460221464
 72
     1
 10
5.210458379149458
 20
-13.73865460221464
 11
5.395353151166177
 21
-13.71338754323307
 72
     1
 10
5.395353151166177
 20
-13.71338754323307
 11
5.478937788337277
 21
-13.68236120919772
 72
     1
 10
5.478937788337277
 20
-13.68236120919772
 11
5.552398742727149
 21
-13.64046649520077
 72
     1
 10
5.552398742727149
 20
-13.64046649520077
 11
5.612744701039944
 21
-13.58941325443499
 72
     1
 10
5.612744701039944
 20
-13.58941325443499
 11
5.657512775709378
 21
-13.53128035287585
 72
     1
 10
5.657512775709378
 20
-13.53128035287585
 11
5.684979570016097
 21
-13.46832905240825
 72
     1
 10
5.684979570016097
 20
-13.46832905240825
 11
5.69427959410146
 21
-13.40257187306236
 72
     1
 10
5.69427959410146
 20
-13.40257187306236
 11
5.685142647997253
 21
-13.33679183582439
 72
     1
 10
5.685142647997253
 20
-13.33679183582439
 11
5.657832030152662
 21
-13.27377262309994
 72
     1
 10
5.657832030152662
 20
-13.27377262309994
 11
5.613208237585326
 21
-13.21552889477221
 72
     1
 10
5.613208237585326
 20
-13.21552889477221
 11
5.552989054763458
 21
-13.16432617905298
 72
     1
 10
5.552989054763458
 20
-13.16432617905298
 11
5.479632206991539
 21
-13.12224944242308
 72
     1
 10
5.479632206991539
 20
-13.12224944242308
 11
5.396124758672357
 21
-13.09101594998322
 72
     1
 10
5.396124758672357
 20
-13.09101594998322
 11
5.211293206429019
 21
-13.06529050952793
 72
     1
 10
5.211293206429019
 20
-13.06529050952793
 11
5.0263984344042
 21
-13.09055756851711
 72
     1
 10
5.0263984344042
 20
-13.09055756851711
 11
4.942813797232816
 21
-13.12158390255343
 72
     1
 10
4.942813797232816
 20
-13.12158390255343
 11
4.869352842844336
 21
-13.16347861654964
 72
     1
 10
4.869352842844336
 20
-13.16347861654964
 11
4.809006884533943
 21
-13.21453185731343
 72
     1
 10
4.809006884533943
 20
-13.21453185731343
 11
4.764238809866882
 21
-13.27266475887006
 72
     1
 10
4.764238809866882
 20
-13.27266475887006
 11
4.736772015561783
 21
-13.33561605933545
 72
     1
 10
4.736772015561783
 20
-13.33561605933545
 11
4.727471991477017
 21
-13.40137323868021
 97
        0
 75
     0
 76
     0
 47
0.322189
 98
        1
 10
0.0
 20
0.0
  0
HATCH
  5
D8
330
C0
100
AcDbEntity
  8
0
 62
     1
100
AcDbHatch
 10
0.0
 20
0.0
 30
0.0
210
0.0
220
0.0
230
1.0
  2
SOLID
 70
     1
 71
     0
 91
        1
 92
        5
 93
      120
 72
     1
 10
5.702424787850717
 20
-10.25147099886192
 11
4.800370684009266
 21
-12.57834725090788
 72
     1
 10
4.800370684009266
 20
-12.57834725090788
 11
4.784951882616724
 21
-12.61933691315426
 72
     1
 10
4.784951882616724
 20
-12.61933691315426
 11
4.75956249267621
 21
-12.67636534855689
 72
     1
 10
4.75956249267621
 20
-12.67636534855689
 11
4.728323473761421
 21
-12.72104144499343
 72
     1
 10
4.728323473761421
 20
-12.72104144499343
 11
4.688840131595882
 21
-12.75685084466676
 72
     1
 10
4.688840131595882
 20
-12.75685084466676
 11
4.641429039669561
 21
-12.78318660377488
 72
     1
 10
4.641429039669561
 20
-12.78318660377488
 11
4.575122719671242
 21
-12.80322570289769
 72
     1
 10
4.575122719671242
 20
-12.80322570289769
 11
4.488062926975402
 21
-12.81606842601252
 72
     1
 10
4.488062926975402
 20
-12.81606842601252
 11
4.21952789537599
 21
-12.82364959501456
 72
     1
 10
4.21952789537599
 20
-12.82364959501456
 11
3.9613074422289
 21
-12.81564639402444
 72
     1
 10
3.9613074422289
 20
-12.81564639402444
 11
3.885829374811522
 21
-12.80289162836425
 72
     1
 10
3.885829374811522
 20
-12.80289162836425
 11
3.835905866786604
 21
-12.78306855645008
 72
     1
 10
3.835905866786604
 20
-12.78306855645008
 11
3.809075687992404
 21
-12.75720829637015
 72
     1
 10
3.809075687992404
 20
-12.75720829637015
 11
3.796711605458071
 21
-12.72210567731116
 72
     1
 10
3.796711605458071
 20
-12.72210567731116
 11
3.798682752203632
 21
-12.67835481344179
 72
     1
 10
3.798682752203632
 20
-12.67835481344179
 11
3.815184020734975
 21
-12.62254235376531
 72
     1
 10
3.815184020734975
 20
-12.62254235376531
 11
3.829776486390188
 21
-12.58243350451573
 72
     1
 10
3.829776486390188
 20
-12.58243350451573
 11
3.863719632955508
 21
-12.4812578652805
 72
     1
 10
3.863719632955508
 20
-12.4812578652805
 11
3.669576870718259
 21
-12.58621322519497
 72
     1
 10
3.669576870718259
 20
-12.58621322519497
 11
3.669513620049969
 21
-12.58624734120906
 72
     1
 10
3.669513620049969
 20
-12.58624734120906
 11
3.503775173859765
 21
-12.66808137998351
 72
     1
 10
3.503775173859765
 20
-12.66808137998351
 11
3.360501240527526
 21
-12.72926866347694
 72
     1
 10
3.360501240527526
 20
-12.72926866347694
 11
3.359607180818074
 21
-12.72965029678755
 72
     1
 10
3.359607180818074
 20
-12.72965029678755
 11
3.359230763081541
 21
-12.72981105113939
 72
     1
 10
3.359230763081541
 20
-12.72981105113939
 11
3.227707880435645
 21
-12.77525019123351
 72
     1
 10
3.227707880435645
 20
-12.77525019123351
 11
3.101907300794011
 21
-12.80763767429113
 72
     1
 10
3.101907300794011
 20
-12.80763767429113
 11
3.101619910153033
 21
-12.80771171618574
 72
     1
 10
3.101619910153033
 20
-12.80771171618574
 11
3.101578852526771
 21
-12.80772228652927
 72
     1
 10
3.101578852526771
 20
-12.80772228652927
 11
2.972317030190609
 21
-12.83098669032358
 72
     1
 10
2.972317030190609
 20
-12.83098669032358
 11
2.674661491112232
 21
-12.8634286918666
 72
     1
 10
2.674661491112232
 20
-12.8634286918666
 11
2.673981454749963
 21
-12.8635026809842
 72
     1
 10
2.673981454749963
 20
-12.8635026809842
 11
2.673884308681764
 21
-12.86351326906316
 72
     1
 10
2.673884308681764
 20
-12.86351326906316
 11
2.552440851588543
 21
-12.86351326906316
 72
     1
 10
2.552440851588543
 20
-12.86351326906316
 11
2.404355020989712
 21
-12.8417199164881
 72
     1
 10
2.404355020989712
 20
-12.8417199164881
 11
2.326588488652973
 21
-12.82130627685353
 72
     1
 10
2.326588488652973
 20
-12.82130627685353
 11
2.326103264479997
 21
-12.82117883042105
 72
     1
 10
2.326103264479997
 20
-12.82117883042105
 11
2.325898951799871
 21
-12.82112519834266
 72
     1
 10
2.325898951799871
 20
-12.82112519834266
 11
2.247333915852224
 21
-12.7935021239656
 72
     1
 10
2.247333915852224
 20
-12.7935021239656
 11
2.171038436667203
 21
-12.75834321103071
 72
     1
 10
2.171038436667203
 20
-12.75834321103071
 11
2.170864148994994
 21
-12.75826285107922
 72
     1
 10
2.170864148994994
 20
-12.75826285107922
 11
2.170839248387082
 21
-12.75825137622644
 72
     1
 10
2.170839248387082
 20
-12.75825137622644
 11
2.097831517309544
 21
-12.71493708807213
 72
     1
 10
2.097831517309544
 20
-12.71493708807213
 11
2.033280160453643
 21
-12.66388262883078
 72
     1
 10
2.033280160453643
 20
-12.66388262883078
 11
2.032486043854775
 21
-12.66325475899834
 72
     1
 10
2.032486043854775
 20
-12.66325475899834
 11
2.031906625862916
 21
-12.66279649204091
 72
     1
 10
2.031906625862916
 20
-12.66279649204091
 11
1.974263208346969
 21
-12.60144820462773
 72
     1
 10
1.974263208346969
 20
-12.60144820462773
 11
1.927203531401517
 21
-12.53069553488825
 72
     1
 10
1.927203531401517
 20
-12.53069553488825
 11
1.927095959008881
 21
-12.53053393363553
 72
     1
 10
1.927095959008881
 20
-12.53053393363553
 11
1.927080600086924
 21
-12.53051084204617
 72
     1
 10
1.927080600086924
 20
-12.53051084204617
 11
1.892374686143114
 21
-12.44900370351513
 72
     1
 10
1.892374686143114
 20
-12.44900370351513
 11
1.872811786763919
 21
-12.35684051518012
 72
     1
 10
1.872811786763919
 20
-12.35684051518012
 11
1.872767053627428
 21
-12.35662996804894
 72
     1
 10
1.872767053627428
 20
-12.35662996804894
 11
1.872760668856216
 21
-12.35659988868213
 72
     1
 10
1.872760668856216
 20
-12.35659988868213
 11
1.869927532933048
 21
-12.25308146406564
 72
     1
 10
1.869927532933048
 20
-12.25308146406564
 11
1.886092317599562
 21
-12.14008977672165
 72
     1
 10
1.886092317599562
 20
-12.14008977672165
 11
1.886290903652736
 21
-12.13869988320033
 72
     1
 10
1.886290903652736
 20
-12.13869988320033
 11
1.886435997579653
 21
-12.1376856622864
 72
     1
 10
1.886435997579653
 20
-12.1376856622864
 11
1.924247464238647
 21
-12.00932281575251
 72
     1
 10
1.924247464238647
 20
-12.00932281575251
 11
2.600931120756712
 21
-10.25147102185815
 72
     1
 10
2.600931120756712
 20
-10.25147102185815
 11
2.621408866900694
 21
-10.2514695498266
 72
     1
 10
2.621408866900694
 20
-10.2514695498266
 11
2.710679301988407
 21
-10.25147617738145
 72
     1
 10
2.710679301988407
 20
-10.25147617738145
 11
2.833226171450761
 21
-10.25146444144667
 72
     1
 10
2.833226171450761
 20
-10.25146444144667
 11
3.000888207327762
 21
-10.25147818578893
 72
     1
 10
3.000888207327762
 20
-10.25147818578893
 11
3.183908597629667
 21
-10.25146381193491
 72
     1
 10
3.183908597629667
 20
-10.25146381193491
 11
3.351570633504821
 21
-10.251477556277
 72
     1
 10
3.351570633504821
 20
-10.251477556277
 11
3.474117503243804
 21
-10.25146582034256
 72
     1
 10
3.474117503243804
 20
-10.25146582034256
 11
3.543870029617409
 21
-10.25147470945444
 72
     1
 10
3.543870029617409
 20
-10.25147470945444
 11
3.563387938606525
 21
-10.25147099886192
 72
     1
 10
3.563387938606525
 20
-10.25147099886192
 11
3.583865744510959
 21
-10.25147099886192
 72
     1
 10
3.583865744510959
 20
-10.25147099886192
 11
3.098555024881961
 21
-11.48186920060516
 72
     1
 10
3.098555024881961
 20
-11.48186920060516
 11
3.038208710807211
 21
-11.66733670548069
 72
     1
 10
3.038208710807211
 20
-11.66733670548069
 11
3.038070925086373
 21
-11.66776045008288
 72
     1
 10
3.038070925086373
 20
-11.66776045008288
 11
3.03805122984059
 21
-11.66782098126151
 72
     1
 10
3.03805122984059
 20
-11.66782098126151
 11
3.021106898224019
 21
-11.74458806562393
 72
     1
 10
3.021106898224019
 20
-11.74458806562393
 11
3.011629883760321
 21
-11.81217993330006
 72
     1
 10
3.011629883760321
 20
-11.81217993330006
 11
3.01162678986266
 21
-11.81220194191405
 72
     1
 10
3.01162678986266
 20
-11.81220194191405
 11
3.009828838284662
 21
-11.87039019322816
 72
     1
 10
3.009828838284662
 20
-11.87039019322816
 11
3.01511199185353
 21
-11.92028072637345
 72
     1
 10
3.01511199185353
 20
-11.92028072637345
 11
3.015113726273398
 21
-11.92029697057745
 72
     1
 10
3.015113726273398
 20
-11.92029697057745
 11
3.027045586831846
 21
-11.96268504128659
 72
     1
 10
3.027045586831846
 20
-11.96268504128659
 11
3.044476339341358
 21
-11.99644922150549
 72
     1
 10
3.044476339341358
 20
-11.99644922150549
 11
3.044837248499107
 21
-11.99714805015447
 72
     1
 10
3.044837248499107
 20
-11.99714805015447
 11
3.045215794493572
 21
-11.9978813056627
 72
     1
 10
3.045215794493572
 20
-11.9978813056627
 11
3.069133998864913
 21
-12.02708439812875
 72
     1
 10
3.069133998864913
 20
-12.02708439812875
 11
3.096283868905402
 21
-12.04886483152552
 72
     1
 10
3.096283868905402
 20
-12.04886483152552
 11
3.09714881446294
 21
-12.04955897026161
 72
     1
 10
3.09714881446294
 20
-12.04955897026161
 11
3.098337091335878
 21
-12.05051225208109
 72
     1
 10
3.098337091335878
 20
-12.05051225208109
 11
3.132525413155108
 21
-12.06898211836295
 72
     1
 10
3.132525413155108
 20
-12.06898211836295
 11
3.170890499108737
 21
-12.08316527987518
 72
     1
 10
3.170890499108737
 20
-12.08316527987518
 11
3.170978159154714
 21
-12.08319765194892
 72
     1
 10
3.170978159154714
 20
-12.08319765194892
 11
3.170990680400564
 21
-12.0832022809081
 72
     1
 10
3.170990680400564
 20
-12.0832022809081
 11
3.259989283901035
 21
-12.10172663056227
 72
     1
 10
3.259989283901035
 20
-12.10172663056227
 11
3.360847096429581
 21
-12.1112364666019
 72
     1
 10
3.360847096429581
 20
-12.1112364666019
 11
3.361077522698224
 21
-12.11125811861126
 72
     1
 10
3.361077522698224
 20
-12.11125811861126
 11
3.361110439741154
 21
-12.11126122231951
 72
     1
 10
3.361110439741154
 20
-12.11126122231951
 11
3.471221353510515
 21
-12.10979017101931
 72
     1
 10
3.471221353510515
 20
-12.10979017101931
 11
3.586480946902114
 21
-12.09137478856599
 72
     1
 10
3.586480946902114
 20
-12.09137478856599
 11
3.683756145946035
 21
-12.06168023755521
 72
     1
 10
3.683756145946035
 20
-12.06168023755521
 11
3.69017818938724
 21
-12.05972111407039
 72
     1
 10
3.69017818938724
 20
-12.05972111407039
 11
3.703211591435462
 21
-12.05574265668776
 72
     1
 10
3.703211591435462
 20
-12.05574265668776
 11
3.81852566814743
 21
-12.0026758432557
 72
     1
 10
3.81852566814743
 20
-12.0026758432557
 11
3.874015260173337
 21
-11.96984099844542
 72
     1
 10
3.874015260173337
 20
-11.96984099844542
 11
3.87436155689187
 21
-11.96963621270294
 72
     1
 10
3.87436155689187
 20
-11.96963621270294
 11
3.874507342502426
 21
-11.96954994734915
 72
     1
 10
3.874507342502426
 20
-11.96954994734915
 11
3.92877279036442
 21
-11.93222883111901
 72
     1
 10
3.92877279036442
 20
-11.93222883111901
 11
3.981022111507059
 21
-11.89054886639445
 72
     1
 10
3.981022111507059
 20
-11.89054886639445
 11
3.981141508889834
 21
-11.89045368068696
 72
     1
 10
3.981141508889834
 20
-11.89045368068696
 11
3.981158561549719
 21
-11.89044007757713
 72
     1
 10
3.981158561549719
 20
-11.89044007757713
 11
4.030683955262447
 21
-11.84440162034616
 72
     1
 10
4.030683955262447
 20
-11.84440162034616
 11
4.076616735418057
 21
-11.79478758417315
 72
     1
 10
4.076616735418057
 20
-11.79478758417315
 11
4.077181849991987
 21
-11.79417741341837
 72
     1
 10
4.077181849991987
 20
-11.79417741341837
 11
4.077594146595629
 21
-11.7937320756227
 72
     1
 10
4.077594146595629
 20
-11.7937320756227
 11
4.120663259601102
 21
-11.73848592692576
 72
     1
 10
4.120663259601102
 20
-11.73848592692576
 11
4.159978483240096
 21
-11.67924291847947
 72
     1
 10
4.159978483240096
 20
-11.67924291847947
 11
4.160223869818907
 21
-11.678873304072
 72
     1
 10
4.160223869818907
 20
-11.678873304072
 11
4.160327161229475
 21
-11.67871765753716
 72
     1
 10
4.160327161229475
 20
-11.67871765753716
 11
4.195932050894157
 21
-11.61437278408266
 72
     1
 10
4.195932050894157
 20
-11.61437278408266
 11
4.732064859953823
 21
-10.25191473973229
 72
     1
 10
4.732064859953823
 20
-10.25191473973229
 11
4.732239215592173
 21
-10.25147099886192
 72
     1
 10
4.732239215592173
 20
-10.25147099886192
 11
5.702424787850717
 21
-10.25147099886192
 97
        0
 75
     0
 76
     0
 47
0.322189
 98
        1
 10
0.0
 20
0.0
  0
HATCH
  5
D9
330
C0
100
AcDbEntity
  8
0
 62
     1
100
AcDbHatch
 10
0.0
 20
0.0
 30
0.0
210
0.0
220
0.0
230
1.0
  2
SOLID
 70
     1
 71
     0
 91
        2
 92
        5
 93
      100
 72
     1
 10
2.026839628590921
 20
-10.53423979126757
 11
1.987448207689511
 21
-10.48705706740901
 72
     1
 10
1.987448207689511
 20
-10.48705706740901
 11
1.942771808063483
 21
-10.44276211993667
 72
     1
 10
1.942771808063483
 20
-10.44276211993667
 11
1.892211208163161
 21
-10.40140919351148
 72
     1
 10
1.892211208163161
 20
-10.40140919351148
 11
1.835766408032669
 21
-10.36359782595184
 72
     1
 10
1.835766408032669
 20
-10.36359782595184
 11
1.773764298880167
 21
-10.32856495476096
 72
     1
 10
1.773764298880167
 20
-10.32856495476096
 11
1.631726185806997
 21
-10.26781600771994
 72
     1
 10
1.631726185806997
 20
-10.26781600771994
 11
1.46647816297731
 21
-10.21992509860405
 72
     1
 10
1.46647816297731
 20
-10.21992509860405
 11
1.276004163924682
 21
-10.18445637242161
 72
     1
 10
1.276004163924682
 20
-10.18445637242161
 11
1.06079476271114
 21
-10.16222729449481
 72
     1
 10
1.06079476271114
 20
-10.16222729449481
 11
0.8196513581738287
 21
-10.15247464416245
 72
     1
 10
0.8196513581738287
 20
-10.15247464416245
 11
0.6029164645671301
 21
-10.15699687669991
 72
     1
 10
0.6029164645671301
 20
-10.15699687669991
 11
0.3966969674878129
 21
-10.17443154995618
 72
     1
 10
0.3966969674878129
 20
-10.17443154995618
 11
0.2026815677275806
 21
-10.20396151493776
 72
     1
 10
0.2026815677275806
 20
-10.20396151493776
 11
0.0208705815788619
 21
-10.24318956930932
 72
     1
 10
0.0208705815788619
 20
-10.24318956930932
 11
-0.1497169809415198
 21
-10.2913528087069
 72
     1
 10
-0.1497169809415198
 20
-10.2913528087069
 11
-0.3079366051483845
 21
-10.34692589889534
 72
     1
 10
-0.3079366051483845
 20
-10.34692589889534
 11
-0.4541156567491669
 21
-10.40832862839994
 72
     1
 10
-0.4541156567491669
 20
-10.40832862839994
 11
-0.5880357337725002
 21
-10.47441695697188
 72
     1
 10
-0.5880357337725002
 20
-10.47441695697188
 11
-0.7098605190721088
 21
-10.54350186753322
 72
     1
 10
-0.7098605190721088
 20
-10.54350186753322
 11
-0.8192087186365598
 21
-10.61411242864261
 72
     1
 10
-0.8192087186365598
 20
-10.61411242864261
 11
-0.9153174281175893
 21
-10.68499532004938
 72
     1
 10
-0.9153174281175893
 20
-10.68499532004938
 11
-0.9988404299316045
 21
-10.75446152464423
 72
     1
 10
-0.9988404299316045
 20
-10.75446152464423
 11
-1.069614357594418
 21
-10.82147612409426
 72
     1
 10
-1.069614357594418
 20
-10.82147612409426
 11
-1.127039831404673
 21
-10.88434994318885
 72
     1
 10
-1.127039831404673
 20
-10.88434994318885
 11
-1.171498303558579
 21
-10.94155748952858
 72
     1
 10
-1.171498303558579
 20
-10.94155748952858
 11
-1.202553760938002
 21
-10.99157327069815
 72
     1
 10
-1.202553760938002
 20
-10.99157327069815
 11
-0.1290677982016462
 21
-10.99157327069815
 72
     1
 10
-0.1290677982016462
 20
-10.99157327069815
 11
-0.03846183680974491
 21
-10.91279027074677
 72
     1
 10
-0.03846183680974491
 20
-10.91279027074677
 11
0.05067287684047983
 21
-10.84920810824616
 72
     1
 10
0.05067287684047983
 20
-10.84920810824616
 11
0.138881477743837
 21
-10.79968274299466
 72
     1
 10
0.138881477743837
 20
-10.79968274299466
 11
0.2276348973716154
 21
-10.76268852442854
 72
     1
 10
0.2276348973716154
 20
-10.76268852442854
 11
0.316824330106428
 21
-10.73680892390007
 72
     1
 10
0.316824330106428
 20
-10.73680892390007
 11
0.4072122058634591
 21
-10.72106326772166
 72
     1
 10
0.4072122058634591
 20
-10.72106326772166
 11
0.4996159899348811
 21
-10.71376253883125
 72
     1
 10
0.4996159899348811
 20
-10.71376253883125
 11
0.5945805010341445
 21
-10.71403486911288
 72
     1
 10
0.5945805010341445
 20
-10.71403486911288
 11
0.6949933574083218
 21
-10.72373295848718
 72
     1
 10
0.6949933574083218
 20
-10.72373295848718
 11
0.7986208814115372
 21
-10.74661597702618
 72
     1
 10
0.7986208814115372
 20
-10.74661597702618
 11
0.8993060680720504
 21
-10.78486335771015
 72
     1
 10
0.8993060680720504
 20
-10.78486335771015
 11
0.9464886337819962
 21
-10.81047046980842
 72
     1
 10
0.9464886337819962
 20
-10.81047046980842
 11
0.9904022872334934
 21
-10.84054525350183
 72
     1
 10
0.9904022872334934
 20
-10.84054525350183
 11
1.030175160298029
 21
-10.87574164938684
 72
     1
 10
1.030175160298029
 20
-10.87574164938684
 11
1.065262434306305
 21
-10.91545996151223
 72
     1
 10
1.065262434306305
 20
-10.91545996151223
 11
1.094683435534464
 21
-10.96095366829286
 72
     1
 10
1.094683435534464
 20
-10.96095366829286
 11
1.117947906246073
 21
-11.01162307377757
 72
     1
 10
1.117947906246073
 20
-11.01162307377757
 11
1.133257707447115
 21
-11.06828580138966
 72
     1
 10
1.133257707447115
 20
-11.06828580138966
 11
1.140885485716396
 21
-11.13083272926031
 72
     1
 10
1.140885485716396
 20
-11.13083272926031
 11
1.139141907699369
 21
-11.1999176398374
 72
     1
 10
1.139141907699369
 20
-11.1999176398374
 11
1.128517705576627
 21
-11.27510483627799
 72
     1
 10
1.128517705576627
 20
-11.27510483627799
 11
-1.354453488089035
 21
-11.27510483627799
 72
     1
 10
-1.354453488089035
 20
-11.27510483627799
 11
-1.396623563501436
 21
-11.36347680373478
 72
     1
 10
-1.396623563501436
 20
-11.36347680373478
 11
-1.433890270493052
 21
-11.45435509541147
 72
     1
 10
-1.433890270493052
 20
-11.45435509541147
 11
-1.465763035012998
 21
-11.54714033165391
 72
     1
 10
-1.465763035012998
 20
-11.54714033165391
 11
-1.492350820786257
 21
-11.64112416907187
 72
     1
 10
-1.492350820786257
 20
-11.64112416907187
 11
-1.512891197930784
 21
-11.73565282518592
 72
     1
 10
-1.512891197930784
 20
-11.73565282518592
 11
-1.528364365671081
 21
-11.82958210166157
 72
     1
 10
-1.528364365671081
 20
-11.82958210166157
 11
-1.537517636344546
 21
-11.92247630164007
 72
     1
 10
-1.537517636344546
 20
-11.92247630164007
 11
-1.540786548614065
 21
-12.01335459331676
 72
     1
 10
-1.540786548614065
 20
-12.01335459331676
 11
-1.537517636344546
 21
-12.10183552450963
 72
     1
 10
-1.537517636344546
 20
-12.10183552450963
 11
-1.527928510704754
 21
-12.18693857967958
 72
     1
 10
-1.527928510704754
 20
-12.18693857967958
 11
-1.512564306700512
 21
-12.26779204889084
 72
     1
 10
-1.512564306700512
 20
-12.26779204889084
 11
-1.489790251910165
 21
-12.34363286964657
 72
     1
 10
-1.489790251910165
 20
-12.34363286964657
 11
-1.460151165047108
 21
-12.41413430887133
 72
     1
 10
-1.460151165047108
 20
-12.41413430887133
 11
-1.423647362392771
 21
-12.47766191042956
 72
     1
 10
-1.423647362392771
 20
-12.47766191042956
 11
-1.380060600171532
 21
-12.53432463804165
 72
     1
 10
-1.380060600171532
 20
-12.53432463804165
 11
-1.329608964040361
 21
-12.58303285431543
 72
     1
 10
-1.329608964040361
 20
-12.58303285431543
 11
-1.233009996800831
 21
-12.65647647273585
 72
     1
 10
-1.233009996800831
 20
-12.65647647273585
 11
-1.132542579482788
 21
-12.72000407427839
 72
     1
 10
-1.132542579482788
 20
-12.72000407427839
 11
-1.021778009412927
 21
-12.77328876773476
 72
     1
 10
-1.021778009412927
 20
-12.77328876773476
 11
-0.8954853943664602
 21
-12.81649407776763
 72
     1
 10
-0.8954853943664602
 20
-12.81649407776763
 11
-0.74843479098476
 21
-12.84989249283876
 72
     1
 10
-0.74843479098476
 20
-12.84989249283876
 11
-0.5737066062511929
 21
-12.87288447511384
 72
     1
 10
-0.5737066062511929
 20
-12.87288447511384
 11
-0.3667787657784771
 21
-12.88574251302316
 72
     1
 10
-0.3667787657784771
 20
-12.88574251302316
 11
-0.1213856171291639
 21
-12.8886301312765
 72
     1
 10
-0.1213856171291639
 20
-12.8886301312765
 11
0.02310441737643032
 21
-12.88263696729763
 72
     1
 10
0.02310441737643032
 20
-12.88263696729763
 11
0.1705363147805912
 21
-12.86781742384881
 72
     1
 10
0.1705363147805912
 20
-12.86781742384881
 11
0.3199842786398506
 21
-12.8436812432077
 72
     1
 10
0.3199842786398506
 20
-12.8436812432077
 11
0.4701949887067087
 21
-12.81082780501276
 72
     1
 10
0.4701949887067087
 20
-12.81082780501276
 11
0.6199152828523467
 21
-12.76925695109964
 72
     1
 10
0.6199152828523467
 20
-12.76925695109964
 11
0.7689817945484663
 21
-12.71924132807862
 72
     1
 10
0.7689817945484663
 20
-12.71924132807862
 11
0.9145614664698911
 21
-12.66088958337292
 72
     1
 10
0.9145614664698911
 20
-12.66088958337292
 11
1.056163724565721
 21
-12.59425643608915
 72
     1
 10
1.056163724565721
 20
-12.59425643608915
 11
1.193516396712269
 21
-12.51950525275714
 72
     1
 10
1.193516396712269
 20
-12.51950525275714
 11
1.324385488960274
 21
-12.43701732741033
 72
     1
 10
1.324385488960274
 20
-12.43701732741033
 11
1.44795369414723
 21
-12.34657489070941
 72
     1
 10
1.44795369414723
 20
-12.34657489070941
 11
1.563022569261932
 21
-12.24861379761444
 72
     1
 10
1.563022569261932
 20
-12.24861379761444
 11
1.668284549405257
 21
-12.1434063784227
 72
     1
 10
1.668284549405257
 20
-12.1434063784227
 11
1.763031133021357
 21
-12.03089823032479
 72
     1
 10
1.763031133021357
 20
-12.03089823032479
 11
1.845083045245389
 21
-11.9112527198663
 72
     1
 10
1.845083045245389
 20
-11.9112527198663
 11
1.914004589273787
 21
-11.7844154442534
 72
     1
 10
1.914004589273787
 20
-11.7844154442534
 11
1.998344898250323
 21
-11.59503124076986
 72
     1
 10
1.998344898250323
 20
-11.59503124076986
 11
2.0651414120765
 21
-11.41681605813352
 72
     1
 10
2.0651414120765
 20
-11.41681605813352
 11
2.113413773365025
 21
-11.24922523574958
 72
     1
 10
2.113413773365025
 20
-11.24922523574958
 11
2.143107263031254
 21
-11.09323928918855
 72
     1
 10
2.143107263031254
 20
-11.09323928918855
 11
2.152968718957411
 21
-10.94874925468292
 72
     1
 10
2.152968718957411
 20
-10.94874925468292
 11
2.143107263031254
 21
-10.81542855730589
 72
     1
 10
2.143107263031254
 20
-10.81542855730589
 11
2.130521555397309
 21
-10.7535898146927
 72
     1
 10
2.130521555397309
 20
-10.7535898146927
 11
2.112542063432358
 21
-10.69414843256328
 72
     1
 10
2.112542063432358
 20
-10.69414843256328
 11
2.089223189928589
 21
-10.63775819338139
 72
     1
 10
2.089223189928589
 20
-10.63775819338139
 11
2.060891826116233
 21
-10.58452790273452
 72
     1
 10
2.060891826116233
 20
-10.58452790273452
 11
2.026839628590921
 21
-10.53423979126757
 97
        0
 92
        5
 93
       31
 72
     1
 10
0.6445418794068161
 20
-12.10739283352848
 11
0.6961921167229548
 21
-12.06533172186158
 72
     1
 10
0.6961921167229548
 20
-12.06533172186158
 11
0.7435926099381049
 21
-12.02152703215876
 72
     1
 10
0.7435926099381049
 20
-12.02152703215876
 11
0.7849999391429208
 21
-11.9767962297264
 72
     1
 10
0.7849999391429208
 20
-11.9767962297264
 11
0.8212858143140949
 21
-11.93103019266408
 72
     1
 10
0.8212858143140949
 20
-11.93103019266408
 11
0.8519599776601012
 21
-11.88575457150409
 72
     1
 10
0.8519599776601012
 20
-11.88575457150409
 11
0.8763140857985263
 21
-11.84075128064154
 72
     1
 10
0.8763140857985263
 20
-11.84075128064154
 11
0.8940756502692864
 21
-11.79678306626033
 72
     1
 10
0.8940756502692864
 20
-11.79678306626033
 11
-0.5490801678374027
 21
-11.79678306626033
 72
     1
 10
-0.5490801678374027
 20
-11.79678306626033
 11
-0.5622650969879715
 21
-11.90166359422807
 72
     1
 10
-0.5622650969879715
 20
-11.90166359422807
 11
-0.561284423308237
 21
-12.00016966416774
 72
     1
 10
-0.561284423308237
 20
-12.00016966416774
 11
-0.5539291334550001
 21
-12.04626259246976
 72
     1
 10
-0.5539291334550001
 20
-12.04626259246976
 11
-0.5412344620739589
 21
-12.0895768662545
 72
     1
 10
-0.5412344620739589
 20
-12.0895768662545
 11
-0.5224922239124226
 21
-12.13038481580355
 72
     1
 10
-0.5224922239124226
 20
-12.13038481580355
 11
-0.4974299305212924
 21
-12.16765152279987
 72
     1
 10
-0.4974299305212924
 20
-12.16765152279987
 11
-0.4649032254111489
 21
-12.20208501435241
 72
     1
 10
-0.4649032254111489
 20
-12.20208501435241
 11
-0.4244765698750825
 21
-12.23270461675759
 72
     1
 10
-0.4244765698750825
 20
-12.23270461675759
 11
-0.3759318783002215
 21
-12.25951048816421
 72
     1
 10
-0.3759318783002215
 20
-12.25951048816421
 11
-0.3179615857655023
 21
-12.28195765172745
 72
     1
 10
-0.3179615857655023
 20
-12.28195765172745
 11
-0.2506200950851962
 21
-12.29993714369556
 72
     1
 10
-0.2506200950851962
 20
-12.29993714369556
 11
-0.1731448181813704
 21
-12.31306767005083
 72
     1
 10
-0.1731448181813704
 20
-12.31306767005083
 11
-0.08455476510386006
 21
-12.32124010889277
 72
     1
 10
-0.08455476510386006
 20
-12.32124010889277
 11
0.01514974786589107
 21
-12.32401876339435
 72
     1
 10
0.01514974786589107
 20
-12.32401876339435
 11
0.09578513144384715
 21
-12.32074985112325
 72
     1
 10
0.09578513144384715
 20
-12.32074985112325
 11
0.1744591676512926
 21
-12.31099735893952
 72
     1
 10
0.1744591676512926
 20
-12.31099735893952
 11
0.2507904043361293
 21
-12.29525154461254
 72
     1
 10
0.2507904043361293
 20
-12.29525154461254
 11
0.3245063530381884
 21
-12.27411210410941
 72
     1
 10
0.3245063530381884
 20
-12.27411210410941
 11
0.3957706966002377
 21
-12.24850483386263
 72
     1
 10
0.3957706966002377
 20
-12.24850483386263
 11
0.4637659697520746
 21
-12.21821212269703
 72
     1
 10
0.4637659697520746
 20
-12.21821212269703
 11
0.5278383900111692
 21
-12.18443241360825
 72
     1
 10
0.5278383900111692
 20
-12.18443241360825
 11
0.5880970792763236
 21
-12.14716570661187
 72
     1
 10
0.5880970792763236
 20
-12.14716570661187
 11
0.6445418794068161
 21
-12.10739283352848
 97
        0
 75
     0
 76
     0
 47
0.322189
 98
        1
 10
0.0
 20
0.0
  0
HATCH
  5
DA
330
C0
100
AcDbEntity
  8
0
 62
     1
100
AcDbHatch
 10
0.0
 20
0.0
 30
0.0
210
0.0
220
0.0
230
1.0
  2
SOLID
 70
     1
 71
     0
 91
        3
 92
        5
 93
      307
 72
     1
 10
-1.044443020465991
 20
-10.25147099886192
 11
-2.305951232959302
 21
-13.4662629172762
 72
     1
 10
-2.305951232959302
 20
-13.4662629172762
 11
-2.322950050916603
 21
-13.50724349942487
 72
     1
 10
-2.322950050916603
 20
-13.50724349942487
 11
-2.350537249796645
 21
-13.56426453890413
 72
     1
 10
-2.350537249796645
 20
-13.56426453890413
 11
-2.383496726298716
 21
-13.60894994011363
 72
     1
 10
-2.383496726298716
 20
-13.60894994011363
 11
-2.424357411631917
 21
-13.64478601410036
 72
     1
 10
-2.424357411631917
 20
-13.64478601410036
 11
-2.4727793467531
 21
-13.67116583409808
 72
     1
 10
-2.4727793467531
 20
-13.67116583409808
 11
-2.540052168824531
 21
-13.69131665026731
 72
     1
 10
-2.540052168824531
 20
-13.69131665026731
 11
-2.627940991403364
 21
-13.70425949742236
 72
     1
 10
-2.627940991403364
 20
-13.70425949742236
 11
-2.898930194805502
 21
-13.71214641745661
 72
     1
 10
-2.898930194805502
 20
-13.71214641745661
 11
-3.163545875299775
 21
-13.70425990361906
 72
     1
 10
-3.163545875299775
 20
-13.70425990361906
 11
-3.241010373774373
 21
-13.69131712962684
 72
     1
 10
-3.241010373774373
 20
-13.69131712962684
 11
-3.292064113721537
 21
-13.67116583409808
 72
     1
 10
-3.292064113721537
 20
-13.67116583409808
 11
-3.319259307359431
 21
-13.64478601410292
 72
     1
 10
-3.319259307359431
 20
-13.64478601410292
 11
-3.331289727956573
 21
-13.60894994011954
 72
     1
 10
-3.331289727956573
 20
-13.60894994011954
 11
-3.328303613347558
 21
-13.56426453891572
 72
     1
 10
-3.328303613347558
 20
-13.56426453891572
 11
-3.310025468451684
 21
-13.5072435006482
 72
     1
 10
-3.310025468451684
 20
-13.5072435006482
 11
-3.294061837705939
 21
-13.46626291727392
 72
     1
 10
-3.294061837705939
 20
-13.46626291727392
 11
-2.930494233777665
 21
-12.49989118170072
 72
     1
 10
-2.930494233777665
 20
-12.49989118170072
 11
-2.998149354787728
 21
-12.55260249012866
 72
     1
 10
-2.998149354787728
 20
-12.55260249012866
 11
-2.998303962896415
 21
-12.55272285824839
 72
     1
 10
-2.998303962896415
 20
-12.55272285824839
 11
-2.998326043563651
 21
-12.55274006165985
 72
     1
 10
-2.998326043563651
 20
-12.55274006165985
 11
-3.067138554260126
 21
-12.60057647049393
 72
     1
 10
-3.067138554260126
 20
-12.60057647049393
 11
-3.137076045047749
 21
-12.64350628062783
 72
     1
 10
-3.137076045047749
 20
-12.64350628062783
 11
-3.137235840541536
 21
-12.64360433077491
 72
     1
 10
-3.137235840541536
 20
-12.64360433077491
 11
-3.13725866609883
 21
-12.64361834180073
 72
     1
 10
-3.13725866609883
 20
-12.64361834180073
 11
-3.20754222804905
 21
-12.68175670881396
 72
     1
 10
-3.20754222804905
 20
-12.68175670881396
 11
-3.349304170441272
 21
-12.74504985789451
 72
     1
 10
-3.349304170441272
 20
-12.74504985789451
 11
-3.35018865921441
 21
-12.74544494392836
 72
     1
 10
-3.35018865921441
 20
-12.74544494392836
 11
-3.350561104204388
 21
-12.74561123174851
 72
     1
 10
-3.350561104204388
 20
-12.74561123174851
 11
-3.494833098106398
 21
-12.79290280676497
 72
     1
 10
-3.494833098106398
 20
-12.79290280676497
 11
-3.637479513354151
 21
-12.82605118867838
 72
     1
 10
-3.637479513354151
 20
-12.82605118867838
 11
-3.637805418604586
 21
-12.82612685079369
 72
     1
 10
-3.637805418604586
 20
-12.82612685079369
 11
-3.63785197422834
 21
-12.82613766943388
 72
     1
 10
-3.63785197422834
 20
-12.82613766943388
 11
-3.779944632868123
 21
-12.84705928786497
 72
     1
 10
-3.779944632868123
 20
-12.84705928786497
 11
-3.918178439653815
 21
-12.85708100147491
 72
     1
 10
-3.918178439653815
 20
-12.85708100147491
 11
-3.9182234548081
 21
-12.85708423005866
 72
     1
 10
-3.9182234548081
 20
-12.85708423005866
 11
-4.05192567271618
 21
-12.85757458049204
 72
     1
 10
-4.05192567271618
 20
-12.85757458049204
 11
-4.182031987459268
 21
-12.85076415760767
 72
     1
 10
-4.182031987459268
 20
-12.85076415760767
 11
-4.294632604590944
 21
-12.83749377646348
 72
     1
 10
-4.294632604590944
 20
-12.83749377646348
 11
-4.298220298963713
 21
-12.83707034872089
 72
     1
 10
-4.298220298963713
 20
-12.83707034872089
 11
-4.303148544277406
 21
-12.83648951188945
 72
     1
 10
-4.303148544277406
 20
-12.83648951188945
 11
-4.414458092443212
 21
-12.81540444334485
 72
     1
 10
-4.414458092443212
 20
-12.81540444334485
 11
-4.515554525209737
 21
-12.78694393398331
 72
     1
 10
-4.515554525209737
 20
-12.78694393398331
 11
-4.516185375909586
 21
-12.78676647407895
 72
     1
 10
-4.516185375909586
 20
-12.78676647407895
 11
-4.516450982394019
 21
-12.78669170131343
 72
     1
 10
-4.516450982394019
 20
-12.78669170131343
 11
-4.609672047896027
 21
-12.75138647009442
 72
     1
 10
-4.609672047896027
 20
-12.75138647009442
 11
-4.692202001707457
 21
-12.70961497336498
 72
     1
 10
-4.692202001707457
 20
-12.70961497336498
 11
-4.693217045838679
 21
-12.70910092824443
 72
     1
 10
-4.693217045838679
 20
-12.70910092824443
 11
-4.693957838923325
 21
-12.70872598255255
 72
     1
 10
-4.693957838923325
 20
-12.70872598255255
 11
-4.769035938480201
 21
-12.65876472185562
 72
     1
 10
-4.769035938480201
 20
-12.65876472185562
 11
-4.8354074423128
 21
-12.6019518981131
 72
     1
 10
-4.8354074423128
 20
-12.6019518981131
 11
-4.83582163899797
 21
-12.60159746637498
 72
     1
 10
-4.83582163899797
 20
-12.60159746637498
 11
-4.835996014195189
 21
-12.60144820461142
 72
     1
 10
-4.835996014195189
 20
-12.60144820461142
 11
-4.894129782082814
 21
-12.5367219474997
 72
     1
 10
-4.894129782082814
 20
-12.5367219474997
 11
-4.942570179218322
 21
-12.46603552514739
 72
     1
 10
-4.942570179218322
 20
-12.46603552514739
 11
-4.94316588948908
 21
-12.46516595384452
 72
     1
 10
-4.94316588948908
 20
-12.46516595384452
 11
-4.943600692411081
 21
-12.46453146720108
 72
     1
 10
-4.943600692411081
 20
-12.46453146720108
 11
-4.985498412686127
 21
-12.38493124699102
 72
     1
 10
-4.985498412686127
 20
-12.38493124699102
 11
-5.018592413563979
 21
-12.29820222787856
 72
     1
 10
-5.018592413563979
 20
-12.29820222787856
 11
-5.018667991058578
 21
-12.29800407614079
 72
     1
 10
-5.018667991058578
 20
-12.29800407614079
 11
-5.018678791963311
 21
-12.29797577032156
 72
     1
 10
-5.018678791963311
 20
-12.29797577032156
 11
-5.044068047670734
 21
-12.20333813685454
 72
     1
 10
-5.044068047670734
 20
-12.20333813685454
 11
-5.062055126632373
 21
-12.10128481203026
 72
     1
 10
-5.062055126632373
 20
-12.10128481203026
 11
-5.062096176479031
 21
-12.10105165384505
 72
     1
 10
-5.062096176479031
 20
-12.10105165384505
 11
-5.06210204692151
 21
-12.10101834662163
 72
     1
 10
-5.06210204692151
 20
-12.10101834662163
 11
-5.071854572210441
 21
-11.99139778328868
 72
     1
 10
-5.071854572210441
 20
-11.99139778328868
 11
-5.074299888805996
 21
-11.87374843996821
 72
     1
 10
-5.074299888805996
 20
-11.87374843996821
 11
-5.074305526251635
 21
-11.87347965989073
 72
     1
 10
-5.074305526251635
 20
-11.87347965989073
 11
-5.074306324348044
 21
-11.8734412625858
 72
     1
 10
-5.074306324348044
 20
-11.8734412625858
 11
-5.168508090787071
 21
-12.00027857442262
 72
     1
 10
-5.168508090787071
 20
-12.00027857442262
 11
-5.265779291987911
 21
-12.11738456770547
 72
     1
 10
-5.265779291987911
 20
-12.11738456770547
 11
-5.266001596927225
 21
-12.11765204137384
 72
     1
 10
-5.266001596927225
 20
-12.11765204137384
 11
-5.266033343428745
 21
-12.11769026132402
 72
     1
 10
-5.266033343428745
 20
-12.11769026132402
 11
-5.36769933312118
 21
-12.22616667361882
 72
     1
 10
-5.36769933312118
 20
-12.22616667361882
 11
-5.472035985617453
 21
-12.32461701221359
 72
     1
 10
-5.472035985617453
 20
-12.32461701221359
 11
-5.472687106405473
 21
-12.32523122373516
 72
     1
 10
-5.472687106405473
 20
-12.32523122373516
 11
-5.472961225918098
 21
-12.3254898779129
 72
     1
 10
-5.472961225918098
 20
-12.3254898779129
 11
-5.582799722798725
 21
-12.4169674752502
 72
     1
 10
-5.582799722798725
 20
-12.4169674752502
 11
-5.697068623603016
 21
-12.49921063432964
 72
     1
 10
-5.697068623603016
 20
-12.49921063432964
 11
-5.697105856929923
 21
-12.49923738113245
 72
     1
 10
-5.697105856929923
 20
-12.49923738113245
 11
-5.816424462112934
 21
-12.57333477988055
 72
     1
 10
-5.816424462112934
 20
-12.57333477988055
 11
-5.938485508213773
 21
-12.63756593594371
 72
     1
 10
-5.938485508213773
 20
-12.63756593594371
 11
-5.940757751782613
 21
-12.63876205085524
 72
     1
 10
-5.940757751782613
 20
-12.63876205085524
 11
-5.941041859981795
 21
-12.6389114174857
 72
     1
 10
-5.941041859981795
 20
-12.6389114174857
 11
-5.941082438750229
 21
-12.63893277099845
 72
     1
 10
-5.941082438750229
 20
-12.63893277099845
 11
-6.070752886442136
 21
-12.69701205555361
 72
     1
 10
-6.070752886442136
 20
-12.69701205555361
 11
-6.206525471608984
 21
-12.7467553861224
 72
     1
 10
-6.206525471608984
 20
-12.7467553861224
 11
-6.209476720167544
 21
-12.74763257636892
 72
     1
 10
-6.209476720167544
 20
-12.74763257636892
 11
-6.222341740729362
 21
-12.75145852042289
 72
     1
 10
-6.222341740729362
 20
-12.75145852042289
 11
-6.240003247141488
 21
-12.75670751946535
 72
     1
 10
-6.240003247141488
 20
-12.75670751946535
 11
-6.264165450572818
 21
-12.76389335669387
 72
     1
 10
-6.264165450572818
 20
-12.76389335669387
 11
-6.290542286614596
 21
-12.77173306260158
 72
     1
 10
-6.290542286614596
 20
-12.77173306260158
 11
-6.314704490040896
 21
-12.77891889982971
 72
     1
 10
-6.314704490040896
 20
-12.77891889982971
 11
-6.332365996492229
 21
-12.78416789888615
 72
     1
 10
-6.332365996492229
 20
-12.78416789888615
 11
-6.342418070460354
 21
-12.78715789892965
 72
     1
 10
-6.342418070460354
 20
-12.78715789892965
 11
-6.34523108127047
 21
-12.78799362710873
 72
     1
 10
-6.34523108127047
 20
-12.78799362710873
 11
-6.348182264427607
 21
-12.78887103656228
 72
     1
 10
-6.348182264427607
 20
-12.78887103656228
 11
-6.495941194730662
 21
-12.82308660008687
 72
     1
 10
-6.495941194730662
 20
-12.82308660008687
 11
-6.650296841166991
 21
-12.85037385512396
 72
     1
 10
-6.650296841166991
 20
-12.85037385512396
 11
-6.650347097574453
 21
-12.85038277413622
 72
     1
 10
-6.650347097574453
 20
-12.85038277413622
 11
-6.811726873224359
 21
-12.87021472498458
 72
     1
 10
-6.811726873224359
 20
-12.87021472498458
 11
-6.980352516283048
 21
-12.88263284688708
 72
     1
 10
-6.980352516283048
 20
-12.88263284688708
 11
-6.980407421974064
 21
-12.88263693591659
 72
     1
 10
-6.980407421974064
 20
-12.88263693591659
 11
-7.156606677369894
 21
-12.88863010791852
 72
     1
 10
-7.156606677369894
 20
-12.88863010791852
 11
-7.388373161848847
 21
-12.88401094583168
 72
     1
 10
-7.388373161848847
 20
-12.88401094583168
 11
-7.388902657155484
 21
-12.88400052797437
 72
     1
 10
-7.388902657155484
 20
-12.88400052797437
 11
-7.388978298959387
 21
-12.88399902045893
 72
     1
 10
-7.388978298959387
 20
-12.88399902045893
 11
-7.600428302094031
 21
-12.8635132690635
 72
     1
 10
-7.600428302094031
 20
-12.8635132690635
 11
-7.789594602065733
 21
-12.82820803691106
 72
     1
 10
-7.789594602065733
 20
-12.82820803691106
 11
-7.903718035809618
 21
-12.79423346629892
 72
     1
 10
-7.903718035809618
 20
-12.79423346629892
 11
-7.917329400129802
 21
-12.79017885053952
 72
     1
 10
-7.917329400129802
 20
-12.79017885053952
 11
-7.956858583104477
 21
-12.77841022733054
 72
     1
 10
-7.956858583104477
 20
-12.77841022733054
 11
-8.101192548212467
 21
-12.71473989510315
 72
     1
 10
-8.101192548212467
 20
-12.71473989510315
 11
-8.101239543765729
 21
-12.71471915449473
 72
     1
 10
-8.101239543765729
 20
-12.71471915449473
 11
-8.165366483641932
 21
-12.67767045516285
 72
     1
 10
-8.165366483641932
 20
-12.67767045516285
 11
-8.223348876089375
 21
-12.6373490848535
 72
     1
 10
-8.223348876089375
 20
-12.6373490848535
 11
-8.223481327831735
 21
-12.6372569459059
 72
     1
 10
-8.223481327831735
 20
-12.6372569459059
 11
-8.223500251584326
 21
-12.63724378618298
 72
     1
 10
-8.223500251584326
 20
-12.63724378618298
 11
-8.275913264438685
 21
-12.59392949794841
 72
     1
 10
-8.275913264438685
 20
-12.59392949794841
 11
-8.321526163918463
 21
-12.54815674045494
 72
     1
 10
-8.321526163918463
 20
-12.54815674045494
 11
-8.322087132093202
 21
-12.54759361677935
 72
     1
 10
-8.322087132093202
 20
-12.54759361677935
 11
-8.322496555550003
 21
-12.54718275674856
 72
     1
 10
-8.322496555550003
 20
-12.54718275674856
 11
-8.363413574980555
 21
-12.49749391294245
 72
     1
 10
-8.363413574980555
 20
-12.49749391294245
 11
-8.398030426098273
 21
-12.44478546613203
 72
     1
 10
-8.398030426098273
 20
-12.44478546613203
 11
-8.398246474919944
 21
-12.44445661130186
 72
     1
 10
-8.398246474919944
 20
-12.44445661130186
 11
-8.39833742243934
 21
-12.44431813270751
 72
     1
 10
-8.39833742243934
 20
-12.44431813270751
 11
-8.433261269876226
 21
-12.37697667330684
 72
     1
 10
-8.433261269876226
 20
-12.37697667330684
 11
-8.461181689710628
 21
-12.30855297509629
 72
     1
 10
-8.461181689710628
 20
-12.30855297509629
 11
-8.461355824146693
 21
-12.30812599588353
 72
     1
 10
-8.461355824146693
 20
-12.30812599588353
 11
-8.46142917807417
 21
-12.30794622910156
 72
     1
 10
-8.46142917807417
 20
-12.30794622910156
 11
-8.482296313144374
 21
-12.23717231669474
 72
     1
 10
-8.482296313144374
 20
-12.23717231669474
 11
-8.496675261989665
 21
-12.16500533951705
 72
     1
 10
-8.496675261989665
 20
-12.16500533951705
 11
-8.496679925833504
 21
-12.1649818363623
 72
     1
 10
-8.496679925833504
 20
-12.1649818363623
 11
-8.504797949600444
 21
-12.09191962192881
 72
     1
 10
-8.504797949600444
 20
-12.09191962192881
 11
-8.507305484936978
 21
-12.01925922811506
 72
     1
 10
-8.507305484936978
 20
-12.01925922811506
 11
-8.507336162256479
 21
-12.01836546087941
 72
     1
 10
-8.507336162256479
 20
-12.01836546087941
 11
-8.507358668574824
 21
-12.01771325649639
 72
     1
 10
-8.507358668574824
 20
-12.01771325649639
 11
-8.499295128154273
 21
-11.86755705740006
 72
     1
 10
-8.499295128154273
 20
-11.86755705740006
 11
-8.474026260429881
 21
-11.71659638907278
 72
     1
 10
-8.474026260429881
 20
-11.71659638907278
 11
-8.473968602782691
 21
-11.71625149307573
 72
     1
 10
-8.473968602782691
 20
-11.71625149307573
 11
-8.47396035578646
 21
-11.7162022239242
 72
     1
 10
-8.47396035578646
 20
-11.7162022239242
 11
-8.436094405767676
 21
-11.56539222424192
 72
     1
 10
-8.436094405767676
 20
-11.56539222424192
 11
-8.390556117524369
 21
-11.41747470270684
 72
     1
 10
-8.390556117524369
 20
-11.41747470270684
 11
-8.390452194466533
 21
-11.41713673609695
 72
     1
 10
-8.390452194466533
 20
-11.41713673609695
 11
-8.390437332137907
 21
-11.41708846013205
 72
     1
 10
-8.390437332137907
 20
-11.41708846013205
 11
-8.339985720963739
 21
-11.27205369890385
 72
     1
 10
-8.339985720963739
 20
-11.27205369890385
 11
-5.835112261952048
 21
-11.27205369230103
 72
     1
 10
-5.835112261952048
 20
-11.27205369230103
 11
-5.831926443901665
 21
-11.24716227523373
 72
     1
 10
-5.831926443901665
 20
-11.24716227523373
 11
-5.830100636764342
 21
-11.23288003949733
 72
     1
 10
-5.830100636764342
 20
-11.23288003949733
 11
-5.828271517074256
 21
-11.21859822754254
 72
     1
 10
-5.828271517074256
 20
-11.21859822754254
 11
-5.826758837179938
 21
-11.20676435815346
 72
     1
 10
-5.826758837179938
 20
-11.20676435815346
 11
-5.826206641127229
 21
-11.2024543360979
 72
     1
 10
-5.826206641127229
 20
-11.2024543360979
 11
-5.825087319782242
 21
-11.19370659648092
 72
     1
 10
-5.825087319782242
 20
-11.19370659648092
 11
-5.822907984537466
 21
-11.1224423336264
 72
     1
 10
-5.822907984537466
 20
-11.1224423336264
 11
-5.828613805613458
 21
-11.05842804625252
 72
     1
 10
-5.828613805613458
 20
-11.05842804625252
 11
-5.8286268773563
 21
-11.05828180274528
 72
     1
 10
-5.8286268773563
 20
-11.05828180274528
 11
-5.828628739581276
 21
-11.05826091035488
 72
     1
 10
-5.828628739581276
 20
-11.05826091035488
 11
-5.842031651396255
 21
-11.00034507594313
 72
     1
 10
-5.842031651396255
 20
-11.00034507594313
 11
-5.861209801624483
 21
-10.94951208112195
 72
     1
 10
-5.861209801624483
 20
-10.94951208112195
 11
-5.886862005613054
 21
-10.90425632172622
 72
     1
 10
-5.886862005613054
 20
-10.90425632172622
 11
-5.887022012997505
 21
-10.90397390614908
 72
     1
 10
-5.887022012997505
 20
-10.90397390614908
 11
-5.887089407805263
 21
-10.90385500751989
 72
     1
 10
-5.887089407805263
 20
-10.90385500751989
 11
-5.91830838530143
 21
-10.86451800614481
 72
     1
 10
-5.91830838530143
 20
-10.86451800614481
 11
-5.954158542601434
 21
-10.83080197180362
 72
     1
 10
-5.954158542601434
 20
-10.83080197180362
 11
-5.954599425145631
 21
-10.83038714728559
 72
     1
 10
-5.954599425145631
 20
-10.83038714728559
 11
-5.954921217616544
 21
-10.83008450912803
 72
     1
 10
-5.954921217616544
 20
-10.83008450912803
 11
-5.995674786912815
 21
-10.80088141673849
 72
     1
 10
-5.995674786912815
 20
-10.80088141673849
 11
-6.040174483964734
 21
-10.77706536517525
 72
     1
 10
-6.040174483964734
 20
-10.77706536517525
 11
-6.04045218088875
 21
-10.77691681627698
 72
     1
 10
-6.04045218088875
 20
-10.77691681627698
 11
-6.040569093144512
 21
-10.77685424551856
 72
     1
 10
-6.040569093144512
 20
-10.77685424551856
 11
-6.140164714336464
 21
-10.74116763077922
 72
     1
 10
-6.140164714336464
 20
-10.74116763077922
 11
-6.247957709212869
 21
-10.72123977709293
 72
     1
 10
-6.247957709212869
 20
-10.72123977709293
 11
-6.248630343477345
 21
-10.72111561810903
 72
     1
 10
-6.248630343477345
 20
-10.72111561810903
 11
-6.248913543553471
 21
-10.72106326298462
 72
     1
 10
-6.248913543553471
 20
-10.72106326298462
 11
-6.363056227551454
 21
-10.71403490680439
 72
     1
 10
-6.363056227551454
 20
-10.71403490680439
 11
-6.484183427295989
 21
-10.71827349666131
 72
     1
 10
-6.484183427295989
 20
-10.71827349666131
 11
-6.484460152279368
 21
-10.71828322717761
 72
     1
 10
-6.484460152279368
 20
-10.71828322717761
 11
-6.484499684654736
 21
-10.71828461054474
 72
     1
 10
-6.484499684654736
 20
-10.71828461054474
 11
-6.597389250877072
 21
-10.73310409025601
 72
     1
 10
-6.597389250877072
 20
-10.73310409025601
 11
-6.700746768377613
 21
-10.75744912741556
 72
     1
 10
-6.700746768377613
 20
-10.75744912741556
 11
-6.70098290938779
 21
-10.75750469964083
 72
     1
 10
-6.70098290938779
 20
-10.75750469964083
 11
-6.701016642262573
 21
-10.75751264513394
 72
     1
 10
-6.701016642262573
 20
-10.75751264513394
 11
-6.797452227318388
 21
-10.7910744080416
 72
     1
 10
-6.797452227318388
 20
-10.7910744080416
 11
-6.885371552556237
 21
-10.83298200030203
 72
     1
 10
-6.885371552556237
 20
-10.83298200030203
 11
-6.885920185360149
 21
-10.83324341018374
 72
     1
 10
-6.885920185360149
 20
-10.83324341018374
 11
-6.886151172195866
 21
-10.83335351201697
 72
     1
 10
-6.886151172195866
 20
-10.83335351201697
 11
-6.968911428503603
 21
-10.8826609721844
 72
     1
 10
-6.968911428503603
 20
-10.8826609721844
 11
-7.044355799758634
 21
-10.93844757482924
 72
     1
 10
-7.044355799758634
 20
-10.93844757482924
 11
-7.044826500617788
 21
-10.93879573915575
 72
     1
 10
-7.044826500617788
 20
-10.93879573915575
 11
-7.045024712294108
 21
-10.93894230512694
 72
     1
 10
-7.045024712294108
 20
-10.93894230512694
 11
-7.116997259117397
 21
-11.00072645960978
 72
     1
 10
-7.116997259117397
 20
-11.00072645960978
 11
-8.152835305934957
 21
-11.00072648723335
 72
     1
 10
-8.152835305934957
 20
-11.00072648723335
 11
-8.15280854310096
 21
-11.00068988906787
 72
     1
 10
-8.15280854310096
 20
-11.00068988906787
 11
-8.070619883383657
 21
-10.88838172724803
 72
     1
 10
-8.070619883383657
 20
-10.88838172724803
 11
-7.983132682775675
 21
-10.7862050595142
 72
     1
 10
-7.983132682775675
 20
-10.7862050595142
 11
-7.982586657346531
 21
-10.78556761380344
 72
     1
 10
-7.982586657346531
 20
-10.78556761380344
 11
-7.982356805581233
 21
-10.78529916964322
 72
     1
 10
-7.982356805581233
 20
-10.78529916964322
 11
-7.886956404789601
 21
-10.69109740322881
 72
     1
 10
-7.886956404789601
 20
-10.69109740322881
 11
-7.785323515867276
 21
-10.60574972855096
 72
     1
 10
-7.785323515867276
 20
-10.60574972855096
 11
-7.78529041512985
 21
-10.6057219446102
 72
     1
 10
-7.78529041512985
 20
-10.6057219446102
 11
-7.677140903135921
 21
-10.52890037679021
 72
     1
 10
-7.677140903135921
 20
-10.52890037679021
 11
-7.565216013718896
 21
-10.46168172654933
 72
     1
 10
-7.565216013718896
 20
-10.46168172654933
 11
-7.563839412703572
 21
-10.46085467720144
 72
     1
 10
-7.563839412703572
 20
-10.46085467720144
 11
-7.562834768946118
 21
-10.46025131631745
 72
     1
 10
-7.562834768946118
 20
-10.46025131631745
 11
-7.441554762003477
 21
-10.39966579620807
 72
     1
 10
-7.441554762003477
 20
-10.39966579620807
 11
-7.313634856478132
 21
-10.3466285433546
 72
     1
 10
-7.313634856478132
 20
-10.3466285433546
 11
-7.313342631533786
 21
-10.3465073258094
 72
     1
 10
-7.313342631533786
 20
-10.3465073258094
 11
-7.313300882223942
 21
-10.34649001598507
 72
     1
 10
-7.313300882223942
 20
-10.34649001598507
 11
-7.17872693019811
 21
-10.3007239756779
 72
     1
 10
-7.17872693019811
 20
-10.3007239756779
 11
-7.038747242680415
 21
-10.26248863571902
 72
     1
 10
-7.038747242680415
 20
-10.26248863571902
 11
-7.037873768491139
 21
-10.26225019534081
 72
     1
 10
-7.037873768491139
 20
-10.26225019534081
 11
-7.037506005666742
 21
-10.26214974160638
 72
     1
 10
-7.037506005666742
 20
-10.26214974160638
 11
-6.889420175073042
 21
-10.23022248012592
 72
     1
 10
-6.889420175073042
 20
-10.23022248012592
 11
-6.734084158460576
 21
-10.20505931770106
 72
     1
 10
-6.734084158460576
 20
-10.20505931770106
 11
-6.734033571376912
 21
-10.20505115791684
 72
     1
 10
-6.734033571376912
 20
-10.20505115791684
 11
-6.572054478525416
 21
-10.18565507419191
 72
     1
 10
-6.572054478525416
 20
-10.18565507419191
 11
-6.403432822747917
 21
-10.17239560631032
 72
     1
 10
-6.403432822747917
 20
-10.17239560631032
 11
-6.403047579290103
 21
-10.17236545654595
 72
     1
 10
-6.403047579290103
 20
-10.17236545654595
 11
-6.402992546109005
 21
-10.17236112908984
 72
     1
 10
-6.402992546109005
 20
-10.17236112908984
 11
-6.226411907036322
 21
-10.16440655544295
 72
     1
 10
-6.226411907036322
 20
-10.16440655544295
 11
-6.044096183924467
 21
-10.16179807575514
 72
     1
 10
-6.044096183924467
 20
-10.16179807575514
 11
-6.043679665024939
 21
-10.16179220440597
 72
     1
 10
-6.043679665024939
 20
-10.16179220440597
 11
-6.043620162503899
 21
-10.16179135310313
 72
     1
 10
-6.043620162503899
 20
-10.16179135310313
 11
-5.807380220842731
 21
-10.17039972738803
 72
     1
 10
-5.807380220842731
 20
-10.17039972738803
 11
-5.687828921348341
 21
-10.18235480860443
 72
     1
 10
-5.687828921348341
 20
-10.18235480860443
 11
-5.687555799846962
 21
-10.18238216946764
 72
     1
 10
-5.687555799846962
 20
-10.18238216946764
 11
-5.687516781800412
 21
-10.18238607127228
 72
     1
 10
-5.687516781800412
 20
-10.18238607127228
 11
-5.570595445356759
 21
-10.20080145413425
 72
     1
 10
-5.570595445356759
 20
-10.20080145413425
 11
-5.456753937819158
 21
-10.22575167218815
 72
     1
 10
-5.456753937819158
 20
-10.22575167218815
 11
-5.456043568468957
 21
-10.22590722605668
 72
     1
 10
-5.456043568468957
 20
-10.22590722605668
 11
-5.45574447740664
 21
-10.22597277637493
 72
     1
 10
-5.45574447740664
 20
-10.22597277637493
 11
-5.345252179974409
 21
-10.25926212243013
 72
     1
 10
-5.345252179974409
 20
-10.25926212243013
 11
-5.241563450735697
 21
-10.301115519066
 72
     1
 10
-5.241563450735697
 20
-10.301115519066
 11
-5.240916504614319
 21
-10.30137678301969
 72
     1
 10
-5.240916504614319
 20
-10.30137678301969
 11
-5.240644087707409
 21
-10.30148674296908
 72
     1
 10
-5.240644087707409
 20
-10.30148674296908
 11
-5.143990569153033
 21
-10.35330043868709
 72
     1
 10
-5.143990569153033
 20
-10.35330043868709
 11
-5.055848616464715
 21
-10.41573875781876
 72
     1
 10
-5.055848616464715
 20
-10.41573875781876
 11
-5.055647291481279
 21
-10.41588146580199
 72
     1
 10
-5.055647291481279
 20
-10.41588146580199
 11
-5.055618524539682
 21
-10.41590184386354
 72
     1
 10
-5.055618524539682
 20
-10.41590184386354
 11
-4.978034189426893
 21
-10.48967234223642
 72
     1
 10
-4.978034189426893
 20
-10.48967234223642
 11
-4.943687373524881
 21
-10.53082384015653
 72
     1
 10
-4.943687373524881
 20
-10.53082384015653
 11
-4.943472996980418
 21
-10.53108056340727
 72
     1
 10
-4.943472996980418
 20
-10.53108056340727
 11
-4.943382758879892
 21
-10.53118867886701
 72
     1
 10
-4.943382758879892
 20
-10.53118867886701
 11
-4.912054814638907
 21
-10.57586505164153
 72
     1
 10
-4.912054814638907
 20
-10.57586505164153
 11
-4.860642360336698
 21
-10.67415320711456
 72
     1
 10
-4.860642360336698
 20
-10.67415320711456
 11
-4.860321708900216
 21
-10.67476657718902
 72
     1
 10
-4.860321708900216
 20
-10.67476657718902
 11
-4.860186635517081
 21
-10.67502480571523
 72
     1
 10
-4.860186635517081
 20
-10.67502480571523
 11
-4.82210275197447
 21
-10.78845920577385
 72
     1
 10
-4.82210275197447
 20
-10.78845920577385
 11
-4.801796910559318
 21
-10.91531580906269
 72
     1
 10
-4.801796910559318
 20
-10.91531580906269
 11
-4.80167034884937
 21
-10.91610738356712
 72
     1
 10
-4.80167034884937
 20
-10.91610738356712
 11
-4.801617000538528
 21
-10.91644066862682
 72
     1
 10
-4.801617000538528
 20
-10.91644066862682
 11
-4.797966614024674
 21
-11.06038576223375
 72
     1
 10
-4.797966614024674
 20
-11.06038576223375
 11
-4.814105918545948
 21
-11.22009543575854
 72
     1
 10
-4.814105918545948
 20
-11.22009543575854
 11
-4.814142910814553
 21
-11.22046029554463
 72
     1
 10
-4.814142910814553
 20
-11.22046029554463
 11
-4.814148178250832
 21
-11.2205124201077
 72
     1
 10
-4.814148178250832
 20
-11.2205124201077
 11
-4.752472990532681
 21
-11.11105530691316
 72
     1
 10
-4.752472990532681
 20
-11.11105530691316
 11
-4.681776558464918
 21
-11.00495624447086
 72
     1
 10
-4.681776558464918
 20
-11.00495624447086
 11
-4.681753561496777
 21
-11.00492167998772
 72
     1
 10
-4.681753561496777
 20
-11.00492167998772
 11
-4.600573323188257
 21
-10.90156670555149
 72
     1
 10
-4.600573323188257
 20
-10.90156670555149
 11
-4.511736020938898
 21
-10.80344036045898
 72
     1
 10
-4.511736020938898
 20
-10.80344036045898
 11
-4.511181559729749
 21
-10.80282820441153
 72
     1
 10
-4.511181559729749
 20
-10.80282820441153
 11
-4.510948160869447
 21
-10.80257040153668
 72
     1
 10
-4.510948160869447
 20
-10.80257040153668
 11
-4.413368424819311
 21
-10.70853208524585
 72
     1
 10
-4.413368424819311
 20
-10.70853208524585
 11
-4.308326258968961
 21
-10.61990116319686
 72
     1
 10
-4.308326258968961
 20
-10.61990116319686
 11
-4.308086331271284
 21
-10.6196986168045
 72
     1
 10
-4.308086331271284
 20
-10.6196986168045
 11
-4.30805204859675
 21
-10.61966969024365
 72
     1
 10
-4.30805204859675
 20
-10.61966969024365
 11
-4.196306633392823
 21
-10.53674598377125
 72
     1
 10
-4.196306633392823
 20
-10.53674598377125
 11
-4.078225098496105
 21
-10.46027623941626
 72
     1
 10
-4.078225098496105
 20
-10.46027623941626
 11
-4.078186662551218
 21
-10.46025131631745
 72
     1
 10
-4.078186662551218
 20
-10.46025131631745
 11
-3.954836287103433
 21
-10.39089397180163
 72
     1
 10
-3.954836287103433
 20
-10.39089397180163
 11
-3.826406281347715
 21
-10.32940228413247
 72
     1
 10
-3.826406281347715
 20
-10.32940228413247
 11
-3.826364473806763
 21
-10.32938223423605
 72
     1
 10
-3.826364473806763
 20
-10.32938223423605
 11
-3.693588473383187
 21
-10.27609748722864
 72
     1
 10
-3.693588473383187
 20
-10.27609748722864
 11
-3.556988621993924
 21
-10.23187141810854
 72
     1
 10
-3.556988621993924
 20
-10.23187141810854
 11
-3.556944152865796
 21
-10.23185698155942
 72
     1
 10
-3.556944152865796
 20
-10.23185698155942
 11
-3.418066013718004
 21
-10.19715106767569
 72
     1
 10
-3.418066013718004
 20
-10.19715106767569
 11
-3.277654277978513
 21
-10.17284888495129
 72
     1
 10
-3.277654277978513
 20
-10.17284888495129
 11
-3.276778120027117
 21
-10.17269739372023
 72
     1
 10
-3.276778120027117
 20
-10.17269739372023
 11
-3.276409222132116
 21
-10.17263354600777
 72
     1
 10
-3.276409222132116
 20
-10.17263354600777
 11
-3.133390346018871
 21
-10.15884925046839
 72
     1
 10
-3.133390346018871
 20
-10.15884925046839
 11
-2.990710391801542
 21
-10.15604116876898
 72
     1
 10
-2.990710391801542
 20
-10.15604116876898
 11
-2.989820109419497
 21
-10.1560234926344
 72
     1
 10
-2.989820109419497
 20
-10.1560234926344
 11
-2.989445252404948
 21
-10.15601611467639
 72
     1
 10
-2.989445252404948
 20
-10.15601611467639
 11
-2.837055234681145
 21
-10.16353482137902
 72
     1
 10
-2.837055234681145
 20
-10.16353482137902
 11
-2.699991727632991
 21
-10.17973595591155
 72
     1
 10
-2.699991727632991
 20
-10.17973595591155
 11
-2.699136513834631
 21
-10.1798372705926
 72
     1
 10
-2.699136513834631
 20
-10.1798372705926
 11
-2.698776412735867
 21
-10.17987983573454
 72
     1
 10
-2.698776412735867
 20
-10.17987983573454
 11
-2.573192218646682
 21
-10.20739394331349
 72
     1
 10
-2.573192218646682
 20
-10.20739394331349
 11
-2.461574795649725
 21
-10.24744366330759
 72
     1
 10
-2.461574795649725
 20
-10.24744366330759
 11
-2.461319781964463
 21
-10.2475351243495
 72
     1
 10
-2.461319781964463
 20
-10.2475351243495
 11
-2.461283353297375
 21
-10.2475481953951
 72
     1
 10
-2.461283353297375
 20
-10.2475481953951
 11
-2.361742215512322
 21
-10.30284882752682
 72
     1
 10
-2.361742215512322
 20
-10.30284882752682
 11
-2.317458474338849
 21
-10.33595355779607
 72
     1
 10
-2.317458474338849
 20
-10.33595355779607
 11
-2.317182187500464
 21
-10.33616016551434
 72
     1
 10
-2.317182187500464
 20
-10.33616016551434
 11
-2.31706584277984
 21
-10.33624714028719
 72
     1
 10
-2.31706584277984
 20
-10.33624714028719
 11
-2.275386055981386
 21
-10.3744944739878
 72
     1
 10
-2.275386055981386
 20
-10.3744944739878
 11
-2.237882307649741
 21
-10.41653304495151
 72
     1
 10
-2.237882307649741
 20
-10.41653304495151
 11
-2.237420875972219
 21
-10.41705003856913
 72
     1
 10
-2.237420875972219
 20
-10.41705003856913
 11
-2.237084238908267
 21
-10.41742737855032
 72
     1
 10
-2.237084238908267
 20
-10.41742737855032
 11
-2.201670040999602
 21
-10.46471895358377
 72
     1
 10
-2.201670040999602
 20
-10.46471895358377
 11
-2.169771603018532
 21
-10.51732153602916
 72
     1
 10
-2.169771603018532
 20
-10.51732153602916
 11
-2.169698706861539
 21
-10.5174416988242
 72
     1
 10
-2.169698706861539
 20
-10.5174416988242
 11
-2.169688296137309
 21
-10.51745886676468
 72
     1
 10
-2.169688296137309
 20
-10.51745886676468
 11
-2.140975554166118
 21
-10.57532021779866
 72
     1
 10
-2.140975554166118
 20
-10.57532021779866
 11
-2.006554302508818
 21
-10.25157643411416
 72
     1
 10
-2.006554302508818
 20
-10.25157643411416
 11
-2.006510568891912
 21
-10.25147099886192
 72
     1
 10
-2.006510568891912
 20
-10.25147099886192
 11
-1.044443020465991
 21
-10.25147099886192
 97
        0
 92
        5
 93
       59
 72
     1
 10
-2.787747850269597
 20
-10.8853306168765
 11
-2.725364288953941
 21
-10.90298321762066
 72
     1
 10
-2.725364288953941
 20
-10.90298321762066
 11
-2.668156742615835
 21
-10.92575727240785
 72
     1
 10
-2.668156742615835
 20
-10.92575727240785
 11
-2.617977594900708
 21
-10.95392526968408
 72
     1
 10
-2.617977594900708
 20
-10.95392526968408
 11
-2.574663321117555
 21
-10.98743249032697
 72
     1
 10
-2.574663321117555
 20
-10.98743249032697
 11
-2.538322885002486
 21
-11.02567987101094
 72
     1
 10
-2.538322885002486
 20
-11.02567987101094
 11
-2.509501105279924
 21
-11.07002937942559
 72
     1
 10
-2.509501105279924
 20
-11.07002937942559
 11
-2.487544357630043
 21
-11.11846510725337
 72
     1
 10
-2.487544357630043
 20
-11.11846510725337
 11
-2.474413831282675
 21
-11.1727850353397
 72
     1
 10
-2.474413831282675
 20
-11.1727850353397
 11
-2.46891108320456
 21
-11.2318449653028
 72
     1
 10
-2.46891108320456
 20
-11.2318449653028
 11
-2.472071031738011
 21
-11.29668013175689
 72
     1
 10
-2.472071031738011
 20
-11.29668013175689
 11
-2.484002956922467
 21
-11.36663691041838
 72
     1
 10
-2.484002956922467
 20
-11.36663691041838
 11
-2.50546944680282
 21
-11.44215083993436
 72
     1
 10
-2.50546944680282
 20
-11.44215083993436
 11
-2.536143452008105
 21
-11.52251373509472
 72
     1
 10
-2.536143452008105
 20
-11.52251373509472
 11
-2.573464561791923
 21
-11.6028767883879
 72
     1
 10
-2.573464561791923
 20
-11.6028767883879
 11
-2.615798161895299
 21
-11.678445278862
 72
     1
 10
-2.615798161895299
 20
-11.678445278862
 11
-2.66194565114435
 21
-11.74932817025302
 72
     1
 10
-2.66194565114435
 20
-11.74932817025302
 11
-2.712397287286535
 21
-11.81438126419499
 72
     1
 10
-2.712397287286535
 20
-11.81438126419499
 11
-2.766008871962185
 21
-11.87485788095432
 72
     1
 10
-2.766008871962185
 20
-11.87485788095432
 11
-2.823325382036359
 21
-11.93015848272825
 72
     1
 10
-2.823325382036359
 20
-11.93015848272825
 11
-2.884128890014935
 21
-11.98006530014601
 72
     1
 10
-2.884128890014935
 20
-11.98006530014601
 11
-2.94754752782454
 21
-12.02457817510623
 72
     1
 10
-2.94754752782454
 20
-12.02457817510623
 11
-3.013363526122674
 21
-12.06424208443787
 72
     1
 10
-3.013363526122674
 20
-12.06424208443787
 11
-3.081685690493771
 21
-12.09785826883257
 72
     1
 10
-3.081685690493771
 20
-12.09785826883257
 11
-3.15180567754436
 21
-12.12597170516648
 72
     1
 10
-3.15180567754436
 20
-12.12597170516648
 11
-3.22410509758933
 21
-12.14841886872972
 72
     1
 10
-3.22410509758933
 20
-12.14841886872972
 11
-3.297439752268986
 21
-12.16498183203441
 72
     1
 10
-3.297439752268986
 20
-12.16498183203441
 11
-3.372572387768869
 21
-12.17582396164187
 72
     1
 10
-3.372572387768869
 20
-12.17582396164187
 11
-3.447922950751902
 21
-12.18056412166726
 72
     1
 10
-3.447922950751902
 20
-12.18056412166726
 11
-3.524799006139119
 21
-12.17931095956516
 72
     1
 10
-3.524799006139119
 20
-12.17931095956516
 11
-3.638832646641205
 21
-12.16645292164014
 72
     1
 10
-3.638832646641205
 20
-12.16645292164014
 11
-3.745511155430734
 21
-12.13910223150594
 72
     1
 10
-3.745511155430734
 20
-12.13910223150594
 11
-3.839767323125585
 21
-12.09660526486329
 72
     1
 10
-3.839767323125585
 20
-12.09660526486329
 11
-3.880629991768714
 21
-12.06936353848096
 72
     1
 10
-3.880629991768714
 20
-12.06936353848096
 11
-3.917460685653296
 21
-12.03754517676737
 72
     1
 10
-3.917460685653296
 20
-12.03754517676737
 11
-3.949224486426147
 21
-12.00158619283116
 72
     1
 10
-3.949224486426147
 20
-12.00158619283116
 11
-3.975104086957742
 21
-11.96099601260568
 72
     1
 10
-3.975104086957742
 20
-11.96099601260568
 11
-3.995263011928088
 21
-11.91577479425519
 72
     1
 10
-3.995263011928088
 20
-11.91577479425519
 11
-4.008121049848413
 21
-11.86548668280398
 72
     1
 10
-4.008121049848413
 20
-11.86548668280398
 11
-4.01438654412307
 21
-11.81078530255138
 72
     1
 10
-4.01438654412307
 20
-11.81078530255138
 11
-4.012261830213305
 21
-11.75041780767668
 72
     1
 10
-4.012261830213305
 20
-11.75041780767668
 11
-4.00234581334324
 21
-11.68525559185008
 72
     1
 10
-4.00234581334324
 20
-11.68525559185008
 11
-3.983712538917786
 21
-11.61437285859188
 72
     1
 10
-3.983712538917786
 20
-11.61437285859188
 11
-3.924434523332394
 21
-11.45675229774673
 72
     1
 10
-3.924434523332394
 20
-11.45675229774673
 11
-3.889456213071213
 21
-11.38336324026864
 72
     1
 10
-3.889456213071213
 20
-11.38336324026864
 11
-3.850718574630292
 21
-11.31297076479569
 72
     1
 10
-3.850718574630292
 20
-11.31297076479569
 11
-3.80718637336399
 21
-11.24699139995983
 72
     1
 10
-3.80718637336399
 20
-11.24699139995983
 11
-3.760112613238405
 21
-11.184880327065
 72
     1
 10
-3.760112613238405
 20
-11.184880327065
 11
-3.707972118152739
 21
-11.12756381698921
 72
     1
 10
-3.707972118152739
 20
-11.12756381698921
 11
-3.651745245494396
 21
-11.07482378409611
 72
     1
 10
-3.651745245494396
 20
-11.07482378409611
 11
-3.590015624779952
 21
-11.02758681557668
 72
     1
 10
-3.590015624779952
 20
-11.02758681557668
 11
-3.523327916549135
 21
-10.9853621792314
 72
     1
 10
-3.523327916549135
 20
-10.9853621792314
 11
-3.452063572976087
 21
-10.94902174311318
 72
     1
 10
-3.452063572976087
 20
-10.94902174311318
 11
-3.374751662633543
 21
-10.91845654350163
 72
     1
 10
-3.374751662633543
 20
-10.91845654350163
 11
-3.291664515763827
 21
-10.89437492380284
 72
     1
 10
-3.291664515763827
 20
-10.89437492380284
 11
-3.203946330770719
 21
-10.87661335932268
 72
     1
 10
-3.203946330770719
 20
-10.87661335932268
 11
-3.109254149957792
 21
-10.86615252373292
 72
     1
 10
-3.109254149957792
 20
-10.86615252373292
 11
-3.009059221066792
 21
-10.86179381588954
 72
     1
 10
-3.009059221066792
 20
-10.86179381588954
 11
-2.855906489949661
 21
-10.87247257895149
 72
     1
 10
-2.855906489949661
 20
-10.87247257895149
 11
-2.787747850269597
 21
-10.8853306168765
 97
        0
 92
        5
 93
       30
 72
     1
 10
-7.059299414891243
 20
-12.33349892529651
 11
-6.901406523751916
 21
-12.33121068669732
 72
     1
 10
-6.901406523751916
 20
-12.33121068669732
 11
-6.751686229595265
 21
-12.31116072548502
 72
     1
 10
-6.751686229595265
 20
-12.31116072548502
 11
-6.6106287902129
 21
-12.27269541731323
 72
     1
 10
-6.6106287902129
 20
-12.27269541731323
 11
-6.543178335785484
 21
-12.24687037772708
 72
     1
 10
-6.543178335785484
 20
-12.24687037772708
 11
-6.478615499605169
 21
-12.21597828689158
 72
     1
 10
-6.478615499605169
 20
-12.21597828689158
 11
-6.415414789278728
 21
-12.18089101289121
 72
     1
 10
-6.415414789278728
 20
-12.18089101289121
 11
-6.354883769727209
 21
-12.14095461512937
 72
     1
 10
-6.354883769727209
 20
-12.14095461512937
 11
-6.297076843731773
 21
-12.09627821549077
 72
     1
 10
-6.297076843731773
 20
-12.09627821549077
 11
-6.241776241972019
 21
-12.04686181397534
 72
     1
 10
-6.241776241972019
 20
-12.04686181397534
 11
-6.188872842549074
 21
-11.99308670461664
 72
     1
 10
-6.188872842549074
 20
-11.99308670461664
 11
-6.138966025120311
 21
-11.93419029934762
 72
     1
 10
-6.138966025120311
 20
-11.93419029934762
 11
-6.091347604421969
 21
-11.87060813684707
 72
     1
 10
-6.091347604421969
 20
-11.87060813684707
 11
-6.046126386071521
 21
-11.8023949362215
 72
     1
 10
-6.046126386071521
 20
-11.8023949362215
 11
-7.501377495912962
 21
-11.8023949362215
 72
     1
 10
-7.501377495912962
 20
-11.8023949362215
 11
-7.516741858057927
 21
-11.85012232065907
 72
     1
 10
-7.516741858057927
 20
-11.85012232065907
 11
-7.525241188130167
 21
-11.89730504451757
 72
     1
 10
-7.525241188130167
 20
-11.89730504451757
 11
-7.527202693641371
 21
-11.94416071900361
 72
     1
 10
-7.527202693641371
 20
-11.94416071900361
 11
-7.523552329186714
 21
-11.99019908636325
 72
     1
 10
-7.523552329186714
 20
-11.99019908636325
 11
-7.514017606350123
 21
-12.03471211945634
 72
     1
 10
-7.514017606350123
 20
-12.03471211945634
 11
-7.498707805149081
 21
-12.07791742950496
 72
     1
 10
-7.498707805149081
 20
-12.07791742950496
 11
-7.477731731178949
 21
-12.11861641531795
 72
     1
 10
-7.477731731178949
 20
-12.11861641531795
 11
-7.450598968540518
 21
-12.1570273206803
 72
     1
 10
-7.450598968540518
 20
-12.1570273206803
 11
-7.419271022734023
 21
-12.19304070742601
 72
     1
 10
-7.419271022734023
 20
-12.19304070742601
 11
-7.381949912939191
 21
-12.22534948505768
 72
     1
 10
-7.381949912939191
 20
-12.22534948505768
 11
-7.339888801273887
 21
-12.25438903412112
 72
     1
 10
-7.339888801273887
 20
-12.25438903412112
 11
-7.293033126772144
 21
-12.27934252190431
 72
     1
 10
-7.293033126772144
 20
-12.27934252190431
 11
-7.241600816950182
 21
-12.30037299867132
 72
     1
 10
-7.241600816950182
 20
-12.30037299867132
 11
-7.185101455875795
 21
-12.3164457042065
 72
     1
 10
-7.185101455875795
 20
-12.3164457042065
 11
-7.124189142290831
 21
-12.32772368878977
 72
     1
 10
-7.124189142290831
 20
-12.32772368878977
 11
-7.059299414891243
 21
-12.33349892529651
 97
        0
 75
     0
 76
     0
 47
0.322189
 98
        1
 10
0.0
 20
0.0
  0
HATCH
  5
DB
330
C0
100
AcDbEntity
  8
0
 62
     1
100
AcDbHatch
 10
0.0
 20
0.0
 30
0.0
210
0.0
220
0.0
230
1.0
  2
SOLID
 70
     1
 71
     0
 91
        2
 92
        5
 93
      266
 72
     1
 10
-8.817463105242965
 20
-12.05966546015452
 11
-8.813219447924638
 21
-12.00286664470843
 72
     1
 10
-8.813219447924638
 20
-12.00286664470843
 11
-8.833305418730191
 21
-11.95376808805332
 72
     1
 10
-8.833305418730191
 20
-11.95376808805332
 11
-8.877585998464753
 21
-11.91274901800267
 72
     1
 10
-8.877585998464753
 20
-11.91274901800267
 11
-8.945493303842341
 21
-11.88034874259193
 72
     1
 10
-8.945493303842341
 20
-11.88034874259193
 11
-9.038819511547928
 21
-11.85660934177861
 72
     1
 10
-9.038819511547928
 20
-11.85660934177861
 11
-9.152669914252272
 21
-11.84343266756071
 72
     1
 10
-9.152669914252272
 20
-11.84343266756071
 11
-9.41014240847521
 21
-11.85134371115538
 72
     1
 10
-9.41014240847521
 20
-11.85134371115538
 11
-9.527144289697134
 21
-11.873211188504
 72
     1
 10
-9.527144289697134
 20
-11.873211188504
 11
-9.622633864450989
 21
-11.90680251506501
 72
     1
 10
-9.622633864450989
 20
-11.90680251506501
 11
-9.696123544679438
 21
-11.95151661864657
 72
     1
 10
-9.696123544679438
 20
-11.95151661864657
 11
-9.754631748387197
 21
-12.011692842853
 72
     1
 10
-9.754631748387197
 20
-12.011692842853
 11
-9.767048283989638
 21
-12.02710839418819
 72
     1
 10
-9.767048283989638
 20
-12.02710839418819
 11
-9.776907505878427
 21
-12.039342733247
 72
     1
 10
-9.776907505878427
 20
-12.039342733247
 11
-9.784578879483505
 21
-12.04885396736671
 72
     1
 10
-9.784578879483505
 20
-12.04885396736671
 11
-9.790431870234784
 21
-12.05610020388463
 72
     1
 10
-9.790431870234784
 20
-12.05610020388463
 11
-9.794835943562234
 21
-12.06153955013798
 72
     1
 10
-9.794835943562234
 20
-12.06153955013798
 11
-9.798160564895767
 21
-12.06563011346407
 72
     1
 10
-9.798160564895767
 20
-12.06563011346407
 11
-9.800775199665353
 21
-12.06883000120024
 72
     1
 10
-9.800775199665353
 20
-12.06883000120024
 11
-9.803049313300889
 21
-12.07159732068362
 72
     1
 10
-9.803049313300889
 20
-12.07159732068362
 11
-9.805284089654975
 21
-12.07430598894331
 72
     1
 10
-9.805284089654975
 20
-12.07430598894331
 11
-9.807507586246146
 21
-12.07699316180731
 72
     1
 10
-9.807507586246146
 20
-12.07699316180731
 11
-9.80967957901548
 21
-12.07961180479396
 72
     1
 10
-9.80967957901548
 20
-12.07961180479396
 11
-9.81175984390417
 21
-12.08211488342153
 72
     1
 10
-9.81175984390417
 20
-12.08211488342153
 11
-9.813708156853323
 21
-12.08445536320824
 72
     1
 10
-9.813708156853323
 20
-12.08445536320824
 11
-9.815484293804104
 21
-12.08658620967253
 72
     1
 10
-9.815484293804104
 20
-12.08658620967253
 11
-9.817048030697677
 21
-12.08846038833258
 72
     1
 10
-9.817048030697677
 20
-12.08846038833258
 11
-9.820164911718265
 21
-12.09219384901417
 72
     1
 10
-9.820164911718265
 20
-12.09219384901417
 11
-9.82072023188563
 21
-12.09285867989576
 72
     1
 10
-9.82072023188563
 20
-12.09285867989576
 11
-9.821476756337574
 21
-12.09376474987886
 72
     1
 10
-9.821476756337574
 20
-12.09376474987886
 11
-9.821494012955469
 21
-12.09378294647695
 72
     1
 10
-9.821494012955469
 20
-12.09378294647695
 11
-9.855752904242848
 21
-12.12722485306227
 72
     1
 10
-9.855752904242848
 20
-12.12722485306227
 11
-9.895338191595727
 21
-12.15849350813397
 72
     1
 10
-9.895338191595727
 20
-12.15849350813397
 11
-9.895585221950313
 21
-12.1586885801654
 72
     1
 10
-9.895585221950313
 20
-12.1586885801654
 11
-9.895689222779751
 21
-12.15877073088893
 72
     1
 10
-9.895689222779751
 20
-12.15877073088893
 11
-9.94047456229525
 21
-12.18791933988484
 72
     1
 10
-9.94047456229525
 20
-12.18791933988484
 11
-10.0407068926157
 21
-12.238899738643
 72
     1
 10
-10.0407068926157
 20
-12.238899738643
 11
-10.04133238178198
 21
-12.23921771363274
 72
     1
 10
-10.04133238178198
 20
-12.23921771363274
 11
-10.04159571812539
 21
-12.2393516519453
 72
     1
 10
-10.04159571812539
 20
-12.2393516519453
 11
-10.15165214851604
 21
-12.2808135051896
 72
     1
 10
-10.15165214851604
 20
-12.2808135051896
 11
-10.26597554237341
 21
-12.31049727026056
 72
     1
 10
-10.26597554237341
 20
-12.31049727026056
 11
-10.26601276603466
 21
-12.31050694804173
 72
     1
 10
-10.26601276603466
 20
-12.31050694804173
 11
-10.37645058010104
 21
-12.32837749705664
 72
     1
 10
-10.37645058010104
 20
-12.32837749705664
 11
-10.47631860760222
 21
-12.33339244889226
 72
     1
 10
-10.47631860760222
 20
-12.33339244889226
 11
-10.47754704815324
 21
-12.33345392233787
 72
     1
 10
-10.47754704815324
 20
-12.33345392233787
 11
-10.47844347003755
 21
-12.33349893497518
 72
     1
 10
-10.47844347003755
 20
-12.33349893497518
 11
-10.59274960417957
 21
-12.32674299571767
 72
     1
 10
-10.59274960417957
 20
-12.32674299571767
 11
-10.70108266285557
 21
-12.31113558047446
 72
     1
 10
-10.70108266285557
 20
-12.31113558047446
 11
-10.70175864831805
 21
-12.3110383028793
 72
     1
 10
-10.70175864831805
 20
-12.3110383028793
 11
-10.70204326723243
 21
-12.31099729845937
 72
     1
 10
-10.70204326723243
 20
-12.31099729845937
 11
-10.80152992163939
 21
-12.28577149294029
 72
     1
 10
-10.80152992163939
 20
-12.28577149294029
 11
-10.88539888734638
 21
-12.25110044520153
 72
     1
 10
-10.88539888734638
 20
-12.25110044520153
 11
-10.88592226736992
 21
-12.25088425144435
 72
     1
 10
-10.88592226736992
 20
-12.25088425144435
 11
-10.88614261292015
 21
-12.25079316204102
 72
     1
 10
-10.88614261292015
 20
-12.25079316204102
 11
-10.92139336066099
 21
-12.22998051034369
 72
     1
 10
-10.92139336066099
 20
-12.22998051034369
 11
-10.95077184946329
 21
-12.2061105453862
 72
     1
 10
-10.95077184946329
 20
-12.2061105453862
 11
-10.95095513535821
 21
-12.20596156842481
 72
     1
 10
-10.95095513535821
 20
-12.20596156842481
 11
-10.95103232014867
 21
-12.20589885578278
 72
     1
 10
-10.95103232014867
 20
-12.20589885578278
 11
-10.97478707441684
 21
-12.1793109656594
 72
     1
 10
-10.97478707441684
 20
-12.1793109656594
 11
-10.99136650949853
 21
-12.15068859503481
 72
     1
 10
-10.99136650949853
 20
-12.15068859503481
 11
-10.99146991418481
 21
-12.15050997195459
 72
     1
 10
-10.99146991418481
 20
-12.15050997195459
 11
-10.99151347251308
 21
-12.15043477353777
 72
     1
 10
-10.99151347251308
 20
-12.15043477353777
 11
-11.0012659977882
 21
-12.11861647880483
 72
     1
 10
-11.0012659977882
 20
-12.11861647880483
 11
-11.00246423346931
 21
-12.08419419029826
 72
     1
 10
-11.00246423346931
 20
-12.08419419029826
 11
-11.00246463217388
 21
-12.0841829817748
 72
     1
 10
-11.00246463217388
 20
-12.0841829817748
 11
-10.99527282585504
 21
-12.04686186552783
 72
     1
 10
-10.99527282585504
 20
-12.04686186552783
 11
-10.97885538665511
 21
-12.00684453983928
 72
     1
 10
-10.97885538665511
 20
-12.00684453983928
 11
-10.97875301056905
 21
-12.00659481581619
 72
     1
 10
-10.97875301056905
 20
-12.00659481581619
 11
-10.97870987789233
 21
-12.00648967991606
 72
     1
 10
-10.97870987789233
 20
-12.00648967991606
 11
-10.95223095445304
 21
-11.96791544596232
 72
     1
 10
-10.95223095445304
 20
-11.96791544596232
 11
-10.91799004156417
 21
-11.93701719937837
 72
     1
 10
-10.91799004156417
 20
-11.93701719937837
 11
-10.91689883642323
 21
-11.93603291328128
 72
     1
 10
-10.91689883642323
 20
-11.93603291328128
 11
-10.9154001887263
 21
-11.93468058325755
 72
     1
 10
-10.9154001887263
 20
-11.93468058325755
 11
-10.86898034776421
 21
-11.9064581917375
 72
     1
 10
-10.86898034776421
 20
-11.9064581917375
 11
-10.81653900861841
 21
-11.88330491041393
 72
     1
 10
-10.81653900861841
 20
-11.88330491041393
 11
-10.81589390115286
 21
-11.88302022849473
 72
     1
 10
-10.81589390115286
 20
-11.88302022849473
 11
-10.81542318389236
 21
-11.88281240419042
 72
     1
 10
-10.81542318389236
 20
-11.88281240419042
 11
-10.75445628012164
 21
-11.86330735367483
 72
     1
 10
-10.75445628012164
 20
-11.86330735367483
 11
-10.68718151603432
 21
-11.84738525300139
 72
     1
 10
-10.68718151603432
 20
-11.84738525300139
 11
-10.68702781049659
 21
-11.84734891940218
 72
     1
 10
-10.68702781049659
 20
-11.84734891940218
 11
-10.68700585397768
 21
-11.84734372290779
 72
     1
 10
-10.68700585397768
 20
-11.84734372290779
 11
-10.54006417438725
 21
-11.82533243682025
 72
     1
 10
-10.54006417438725
 20
-11.82533243682025
 11
-10.38282185342052
 21
-11.81291428523292
 72
     1
 10
-10.38282185342052
 20
-11.81291428523292
 11
-10.38277065233973
 21
-11.81291022587857
 72
     1
 10
-10.38277065233973
 20
-11.81291022587857
 11
-10.22291641136422
 21
-11.80593635300767
 72
     1
 10
-10.22291641136422
 20
-11.80593635300767
 11
-9.935015152703528
 21
-11.79680712338012
 72
     1
 10
-9.935015152703528
 20
-11.79680712338012
 11
-9.934357419357241
 21
-11.79678612454046
 72
     1
 10
-9.934357419357241
 20
-11.79678612454046
 11
-9.934263456806932
 21
-11.79678314498051
 72
     1
 10
-9.934263456806932
 20
-11.79678314498051
 11
-9.612484606359601
 21
-11.77319184087179
 72
     1
 10
-9.612484606359601
 20
-11.77319184087179
 11
-9.416735080502534
 21
-11.75080641201816
 72
     1
 10
-9.416735080502534
 20
-11.75080641201816
 11
-9.416671333675112
 21
-11.75079917109787
 72
     1
 10
-9.416671333675112
 20
-11.75079917109787
 11
-9.212140719970975
 21
-11.71936226005727
 72
     1
 10
-9.212140719970975
 20
-11.71936226005727
 11
-9.010726772828619
 21
-11.67600755284315
 72
     1
 10
-9.010726772828619
 20
-11.67600755284315
 11
-9.01066117562057
 21
-11.67599348846824
 72
     1
 10
-9.01066117562057
 20
-11.67599348846824
 11
-8.913844206924878
 21
-11.64951456506606
 72
     1
 10
-8.913844206924878
 20
-11.64951456506606
 11
-8.822738528017112
 21
-11.61965020901323
 72
     1
 10
-8.822738528017112
 20
-11.61965020901323
 11
-8.82217010049115
 21
-11.61946371695649
 72
     1
 10
-8.82217010049115
 20
-11.61946371695649
 11
-8.821930742510943
 21
-11.61938525521208
 72
     1
 10
-8.821930742510943
 20
-11.61938525521208
 11
-8.737045634327302
 21
-11.58544210858241
 72
     1
 10
-8.737045634327302
 20
-11.58544210858241
 11
-8.659011217589494
 21
-11.54713140621669
 72
     1
 10
-8.659011217589494
 20
-11.54713140621669
 11
-8.658832966808006
 21
-11.54704382824389
 72
     1
 10
-8.658832966808006
 20
-11.54704382824389
 11
-8.658807498664885
 21
-11.5470313247335
 72
     1
 10
-8.658807498664885
 20
-11.5470313247335
 11
-8.589886021196719
 21
-11.50453428727474
 72
     1
 10
-8.589886021196719
 20
-11.50453428727474
 11
-8.532317242707862
 21
-11.45765830729135
 72
     1
 10
-8.532317242707862
 20
-11.45765830729135
 11
-8.531957984795582
 21
-11.4573658673603
 72
     1
 10
-8.531957984795582
 20
-11.4573658673603
 11
-8.531806736658808
 21
-11.45724271221695
 72
     1
 10
-8.531806736658808
 20
-11.45724271221695
 11
-8.440982939881366
 21
-11.36581959827748
 72
     1
 10
-8.440982939881366
 20
-11.36581959827748
 11
-8.349091538400757
 21
-11.25827771397081
 72
     1
 10
-8.349091538400757
 20
-11.25827771397081
 11
-8.348881532671641
 21
-11.25803208501691
 72
     1
 10
-8.348881532671641
 20
-11.25803208501691
 11
-8.348851541982199
 21
-11.25799698651048
 72
     1
 10
-8.348851541982199
 20
-11.25799698651048
 11
-8.262985732922488
 21
-11.13617214572946
 72
     1
 10
-8.262985732922488
 20
-11.13617214572946
 11
-8.224139083793943
 21
-11.07090105376403
 72
     1
 10
-8.224139083793943
 20
-11.07090105376403
 11
-8.223834958967586
 21
-11.07030442257627
 72
     1
 10
-8.223834958967586
 20
-11.07030442257627
 11
-8.220276570921868
 21
-11.0633211170873
 72
     1
 10
-8.220276570921868
 20
-11.0633211170873
 11
-8.215962389159301
 21
-11.05485784951884
 72
     1
 10
-8.215962389159301
 20
-11.05485784951884
 11
-8.210062053632711
 21
-11.04327779384084
 72
     1
 10
-8.210062053632711
 20
-11.04327779384084
 11
-8.203619163208657
 21
-11.03063802267883
 72
     1
 10
-8.203619163208657
 20
-11.03063802267883
 11
-8.197718827682394
 21
-11.01905796700709
 72
     1
 10
-8.197718827682394
 20
-11.01905796700709
 11
-8.193404645902092
 21
-11.01059469941475
 72
     1
 10
-8.193404645902092
 20
-11.01059469941475
 11
-8.190950149188069
 21
-11.00577692900066
 72
     1
 10
-8.190950149188069
 20
-11.00577692900066
 11
-8.190262904554459
 21
-11.00442905941651
 72
     1
 10
-8.190262904554459
 20
-11.00442905941651
 11
-8.189542134821622
 21
-11.00301476164106
 72
     1
 10
-8.189542134821622
 20
-11.00301476164106
 11
-8.160611459301109
 21
-10.933385000236
 72
     1
 10
-8.160611459301109
 20
-10.933385000236
 11
-8.137896748418967
 21
-10.8619802612572
 72
     1
 10
-8.137896748418967
 20
-10.8619802612572
 11
-8.137844819316754
 21
-10.86181714151911
 72
     1
 10
-8.137844819316754
 20
-10.86181714151911
 11
-8.137837405887908
 21
-10.86179383710402
 72
     1
 10
-8.137837405887908
 20
-10.86179383710402
 11
-8.122309642240609
 21
-10.78916748971318
 72
     1
 10
-8.122309642240609
 20
-10.78916748971318
 11
-8.11478738714095
 21
-10.71656045336221
 72
     1
 10
-8.11478738714095
 20
-10.71656045336221
 11
-8.114695004379456
 21
-10.71566733318156
 72
     1
 10
-8.114695004379456
 20
-10.71566733318156
 11
-8.114627485423256
 21
-10.71501560765574
 72
     1
 10
-8.114627485423256
 20
-10.71501560765574
 11
-8.116370953664486
 21
-10.64042785854264
 72
     1
 10
-8.116370953664486
 20
-10.64042785854264
 11
-8.127253870659217
 21
-10.56686051728667
 72
     1
 10
-8.127253870659217
 20
-10.56686051728667
 11
-8.127387876431911
 21
-10.5659556205901
 72
     1
 10
-8.127387876431911
 20
-10.5659556205901
 11
-8.12748556343233
 21
-10.56529527562304
 72
     1
 10
-8.12748556343233
 20
-10.56529527562304
 11
-8.150368583616881
 21
-10.49010820931954
 72
     1
 10
-8.150368583616881
 20
-10.49010820931954
 11
-8.184790855392677
 21
-10.41494561044783
 72
     1
 10
-8.184790855392677
 20
-10.41494561044783
 11
-8.184802080634128
 21
-10.41492114301258
 72
     1
 10
-8.184802080634128
 20
-10.41492114301258
 11
-8.218200393419664
 21
-10.36839233530782
 72
     1
 10
-8.218200393419664
 20
-10.36839233530782
 11
-8.262971161453095
 21
-10.32732524602363
 72
     1
 10
-8.262971161453095
 20
-10.32732524602363
 11
-8.262985732923056
 21
-10.32731186574495
 72
     1
 10
-8.262985732923056
 20
-10.32731186574495
 11
-8.318395331772877
 21
-10.2913528340062
 72
     1
 10
-8.318395331772877
 20
-10.2913528340062
 11
-8.382498736461827
 21
-10.26078634760785
 72
     1
 10
-8.382498736461827
 20
-10.26078634760785
 11
-8.382898689407654
 21
-10.26059554641148
 72
     1
 10
-8.382898689407654
 20
-10.26059554641148
 11
-8.383067105484969
 21
-10.2605152401776
 72
     1
 10
-8.383067105484969
 20
-10.2605152401776
 11
-8.45553000271029
 21
-10.23447218381818
 72
     1
 10
-8.45553000271029
 20
-10.23447218381818
 11
-8.532831750042703
 21
-10.21297297551632
 72
     1
 10
-8.532831750042703
 20
-10.21297297551632
 11
-8.533782557328379
 21
-10.21270836088604
 72
     1
 10
-8.533782557328379
 20
-10.21270836088604
 11
-8.534476422344142
 21
-10.2125153811748
 72
     1
 10
-8.534476422344142
 20
-10.2125153811748
 11
-8.706916324428264
 21
-10.18064260310246
 72
     1
 10
-8.706916324428264
 20
-10.18064260310246
 11
-8.890318868722943
 21
-10.16227507676871
 72
     1
 10
-8.890318868722943
 20
-10.16227507676871
 11
-8.890737879359307
 21
-10.16223321475621
 72
     1
 10
-8.890737879359307
 20
-10.16223321475621
 11
-8.890797736589832
 21
-10.16222722016545
 72
     1
 10
-8.890797736589832
 20
-10.16222722016545
 11
-9.075223982550156
 21
-10.1540547129099
 72
     1
 10
-9.075223982550156
 20
-10.1540547129099
 11
-9.249877556193169
 21
-10.15356578902276
 72
     1
 10
-9.249877556193169
 20
-10.15356578902276
 11
-9.250276568496815
 21
-10.15356452214462
 72
     1
 10
-9.250276568496815
 20
-10.15356452214462
 11
-9.25033357031576
 21
-10.15356436252534
 72
     1
 10
-9.25033357031576
 20
-10.15356436252534
 11
-9.406973291792156
 21
-10.15884925048567
 72
     1
 10
-9.406973291792156
 20
-10.15884925048567
 11
-9.550652202698899
 21
-10.17123921273441
 72
     1
 10
-9.550652202698899
 20
-10.17123921273441
 11
-9.550980459567924
 21
-10.17126741777702
 72
     1
 10
-9.550980459567924
 20
-10.17126741777702
 11
-9.551027352165704
 21
-10.17127146146544
 72
     1
 10
-9.551027352165704
 20
-10.17127146146544
 11
-9.69546279619658
 21
-10.19360964788109
 72
     1
 10
-9.69546279619658
 20
-10.19360964788109
 11
-9.835388546201855
 21
-10.22471612065306
 72
     1
 10
-9.835388546201855
 20
-10.22471612065306
 11
-9.83626161642124
 21
-10.22491035043629
 72
     1
 10
-9.83626161642124
 20
-10.22491035043629
 11
-9.836629237361564
 21
-10.22499207550823
 72
     1
 10
-9.836629237361564
 20
-10.22499207550823
 11
-9.972183890233808
 21
-10.26411114336327
 72
     1
 10
-9.972183890233808
 20
-10.26411114336327
 11
-10.09934301977658
 21
-10.30964924792841
 72
     1
 10
-10.09934301977658
 20
-10.30964924792841
 11
-10.09963350166213
 21
-10.30975335460494
 72
     1
 10
-10.09963350166213
 20
-10.30975335460494
 11
-10.09967500267531
 21
-10.30976821693355
 72
     1
 10
-10.09967500267531
 20
-10.30976821693355
 11
-10.21561563825334
 21
-10.36054672839572
 72
     1
 10
-10.21561563825334
 20
-10.36054672839572
 11
-10.31757533336382
 21
-10.41577488230968
 72
     1
 10
-10.31757533336382
 20
-10.41577488230968
 11
-10.31760852820275
 21
-10.41579287710584
 72
     1
 10
-10.31760852820275
 20
-10.41579287710584
 11
-10.40352882065136
 21
-10.47338181121057
 72
     1
 10
-10.40352882065136
 20
-10.47338181121057
 11
-10.36425904419841
 21
-10.25154324354969
 72
     1
 10
-10.36425904419841
 20
-10.25154324354969
 11
-10.36424630266322
 21
-10.25147099886192
 72
     1
 10
-10.36424630266322
 20
-10.25147099886192
 11
-11.38831593911216
 21
-10.25147099886192
 72
     1
 10
-11.38831593911216
 20
-10.25147099886192
 11
-11.37273369202848
 21
-10.28775693086163
 72
     1
 10
-11.37273369202848
 20
-10.28775693086163
 11
-11.36507157922078
 21
-10.33296906334454
 72
     1
 10
-11.36507157922078
 20
-10.33296906334454
 11
-11.36505403597229
 21
-10.33307234825588
 72
     1
 10
-11.36505403597229
 20
-10.33307234825588
 11
-11.36505153527024
 21
-10.33308710417163
 72
     1
 10
-11.36505153527024
 20
-10.33308710417163
 11
-11.36456118480422
 21
-10.38566356720304
 72
     1
 10
-11.36456118480422
 20
-10.38566356720304
 11
-11.37071777989169
 21
-10.44469050316178
 72
     1
 10
-11.37071777989169
 20
-10.44469050316178
 11
-11.37075611556111
 21
-10.44505882405997
 72
     1
 10
-11.37075611556111
 20
-10.44505882405997
 11
-11.37077229031496
 21
-10.4452139030596
 72
     1
 10
-11.37077229031496
 20
-10.4452139030596
 11
-11.39975744911429
 21
-10.58153132328164
 72
     1
 10
-11.39975744911429
 20
-10.58153132328164
 11
-11.44647162069467
 21
-10.73290592295257
 72
     1
 10
-11.44647162069467
 20
-10.73290592295257
 11
-11.44676284460962
 21
-10.73385054097531
 72
     1
 10
-11.44676284460962
 20
-10.73385054097531
 11
-11.44688557410174
 21
-10.73424824128256
 72
     1
 10
-11.44688557410174
 20
-10.73424824128256
 11
-11.50545520906807
 21
-10.89633630089537
 72
     1
 10
-11.50545520906807
 20
-10.89633630089537
 11
-11.57026936477855
 21
-11.06082253692716
 72
     1
 10
-11.57026936477855
 20
-11.06082253692716
 11
-11.57029043293152
 21
-11.06087611266611
 72
     1
 10
-11.57029043293152
 20
-11.06087611266611
 11
-11.69614704391383
 21
-11.36750858309239
 72
     1
 10
-11.69614704391383
 20
-11.36750858309239
 11
-11.82316096870487
 21
-11.66783213830991
 72
     1
 10
-11.82316096870487
 20
-11.66783213830991
 11
-11.82320228929879
 21
-11.66792994801921
 72
     1
 10
-11.82320228929879
 20
-11.66792994801921
 11
-11.88798302974584
 21
-11.82751177209633
 72
     1
 10
-11.88798302974584
 20
-11.82751177209633
 11
-11.94631578594178
 21
-11.9869871652333
 72
     1
 10
-11.94631578594178
 20
-11.9869871652333
 11
-11.94633473123113
 21
-11.9870391127738
 72
     1
 10
-11.94633473123113
 20
-11.9870391127738
 11
-11.99101110388975
 21
-12.14122708209646
 72
     1
 10
-11.99101110388975
 20
-12.14122708209646
 11
-12.01552936031237
 21
-12.28385299391852
 72
     1
 10
-12.01552936031237
 20
-12.28385299391852
 11
-12.01568214385721
 21
-12.28474297718179
 72
     1
 10
-12.01568214385721
 20
-12.28474297718179
 11
-12.01574655910488
 21
-12.2851176923125
 72
     1
 10
-12.01574655910488
 20
-12.2851176923125
 11
-12.01857969488405
 21
-12.35131500069088
 72
     1
 10
-12.01857969488405
 20
-12.35131500069088
 11
-12.01436532477808
 21
-12.41202538870073
 72
     1
 10
-12.01436532477808
 20
-12.41202538870073
 11
-12.01431333757756
 21
-12.41277214846923
 72
     1
 10
-12.01431333757756
 20
-12.41277214846923
 11
-12.01427550780801
 21
-12.41331708869603
 72
     1
 10
-12.01427550780801
 20
-12.41331708869603
 11
-12.00147191319456
 21
-12.47025222224522
 72
     1
 10
-12.00147191319456
 20
-12.47025222224522
 11
-11.98019407900995
 21
-12.52080043442948
 72
     1
 10
-11.98019407900995
 20
-12.52080043442948
 11
-11.98006136313641
 21
-12.52111586397285
 72
     1
 10
-11.98006136313641
 20
-12.52111586397285
 11
-11.98000546091694
 21
-12.52124866721499
 72
     1
 10
-11.98000546091694
 20
-12.52124866721499
 11
-11.95450723845607
 21
-12.56091256888334
 72
     1
 10
-11.95450723845607
 20
-12.56091256888334
 11
-11.92308501353149
 21
-12.59718935988826
 72
     1
 10
-11.92308501353149
 20
-12.59718935988826
 11
-11.92269857406598
 21
-12.59763564487309
 72
     1
 10
-11.92269857406598
 20
-12.59763564487309
 11
-11.92241652679566
 21
-12.59796126820697
 72
     1
 10
-11.92241652679566
 20
-12.59796126820697
 11
-11.88384229277709
 21
-12.63261269876472
 72
     1
 10
-11.88384229277709
 20
-12.63261269876472
 11
-11.83825455341611
 21
-12.66463850746624
 72
     1
 10
-11.83825455341611
 20
-12.66463850746624
 11
-11.83823970256456
 21
-12.66464892701657
 72
     1
 10
-11.83823970256456
 20
-12.66464892701657
 11
-11.78582668966919
 21
-12.69412443633797
 72
     1
 10
-11.78582668966919
 20
-12.69412443633797
 11
-11.72635020917092
 21
-12.72103047609426
 72
     1
 10
-11.72635020917092
 20
-12.72103047609426
 11
-11.72633083720152
 21
-12.72103922674154
 72
     1
 10
-11.72633083720152
 20
-12.72103922674154
 11
-11.58369334476078
 21
-12.76778596801916
 72
     1
 10
-11.58369334476078
 20
-12.76778596801916
 11
-11.4107786702395
 21
-12.80468370794006
 72
     1
 10
-11.4107786702395
 20
-12.80468370794006
 11
-11.41038365947209
 21
-12.80476814154116
 72
     1
 10
-11.41038365947209
 20
-12.80476814154116
 11
-11.41032722518838
 21
-12.80478018392915
 72
     1
 10
-11.41032722518838
 20
-12.80478018392915
 11
-11.20318140918053
 21
-12.83262119182177
 72
     1
 10
-11.20318140918053
 20
-12.83262119182177
 11
-10.96135393842549
 21
-12.85119393884571
 72
     1
 10
-10.96135393842549
 20
-12.85119393884571
 11
-10.96127519584968
 21
-12.85120002485843
 72
     1
 10
-10.96127519584968
 20
-12.85120002485843
 11
-10.68264718346576
 21
-12.8606256498943
 72
     1
 10
-10.68264718346576
 20
-12.8606256498943
 11
-10.48582227915478
 21
-12.86073419643111
 72
     1
 10
-10.48582227915478
 20
-12.86073419643111
 11
-10.48537261398644
 21
-12.86073458113657
 72
     1
 10
-10.48537261398644
 20
-12.86073458113657
 11
-10.4853083760934
 21
-12.86073461660754
 72
     1
 10
-10.4853083760934
 20
-12.86073461660754
 11
-10.24688909917424
 21
-12.84880275609265
 72
     1
 10
-10.24688909917424
 20
-12.84880275609265
 11
-10.11728463211438
 21
-12.83478260649497
 72
     1
 10
-10.11728463211438
 20
-12.83478260649497
 11
-10.11698853367365
 21
-12.83475061943994
 72
     1
 10
-10.11698853367365
 20
-12.83475061943994
 11
-10.11694623456404
 21
-12.83474604368723
 72
     1
 10
-10.11694623456404
 20
-12.83474604368723
 11
-9.982045382281541
 21
-12.81469615931809
 72
     1
 10
-9.982045382281541
 20
-12.81469615931809
 11
-9.844180990463542
 21
-12.78638429973853
 72
     1
 10
-9.844180990463542
 20
-12.78638429973853
 11
-9.843866038605086
 21
-12.78631955782066
 72
     1
 10
-9.843866038605086
 20
-12.78631955782066
 11
-9.843821043703187
 21
-12.7863103176378
 72
     1
 10
-9.843821043703187
 20
-12.7863103176378
 11
-9.704997387963743
 21
-12.74915265150941
 72
     1
 10
-9.704997387963743
 20
-12.74915265150941
 11
-9.565991806110048
 21
-12.70154959026013
 72
     1
 10
-9.565991806110048
 20
-12.70154959026013
 11
-9.565674265715984
 21
-12.70144074571579
 72
     1
 10
-9.565674265715984
 20
-12.70144074571579
 11
-9.565628898369113
 21
-12.70142520943909
 72
     1
 10
-9.565628898369113
 20
-12.70142520943909
 11
-9.428603194210751
 21
-12.64285557444993
 72
     1
 10
-9.428603194210751
 20
-12.64285557444993
 11
-9.296335964949194
 21
-12.57112484219039
 72
     1
 10
-9.296335964949194
 20
-12.57112484219039
 11
-9.296033812066852
 21
-12.57096092186123
 72
     1
 10
-9.296033812066852
 20
-12.57096092186123
 11
-9.29599064391897
 21
-12.57093751103326
 72
     1
 10
-9.29599064391897
 20
-12.57093751103326
 11
-9.16822711458363
 21
-12.48550756901847
 72
     1
 10
-9.16822711458363
 20
-12.48550756901847
 11
-9.107473293734543
 21
-12.43779576796737
 72
     1
 10
-9.107473293734543
 20
-12.43779576796737
 11
-9.107334522459496
 21
-12.43768673191948
 72
     1
 10
-9.107334522459496
 20
-12.43768673191948
 11
-9.107314694197669
 21
-12.43767116017182
 72
     1
 10
-9.107314694197669
 20
-12.43767116017182
 11
-9.048690575806518
 21
-12.38536711407295
 72
     1
 10
-9.048690575806518
 20
-12.38536711407295
 11
-8.991958095312143
 21
-12.32928664508387
 72
     1
 10
-8.991958095312143
 20
-12.32928664508387
 11
-8.99182844149496
 21
-12.32915856747275
 72
     1
 10
-8.99182844149496
 20
-12.32915856747275
 11
-8.991809925658316
 21
-12.32914026446179
 72
     1
 10
-8.991809925658316
 20
-12.32914026446179
 11
-8.937762411346981
 21
-12.26860922774483
 72
     1
 10
-8.937762411346981
 20
-12.26860922774483
 11
-8.886681368529438
 21
-12.2039972148666
 72
     1
 10
-8.886681368529438
 20
-12.2039972148666
 11
-8.886564704178142
 21
-12.20384957477228
 72
     1
 10
-8.886564704178142
 20
-12.20384957477228
 11
-8.886548032830987
 21
-12.20382848729167
 72
     1
 10
-8.886548032830987
 20
-12.20382848729167
 11
-8.85037106760285
 21
-12.15288652568086
 72
     1
 10
-8.85037106760285
 20
-12.15288652568086
 11
-8.844050989032326
 21
-12.13641892610048
 72
     1
 10
-8.844050989032326
 20
-12.13641892610048
 11
-8.841406848750623
 21
-12.12951472467199
 72
     1
 10
-8.841406848750623
 20
-12.12951472467199
 11
-8.83830299861819
 21
-12.12132511159695
 72
     1
 10
-8.83830299861819
 20
-12.12132511159695
 11
-8.834872248197499
 21
-12.11210850806612
 72
     1
 10
-8.834872248197499
 20
-12.11210850806612
 11
-8.831247400730618
 21
-12.10212333769613
 72
     1
 10
-8.831247400730618
 20
-12.10212333769613
 11
-8.827561259459657
 21
-12.09162802410339
 72
     1
 10
-8.827561259459657
 20
-12.09162802410339
 11
-8.823946627626683
 21
-12.08088099090458
 72
     1
 10
-8.823946627626683
 20
-12.08088099090458
 11
-8.820536308473763
 21
-12.0701406617161
 72
     1
 10
-8.820536308473763
 20
-12.0701406617161
 11
-8.817463105242965
 21
-12.05966546015452
 97
        0
 92
        5
 93
       39
 72
     1
 10
-10.47048892226944
 20
-10.96803646971119
 11
-10.53935590535393
 21
-11.02775018212225
 72
     1
 10
-10.53935590535393
 20
-11.02775018212225
 11
-10.60157594198959
 21
-11.09432892661226
 72
     1
 10
-10.60157594198959
 20
-11.09432892661226
 11
-10.65709447124355
 21
-11.16897114620821
 72
     1
 10
-10.65709447124355
 20
-11.16897114620821
 11
-10.70345988796477
 21
-11.25156787714252
 72
     1
 10
-10.70345988796477
 20
-11.25156787714252
 11
-10.73980032406882
 21
-11.34244616881921
 72
     1
 10
-10.73980032406882
 20
-11.34244616881921
 11
-10.76595225488677
 21
-11.44215083993436
 72
     1
 10
-10.76595225488677
 20
-11.44215083993436
 11
-10.53603243212952
 21
-11.38908407398162
 72
     1
 10
-10.53603243212952
 20
-11.38908407398162
 11
-10.32033277314646
 21
-11.35530436489279
 72
     1
 10
-10.32033277314646
 20
-11.35530436489279
 11
-10.12244908145941
 21
-11.33569025864057
 72
     1
 10
-10.12244908145941
 20
-11.33569025864057
 11
-9.945487060917287
 21
-11.3244666768511
 72
     1
 10
-9.945487060917287
 20
-11.3244666768511
 11
-9.79238873261437
 21
-11.31651216549699
 72
     1
 10
-9.79238873261437
 20
-11.31651216549699
 11
-9.666804460961274
 21
-11.30626925739512
 72
     1
 10
-9.666804460961274
 20
-11.30626925739512
 11
-9.571839949873009
 21
-11.28834416822076
 72
     1
 10
-9.571839949873009
 20
-11.28834416822076
 11
-9.537188530842101
 21
-11.27510483627799
 72
     1
 10
-9.537188530842101
 20
-11.27510483627799
 11
-9.511308930310491
 21
-11.25701622242525
 72
     1
 10
-9.511308930310491
 20
-11.25701622242525
 11
-9.479763057020833
 21
-11.23282563897465
 72
     1
 10
-9.479763057020833
 20
-11.23282563897465
 11
-9.445057235197723
 21
-11.21086889132948
 72
     1
 10
-9.445057235197723
 20
-11.21086889132948
 11
-9.409479545290239
 21
-11.18891198553581
 72
     1
 10
-9.409479545290239
 20
-11.18891198553581
 11
-9.374283307545923
 21
-11.16314134874341
 72
     1
 10
-9.374283307545923
 20
-11.16314134874341
 11
-9.341266344666281
 21
-11.13077832646656
 72
     1
 10
-9.341266344666281
 20
-11.13077832646656
 11
-9.311082597219482
 21
-11.08811783512977
 72
     1
 10
-9.311082597219482
 20
-11.08811783512977
 11
-9.286238073181835
 21
-11.03287163616528
 72
     1
 10
-9.286238073181835
 20
-11.03287163616528
 11
-9.268040653722693
 21
-10.96095366829286
 72
     1
 10
-9.268040653722693
 20
-10.96095366829286
 11
-9.264226764588059
 21
-10.90919430908741
 72
     1
 10
-9.264226764588059
 20
-10.90919430908741
 11
-9.272344800637868
 21
-10.86179381588954
 72
     1
 10
-9.272344800637868
 20
-10.86179381588954
 11
-9.295609271327436
 21
-10.81973270422265
 72
     1
 10
-9.295609271327436
 20
-10.81973270422265
 11
-9.335545510953295
 21
-10.78366459838605
 72
     1
 10
-9.335545510953295
 20
-10.78366459838605
 11
-9.393352436937704
 21
-10.75446152464423
 72
     1
 10
-9.393352436937704
 20
-10.75446152464423
 11
-9.471808545661986
 21
-10.73310415665321
 72
     1
 10
-9.471808545661986
 20
-10.73310415665321
 11
-9.573311039462993
 21
-10.71937425064385
 72
     1
 10
-9.573311039462993
 20
-10.71937425064385
 11
-9.699603496357753
 21
-10.71457968782471
 72
     1
 10
-9.699603496357753
 20
-10.71457968782471
 11
-9.836302386054825
 21
-10.72313357883297
 72
     1
 10
-9.836302386054825
 20
-10.72313357883297
 11
-9.991634392014589
 21
-10.75015737772748
 72
     1
 10
-9.991634392014589
 20
-10.75015737772748
 11
-10.0728691552609
 21
-10.77184179509101
 72
     1
 10
-10.0728691552609
 20
-10.77184179509101
 11
-10.15546604433908
 21
-10.79870206930707
 72
     1
 10
-10.15546604433908
 20
-10.79870206930707
 11
-10.2377904450012
 21
-10.83128317722037
 72
     1
 10
-10.2377904450012
 20
-10.83128317722037
 11
-10.31858919511842
 21
-10.87029330410405
 72
     1
 10
-10.31858919511842
 20
-10.87029330410405
 11
-10.3963369604493
 21
-10.91567788900011
 72
     1
 10
-10.3963369604493
 20
-10.91567788900011
 11
-10.47048892226944
 21
-10.96803646971119
 97
        0
 75
     0
 76
     0
 47
0.322189
 98
        1
 10
0.0
 20
0.0
  0
TEXT
  5
DC
330
C0
100
AcDbEntity
  8
0
  6
CONTINUOUS
 62
     1
100
AcDbText
 10
10.8125
 20
11.0
 40
2.0
 41
0.7236842105263158
 50
180.0
 51
0.0
  7
STANDARD
  1
MINEBEA CO.,LTD.
100
AcDbText
  0
TEXT
  5
DD
330
C0
100
AcDbEntity
  8
0
  6
CONTINUOUS
 62
     1
100
AcDbText
 10
25.5
 20
-3.5
 40
3.0
 41
0.7236842105263158
 50
180.0
 51
0.0
  7
STANDARD
  1
TYPE:   C2D1-***K
100
AcDbText
  0
TEXT
  5
DE
330
C0
100
AcDbEntity
  8
0
  6
CONTINUOUS
 62
     1
100
AcDbText
 10
25.5
 20
1.5
 40
2.0
 41
0.7236842105263159
 50
180.0
 51
0.0
  7
STANDARD
  1
S/N :T******
100
AcDbText
  0
TEXT
  5
DF
330
C0
100
AcDbEntity
  8
0
  6
CONTINUOUS
 62
     1
100
AcDbText
 10
25.5
 20
6.5
 40
2.0
 41
0.7236842105263158
 50
180.0
 51
0.0
  7
STANDARD
  1
OIML:C4
100
AcDbText
  0
TEXT
  5
E0
330
C0
100
AcDbEntity
  8
0
  6
CONTINUOUS
 62
     1
100
AcDbText
 10
-10.5
 20
6.5
 40
2.0
 41
0.7236842105263159
 50
180.0
 51
0.0
  7
STANDARD
  1
YEAR:****
100
AcDbText
  0
LINE
  5
E1
330
C0
100
AcDbEntity
  8
0
  6
CONTINUOUS
 62
     1
100
AcDbLine
 10
26.0
 20
-3.0
 11
-26.0
 21
-3.0
  0
TEXT
  5
E2
330
C0
100
AcDbEntity
  8
0
  6
CONTINUOUS
 62
     1
100
AcDbText
 10
-10.5
 20
1.5
 40
2.0
 41
0.7236842105263158
 50
180.0
 51
0.0
  7
STANDARD
  1
NMI :TC****
100
AcDbText
  0
TEXT
  5
E3
330
C0
100
AcDbEntity
  8
0
  6
CONTINUOUS
 62
     1
100
AcDbText
 10
6.5
 20
6.5
 40
2.0
 41
0.7236842105263158
 50
180.0
 51
0.0
  7
STANDARD
  1
Vmin:  * kg
100
AcDbText
  0
TEXT
  5
E4
330
C0
100
AcDbEntity
  8
0
  6
CONTINUOUS
 62
     1
100
AcDbText
 10
6.5
 20
1.5
 40
2.0
 41
0.7236842105263158
 50
180.0
 51
0.0
  7
STANDARD
  1
Emax: ***Kg
100
AcDbText
  0
LINE
  5
E5
330
C0
100
AcDbEntity
  8
0
  6
CONTINUOUS
 62
     1
100
AcDbLine
 10
-10.0
 20
2.0
 11
-26.0
 21
2.0
  0
LINE
  5
E6
330
C0
100
AcDbEntity
  8
0
  6
CONTINUOUS
 62
     1
100
AcDbLine
 10
-10.0
 20
7.0
 11
-26.0
 21
7.0
  0
LINE
  5
E7
330
C0
100
AcDbEntity
  8
0
  6
CONTINUOUS
 62
     1
100
AcDbLine
 10
7.0
 20
2.0
 11
-9.0
 21
2.0
  0
LINE
  5
E8
330
C0
100
AcDbEntity
  8
0
  6
CONTINUOUS
 62
     1
100
AcDbLine
 10
7.0
 20
7.0
 11
-9.0
 21
7.0
  0
LINE
  5
E9
330
C0
100
AcDbEntity
  8
0
  6
CONTINUOUS
 62
     1
100
AcDbLine
 10
26.0
 20
2.0
 11
8.0
 21
2.0
  0
LINE
  5
EA
330
C0
100
AcDbEntity
  8
0
  6
CONTINUOUS
 62
     1
100
AcDbLine
 10
26.0
 20
7.0
 11
8.0
 21
7.0
  0
ENDBLK
  5
EB
330
C0
100
AcDbEntity
  8
0
100
AcDbBlockEnd
  0
ENDSEC
  0
SECTION
  2
ENTITIES
  0
LINE
  5
24
330
20
100
AcDbEntity
  8
0
  6
CONTINUOUS
 62
     1
100
AcDbLine
 10
-90.0
 20
36.0
 11
90.0
 21
36.0
  0
LINE
  5
25
330
20
100
AcDbEntity
  8
0
  6
CONTINUOUS
 62
     1
100
AcDbLine
 10
-90.0
 20
-36.0
 11
90.0
 21
-36.0
  0
LINE
  5
26
330
20
100
AcDbEntity
  8
0
  6
CONTINUOUS
 62
     1
100
AcDbLine
 10
90.0
 20
-36.0
 11
90.0
 21
36.0
  0
LINE
  5
27
330
20
100
AcDbEntity
  8
0
  6
CONTINUOUS
 62
     1
100
AcDbLine
 10
-90.0
 20
-36.0
 11
-90.0
 21
36.0
  0
CIRCLE
  5
28
330
20
100
AcDbEntity
  8
0
  6
CONTINUOUS
 62
     1
100
AcDbCircle
 10
75.0
 20
0.0
 40
7.0
  0
CIRCLE
  5
29
330
20
100
AcDbEntity
  8
0
  6
CONTINUOUS
 62
     1
100
AcDbCircle
 10
45.0
 20
0.0
 40
7.0
  0
CIRCLE
  5
2A
330
20
100
AcDbEntity
  8
0
  6
CONTINUOUS
 62
     1
100
AcDbCircle
 10
75.0
 20
0.0
 40
11.0
  0
CIRCLE
  5
2B
330
20
100
AcDbEntity
  8
0
  6
CONTINUOUS
 62
     1
100
AcDbCircle
 10
45.0
 20
0.0
 40
11.0
  0
CIRCLE
  5
2C
330
20
100
AcDbEntity
  8
0
  6
CONTINUOUS
 62
     1
100
AcDbCircle
 10
-50.0
 20
10.0
 40
4.0
  0
CIRCLE
  5
2D
330
20
100
AcDbEntity
  8
0
  6
CONTINUOUS
 62
     1
100
AcDbCircle
 10
-80.0
 20
10.0
 40
4.0
  0
CIRCLE
  5
2E
330
20
100
AcDbEntity
  8
0
  6
CONTINUOUS
 62
     1
100
AcDbCircle
 10
-80.0
 20
-10.0
 40
4.0
  0
CIRCLE
  5
2F
330
20
100
AcDbEntity
  8
0
  6
CONTINUOUS
 62
     1
100
AcDbCircle
 10
-50.0
 20
-10.0
 40
4.0
  0
CIRCLE
  5
30
330
20
100
AcDbEntity
  8
0
  6
CONTINUOUS
 62
     1
100
AcDbCircle
 10
-50.0
 20
10.0
 40
3.0
  0
CIRCLE
  5
31
330
20
100
AcDbEntity
  8
0
  6
CONTINUOUS
 62
     1
100
AcDbCircle
 10
-80.0
 20
10.0
 40
3.0
  0
CIRCLE
  5
32
330
20
100
AcDbEntity
  8
0
  6
CONTINUOUS
 62
     1
100
AcDbCircle
 10
-80.0
 20
-10.0
 40
3.0
  0
CIRCLE
  5
33
330
20
100
AcDbEntity
  8
0
  6
CONTINUOUS
 62
     1
100
AcDbCircle
 10
-50.0
 20
-10.0
 40
3.0
  0
LINE
  5
34
330
20
100
AcDbEntity
  8
0
  6
CONTINUOUS
 62
     1
100
AcDbLine
 10
90.0
 20
-171.5
 11
90.0
 21
-106.5
  0
LINE
  5
35
330
20
100
AcDbEntity
  8
0
  6
CONTINUOUS
 62
     1
100
AcDbLine
 10
-90.0
 20
-171.5
 11
-90.0
 21
-106.5
  0
ARC
  5
36
330
20
100
AcDbEntity
  8
0
  6
CONTINUOUS
 62
     1
100
AcDbCircle
 10
-33.38562172233853
 20
-99.0
 40
9.999999999999996
100
AcDbArc
 50
228.5903778907291
 51
270.0
  0
LINE
  5
37
330
20
100
AcDbEntity
  8
0
  6
CONTINUOUS
 62
     1
100
AcDbLine
 10
-33.38562172233853
 20
-109.5
 11
-33.38562172233853
 21
-109.0
  0
ARC
  5
38
330
20
100
AcDbEntity
  8
0
  6
CONTINUOUS
 62
     1
100
AcDbCircle
 10
23.38562172233853
 20
-99.0
 40
9.999999999999996
100
AcDbArc
 50
270.0
 51
311.4096221092709
  0
LINE
  5
39
330
20
100
AcDbEntity
  8
0
  6
CONTINUOUS
 62
     1
100
AcDbLine
 10
-90.0
 20
-109.5
 11
-33.38562172233853
 21
-109.5
  0
LINE
  5
3A
330
20
100
AcDbEntity
  8
0
  6
CONTINUOUS
 62
     1
100
AcDbLine
 10
-33.38562172233853
 20
-109.0
 11
23.38562172233853
 21
-109.0
  0
LINE
  5
3B
330
20
100
AcDbEntity
  8
0
  6
CONTINUOUS
 62
     1
100
AcDbLine
 10
-15.0
 20
-134.0
 11
5.0
 21
-134.0
  0
LINE
  5
3C
330
20
100
AcDbEntity
  8
0
  6
CONTINUOUS
 62
     1
100
AcDbLine
 10
-15.0
 20
-144.0
 11
5.0
 21
-144.0
  0
ARC
  5
3D
330
20
100
AcDbEntity
  8
0
  6
CONTINUOUS
 62
     1
100
AcDbCircle
 10
5.0
 20
-139.0
 40
5.0
100
AcDbArc
 50
0.0
 51
90.0
  0
ARC
  5
3E
330
20
100
AcDbEntity
  8
0
  6
CONTINUOUS
 62
     1
100
AcDbCircle
 10
5.0
 20
-139.0
 40
5.0
100
AcDbArc
 50
270.0
 51
0.0
  0
ARC
  5
3F
330
20
100
AcDbEntity
  8
0
  6
CONTINUOUS
 62
     1
100
AcDbCircle
 10
-15.0
 20
-139.0
 40
5.0
100
AcDbArc
 50
90.0
 51
270.0
  0
ARC
  5
40
330
20
100
AcDbEntity
  8
0
  6
CONTINUOUS
 62
     1
100
AcDbCircle
 10
10.0
 20
-121.0
 40
9.0
100
AcDbArc
 50
0.0
 51
161.973155849545
  0
ARC
  5
41
330
20
100
AcDbEntity
  8
0
  6
CONTINUOUS
 62
     1
100
AcDbCircle
 10
10.0
 20
-121.0
 40
8.999999999999995
100
AcDbArc
 50
224.2948887632476
 51
0.0
  0
ARC
  5
42
330
20
100
AcDbEntity
  8
0
  6
CONTINUOUS
 62
     1
100
AcDbCircle
 10
-5.0
 20
-124.5
 40
8.999999999999998
100
AcDbArc
 50
198.026844150455
 51
341.973155849545
  0
ARC
  5
43
330
20
100
AcDbEntity
  8
0
  6
CONTINUOUS
 62
     1
100
AcDbCircle
 10
-5.0
 20
-124.5
 40
8.999999999999998
100
AcDbArc
 50
44.29488876324764
 51
135.7051112367524
  0
ARC
  5
44
330
20
100
AcDbEntity
  8
0
  6
CONTINUOUS
 62
     1
100
AcDbCircle
 10
-20.0
 20
-121.0
 40
8.999999999999998
100
AcDbArc
 50
18.026844150455
 51
315.7051112367524
  0
LINE
  5
45
330
20
100
AcDbEntity
  8
0
  6
CONTINUOUS
 62
     1
100
AcDbLine
 10
37.5
 20
-126.5
 11
62.5
 21
-126.5
  0
LINE
  5
46
330
20
100
AcDbEntity
  8
0
  6
CONTINUOUS
 62
     1
100
AcDbLine
 10
37.5
 20
-151.5
 11
62.5
 21
-151.5
  0
ARC
  5
47
330
20
100
AcDbEntity
  8
0
  6
CONTINUOUS
 62
     1
100
AcDbCircle
 10
62.5
 20
-139.0
 40
12.5
100
AcDbArc
 50
0.0
 51
90.0
  0
ARC
  5
48
330
20
100
AcDbEntity
  8
0
  6
CONTINUOUS
 62
     1
100
AcDbCircle
 10
62.5
 20
-139.0
 40
12.5
100
AcDbArc
 50
270.0
 51
0.0
  0
ARC
  5
49
330
20
100
AcDbEntity
  8
0
  6
CONTINUOUS
 62
     1
100
AcDbCircle
 10
37.5
 20
-139.0
 40
12.5
100
AcDbArc
 50
90.0
 51
270.0
  0
LINE
  5
4A
330
20
100
AcDbEntity
  8
0
  6
CONTINUOUS
 62
     1
100
AcDbLine
 10
14.12310562561765
 20
-129.0
 11
30.0
 21
-129.0
  0
LINE
  5
4B
330
20
100
AcDbEntity
  8
0
  6
CONTINUOUS
 62
     1
100
AcDbLine
 10
-90.0
 20
-129.0
 11
-24.12310562561765
 21
-129.0
  0
ARC
  5
4C
330
20
100
AcDbEntity
  8
0
  6
CONTINUOUS
 62
     1
100
AcDbCircle
 10
10.0
 20
-157.0
 40
9.0
100
AcDbArc
 50
198.026844150455
 51
0.0
  0
ARC
  5
4D
330
20
100
AcDbEntity
  8
0
  6
CONTINUOUS
 62
     1
100
AcDbCircle
 10
10.0
 20
-157.0
 40
8.999999999999995
100
AcDbArc
 50
0.0
 51
135.7051112367523
  0
LINE
  5
4E
330
20
100
AcDbEntity
  8
0
  6
CONTINUOUS
 62
     1
100
AcDbLine
 10
14.12310562561765
 20
-149.0
 11
30.0
 21
-149.0
  0
ARC
  5
4F
330
20
100
AcDbEntity
  8
0
  6
CONTINUOUS
 62
     1
100
AcDbCircle
 10
-5.0
 20
-153.5
 40
8.999999999999998
100
AcDbArc
 50
18.02684415045497
 51
161.973155849545
  0
ARC
  5
50
330
20
100
AcDbEntity
  8
0
  6
CONTINUOUS
 62
     1
100
AcDbCircle
 10
-20.0
 20
-157.0
 40
8.999999999999998
100
AcDbArc
 50
44.2948887632477
 51
341.973155849545
  0
ARC
  5
51
330
20
100
AcDbEntity
  8
0
  6
CONTINUOUS
 62
     1
100
AcDbCircle
 10
-5.0
 20
-153.5
 40
8.999999999999998
100
AcDbArc
 50
224.2948887632477
 51
315.7051112367523
  0
LINE
  5
52
330
20
100
AcDbEntity
  8
0
  6
CONTINUOUS
 62
     1
100
AcDbLine
 10
-90.0
 20
-149.0
 11
-24.12310562561765
 21
-149.0
  0
LINE
  5
53
330
20
100
AcDbEntity
  8
0
  6
CONTINUOUS
 62
     1
100
AcDbLine
 10
30.0
 20
-106.5
 11
90.0
 21
-106.5
  0
LINE
  5
54
330
20
100
AcDbEntity
  8
0
  6
CONTINUOUS
 62
     1
100
AcDbLine
 10
-90.0
 20
-106.5
 11
-40.0
 21
-106.5
  0
LINE
  5
55
330
20
100
AcDbEntity
  8
0
  6
CONTINUOUS
 62
     1
100
AcDbLine
 10
30.0
 20
-171.5
 11
90.0
 21
-171.5
  0
ARC
  5
56
330
20
100
AcDbEntity
  8
0
  6
CONTINUOUS
 62
     1
100
AcDbCircle
 10
23.38562172233853
 20
-179.0
 40
9.999999999999996
100
AcDbArc
 50
48.59037789072916
 51
90.0
  0
LINE
  5
57
330
20
100
AcDbEntity
  8
0
  6
CONTINUOUS
 62
     1
100
AcDbLine
 10
-33.38562172233853
 20
-169.0
 11
23.38562172233853
 21
-169.0
  0
ARC
  5
58
330
20
100
AcDbEntity
  8
0
  6
CONTINUOUS
 62
     1
100
AcDbCircle
 10
-33.38562172233853
 20
-179.0
 40
9.999999999999996
100
AcDbArc
 50
90.0
 51
131.4096221092709
  0
LINE
  5
59
330
20
100
AcDbEntity
  8
0
  6
CONTINUOUS
 62
     1
100
AcDbLine
 10
-90.0
 20
-171.5
 11
-40.0
 21
-171.5
  0
LINE
  5
5A
330
20
100
AcDbEntity
  8
0
  6
CONTINUOUS
 62
     1
100
AcDbLine
 10
-20.0
 20
-148.0
 11
-20.0
 21
-130.0
  0
LINE
  5
5B
330
20
100
AcDbEntity
  8
0
  6
CONTINUOUS
 62
     1
100
AcDbLine
 10
10.0
 20
-148.0
 11
10.0
 21
-130.0
  0
LINE
  5
5C
330
20
100
AcDbEntity
  8
0
  6
CONTINUOUS
 62
     1
100
AcDbLine
 10
70.0
 20
-129.0
 11
90.0
 21
-129.0
  0
LINE
  5
5D
330
20
100
AcDbEntity
  8
0
  6
CONTINUOUS
 62
     1
100
AcDbLine
 10
70.0
 20
-149.0
 11
90.0
 21
-149.0
  0
LINE
  5
5E
330
20
100
AcDbEntity
  8
0
  6
CONTINUOUS
 62
     1
100
AcDbLine
 10
90.0
 20
-134.5
 11
100.0
 21
-134.5
  0
LINE
  5
5F
330
20
100
AcDbEntity
  8
0
  6
CONTINUOUS
 62
     1
100
AcDbLine
 10
90.0
 20
-143.5
 11
100.0
 21
-143.5
  0
LINE
  5
60
330
20
100
AcDbEntity
  8
0
  6
CONTINUOUS
 62
     1
100
AcDbLine
 10
100.0
 20
-143.5
 11
100.0
 21
-134.5
  0
SPLINE
  5
61
330
20
100
AcDbEntity
  8
0
  6
CONTINUOUS
 62
     1
100
AcDbSpline
210
0.0
220
0.0
230
1.0
 70
     8
 71
     3
 72
    13
 73
     9
 74
     0
 42
1.000000000000000E-007
 43
1.000000000000000E-007
 40
0.0
 40
0.0
 40
0.0
 40
0.0
 40
2.04675366344161
 40
4.123976249386759
 40
6.198375796542287
 40
8.353678387702736
 40
10.53721605557728
 40
12.59944819227654
 40
12.59944819227654
 40
12.59944819227654
 40
12.59944819227654
 10
115.0
 20
-135.5000000000002
 30
0.0
 10
115.3170731707317
 20
-135.8661113019576
 30
0.0
 10
116.5853658536585
 20
-137.3305565097905
 30
0.0
 10
114.9756097560972
 20
-139.0438852627967
 30
0.0
 10
113.5121951219512
 20
-140.4939024390243
 30
0.0
 10
114.9756097560976
 20
-143.4805049811061
 30
0.0
 10
116.5853658536585
 20
-140.584077636551
 30
0.0
 10
115.3170731707317
 20
-139.3168155273102
 30
0.0
 10
115.0
 20
-139.0
 30
0.0
  0
LINE
  5
62
330
20
100
AcDbEntity
  8
0
  6
CONTINUOUS
 62
     1
100
AcDbLine
 10
100.0
 20
-135.5
 11
114.9999999999998
 21
-135.5
  0
LINE
  5
63
330
20
100
AcDbEntity
  8
0
  6
CONTINUOUS
 62
     1
100
AcDbLine
 10
100.0
 20
-142.5
 11
115.0237103844403
 21
-142.5
  0
LINE
  5
64
330
20
100
AcDbEntity
  8
0
  6
CONTINUOUS
 62
     1
100
AcDbLine
 10
-40.0
 20
-19.0
 11
-40.0
 21
19.0
  0
ARC
  5
65
330
20
100
AcDbEntity
  8
0
  6
CONTINUOUS
 62
     1
100
AcDbCircle
 10
-35.0
 20
-22.0
 40
3.0
100
AcDbArc
 50
0.0
 51
90.0
  0
ARC
  5
66
330
20
100
AcDbEntity
  8
0
  6
CONTINUOUS
 62
     1
100
AcDbCircle
 10
-35.0
 20
22.0
 40
3.0
100
AcDbArc
 50
270.0
 51
0.0
  0
LINE
  5
67
330
20
100
AcDbEntity
  8
0
  6
CONTINUOUS
 62
     1
100
AcDbLine
 10
-32.0
 20
22.0
 11
-32.0
 21
23.0
  0
LINE
  5
68
330
20
100
AcDbEntity
  8
0
  6
CONTINUOUS
 62
     1
100
AcDbLine
 10
-32.0
 20
-23.0
 11
-32.0
 21
-22.0
  0
LINE
  5
69
330
20
100
AcDbEntity
  8
0
  6
CONTINUOUS
 62
     1
100
AcDbLine
 10
-90.0
 20
-23.0
 11
-32.0
 21
-23.0
  0
LINE
  5
6A
330
20
100
AcDbEntity
  8
0
  6
CONTINUOUS
 62
     1
100
AcDbLine
 10
-90.0
 20
-19.0
 11
-35.0
 21
-19.0
  0
LINE
  5
6B
330
20
100
AcDbEntity
  8
0
  6
CONTINUOUS
 62
     1
100
AcDbLine
 10
-90.0
 20
19.0
 11
-35.0
 21
19.0
  0
LINE
  5
6C
330
20
100
AcDbEntity
  8
0
  6
CONTINUOUS
 62
     1
100
AcDbLine
 10
-90.0
 20
23.0
 11
-32.17157287525381
 21
23.0
  0
LINE
  5
6D
330
20
100
AcDbEntity
  8
0
  6
CONTINUOUS
 62
     1
100
AcDbLine
 10
30.0
 20
-19.0
 11
30.0
 21
19.0
  0
ARC
  5
6E
330
20
100
AcDbEntity
  8
0
  6
CONTINUOUS
 62
     1
100
AcDbCircle
 10
22.85857157145715
 20
12.0
 40
10.0
100
AcDbArc
 50
44.4270040008057
 51
90.0
  0
LINE
  5
6F
330
20
100
AcDbEntity
  8
0
  6
CONTINUOUS
 62
     1
100
AcDbLine
 10
30.0
 20
19.0
 11
90.0
 21
19.0
  0
ARC
  5
70
330
20
100
AcDbEntity
  8
0
  6
CONTINUOUS
 62
     1
100
AcDbCircle
 10
22.85857157145715
 20
-12.0
 40
10.0
100
AcDbArc
 50
270.0
 51
315.5729959991943
  0
LINE
  5
71
330
20
100
AcDbEntity
  8
0
  6
CONTINUOUS
 62
     1
100
AcDbLine
 10
30.0
 20
-19.0
 11
90.0
 21
-19.0
  0
LINE
  5
72
330
20
100
AcDbEntity
  8
0
  6
CONTINUOUS
 62
     1
100
AcDbLine
 10
-32.0
 20
22.0
 11
22.85857157145715
 21
22.0
  0
LINE
  5
73
330
20
100
AcDbEntity
  8
0
  6
CONTINUOUS
 62
     1
100
AcDbLine
 10
-32.0
 20
-22.0
 11
22.85857157145715
 21
-22.0
  0
LINE
  5
74
330
20
100
AcDbEntity
  8
0
  6
CONTINUOUS
 62
     1
100
AcDbLine
 10
90.0
 20
-20.5
 11
100.0
 21
-20.5
  0
LINE
  5
75
330
20
100
AcDbEntity
  8
0
  6
CONTINUOUS
 62
     1
100
AcDbLine
 10
90.0
 20
-29.5
 11
100.0
 21
-29.5
  0
LINE
  5
76
330
20
100
AcDbEntity
  8
0
  6
CONTINUOUS
 62
     1
100
AcDbLine
 10
100.0
 20
-29.5
 11
100.0
 21
-20.5
  0
LINE
  5
77
330
20
100
AcDbEntity
  8
0
  6
CONTINUOUS
 62
     1
100
AcDbLine
 10
100.0
 20
-21.5
 11
114.9999999999998
 21
-21.5
  0
LINE
  5
78
330
20
100
AcDbEntity
  8
0
  6
CONTINUOUS
 62
     1
100
AcDbLine
 10
100.0
 20
-28.5
 11
115.0237103844403
 21
-28.5
  0
SPLINE
  5
79
330
20
100
AcDbEntity
  8
0
  6
CONTINUOUS
 62
     1
100
AcDbSpline
210
0.0
220
0.0
230
1.0
 70
     8
 71
     3
 72
    13
 73
     9
 74
     0
 42
1.000000000000000E-007
 43
1.000000000000000E-007
 40
0.0
 40
0.0
 40
0.0
 40
0.0
 40
2.046753663441609
 40
4.123976249386768
 40
6.198375796542283
 40
8.353678387702733
 40
10.53721605557729
 40
12.59944819227654
 40
12.59944819227654
 40
12.59944819227654
 40
12.59944819227654
 10
115.0
 20
-21.50000000000017
 30
0.0
 10
115.3170731707317
 20
-21.86611130195759
 30
0.0
 10
116.5853658536585
 20
-23.33055650979048
 30
0.0
 10
114.9756097560972
 20
-25.04388526279667
 30
0.0
 10
113.5121951219512
 20
-26.49390243902431
 30
0.0
 10
114.9756097560976
 20
-29.48050498110612
 30
0.0
 10
116.5853658536585
 20
-26.58407763655098
 30
0.0
 10
115.3170731707317
 20
-25.31681552731016
 30
0.0
 10
115.0
 20
-25.0
 30
0.0
  0
LINE
  5
7A
330
20
100
AcDbEntity
  8
0
  6
CONTINUOUS
 62
     1
100
AcDbLine
 10
191.2917130661303
 20
-171.5
 11
228.7082869338697
 21
-171.5
  0
LINE
  5
7B
330
20
100
AcDbEntity
  8
0
  6
CONTINUOUS
 62
     1
100
AcDbLine
 10
174.0
 20
-128.5
 11
174.0
 21
-149.5
  0
LINE
  5
7C
330
20
100
AcDbEntity
  8
0
  6
CONTINUOUS
 62
     1
100
AcDbLine
 10
191.2917130661303
 20
-106.5
 11
228.7082869338697
 21
-106.5
  0
ARC
  5
7D
330
20
100
AcDbEntity
  8
0
  6
CONTINUOUS
 62
     1
100
AcDbCircle
 10
210.0
 20
-139.0
 40
37.5
100
AcDbArc
 50
119.9264348666143
 51
163.739795291688
  0
ARC
  5
7E
330
20
100
AcDbEntity
  8
0
  6
CONTINUOUS
 62
     1
100
AcDbCircle
 10
210.0
 20
-139.0
 40
37.5
100
AcDbArc
 50
196.260204708312
 51
240.0735651333857
  0
CIRCLE
  5
7F
330
20
100
AcDbEntity
  8
0
  6
CONTINUOUS
 62
     1
100
AcDbCircle
 10
185.0
 20
-139.0
 40
7.0
  0
CIRCLE
  5
80
330
20
100
AcDbEntity
  8
0
  6
CONTINUOUS
 62
     1
100
AcDbCircle
 10
185.0
 20
-139.0
 40
6.0
  0
CIRCLE
  5
81
330
20
100
AcDbEntity
  8
0
  6
CONTINUOUS
 62
     1
100
AcDbCircle
 10
185.0
 20
-139.0
 40
3.5
  0
LINE
  5
82
330
20
100
AcDbEntity
  8
0
  6
CONTINUOUS
 62
     1
100
AcDbLine
 10
-159.0
 20
-128.5
 11
-159.0
 21
-149.5
  0
LINE
  5
83
330
20
100
AcDbEntity
  8
0
  6
CONTINUOUS
 62
     1
100
AcDbLine
 10
-213.7082869338697
 20
-171.5
 11
-176.2917130661303
 21
-171.5
  0
ARC
  5
84
330
20
100
AcDbEntity
  8
0
  6
CONTINUOUS
 62
     1
100
AcDbCircle
 10
-195.0
 20
-139.0
 40
37.5
100
AcDbArc
 50
196.260204708312
 51
240.0735651333857
  0
ARC
  5
85
330
20
100
AcDbEntity
  8
0
  6
CONTINUOUS
 62
     1
100
AcDbCircle
 10
-195.0
 20
-139.0
 40
37.5
100
AcDbArc
 50
299.9264348666143
 51
343.739795291688
  0
LINE
  5
86
330
20
100
AcDbEntity
  8
0
  6
CONTINUOUS
 62
     1
100
AcDbLine
 10
-218.1516738055805
 20
-109.5
 11
-171.8483261944195
 21
-109.5
  0
ARC
  5
87
330
20
100
AcDbEntity
  8
0
  6
CONTINUOUS
 62
     1
100
AcDbCircle
 10
-195.0
 20
-139.0
 40
37.50000000000001
100
AcDbArc
 50
128.1249116220399
 51
163.739795291688
  0
ARC
  5
88
330
20
100
AcDbEntity
  8
0
  6
CONTINUOUS
 62
     1
100
AcDbCircle
 10
-195.0
 20
-139.0
 40
37.5
100
AcDbArc
 50
16.26020470831196
 51
51.87508837796014
  0
LINE
  5
89
330
20
100
AcDbEntity
  8
0
  6
CONTINUOUS
 62
     1
100
AcDbLine
 10
-214.0
 20
-106.5
 11
-176.0
 21
-106.5
  0
LINE
  5
8A
330
20
100
AcDbEntity
  8
0
  6
CONTINUOUS
 62
     1
100
AcDbLine
 10
-176.0
 20
-106.5
 11
-176.0
 21
-109.5
  0
LINE
  5
8B
330
20
100
AcDbEntity
  8
0
  6
CONTINUOUS
 62
     1
100
AcDbLine
 10
-214.0
 20
-106.5
 11
-214.0
 21
-109.5
  0
HATCH
  5
8C
330
20
100
AcDbEntity
  8
0
  6
CONTINUOUS
 62
     1
100
AcDbHatch
 10
0.0
 20
0.0
 30
0.0
210
0.0
220
0.0
230
1.0
  2
_U
 70
     0
 71
     0
 91
        1
 92
        5
 93
        5
 72
     1
 10
-15.0
 20
-134.0
 11
5.0
 21
-134.0
 72
     1
 10
-15.0
 20
-144.0
 11
5.0
 21
-144.0
 72
     2
 10
5.0
 20
-139.0
 40
5.0
 50
270.0
 51
360.0
 73
     1
 72
     2
 10
5.0
 20
-139.0
 40
5.0
 50
0.0
 51
90.0
 73
     1
 72
     2
 10
-15.0
 20
-139.0
 40
5.0
 50
90.0
 51
270.0
 73
     1
 97
        0
 75
     0
 76
     0
 52
45.0
 41
0.699999988079071
 77
     0
 78
     1
 53
45.0
 43
0.0
 44
-139.0
 45
-0.4949747384012135
 46
0.4949747384012255
 79
     0
 47
0.322189
 98
        1
 10
0.0
 20
0.0
  0
HATCH
  5
8D
330
20
100
AcDbEntity
  8
0
  6
CONTINUOUS
 62
     1
100
AcDbHatch
 10
0.0
 20
0.0
 30
0.0
210
0.0
220
0.0
230
1.0
  2
_U
 70
     0
 71
     0
 91
        1
 92
        5
 93
        5
 72
     2
 10
37.5
 20
-139.0
 40
12.5
 50
90.0
 51
270.0
 73
     1
 72
     1
 10
37.5
 20
-151.5
 11
62.5
 21
-151.5
 72
     2
 10
62.5
 20
-139.0
 40
12.5
 50
270.0
 51
360.0
 73
     1
 72
     2
 10
62.5
 20
-139.0
 40
12.5
 50
0.0
 51
90.0
 73
     1
 72
     1
 10
37.5
 20
-126.5
 11
62.5
 21
-126.5
 97
        0
 75
     0
 76
     0
 52
45.0
 41
0.699999988079071
 77
     0
 78
     1
 53
45.0
 43
0.0
 44
-139.0
 45
-0.4949747384012135
 46
0.4949747384012255
 79
     0
 47
0.322189
 98
        1
 10
0.0
 20
0.0
  0
LINE
  5
8E
330
20
100
AcDbEntity
  8
0
  6
CENTER
 62
     1
100
AcDbLine
 10
170.8571424484253
 20
-139.0
 11
199.1428575515747
 21
-139.0
  0
LINE
  5
8F
330
20
100
AcDbEntity
  8
0
  6
CONTINUOUS
 62
     1
100
AcDbLine
 10
90.0
 20
161.5
 11
90.0
 21
96.5
  0
LINE
  5
90
330
20
100
AcDbEntity
  8
0
  6
CONTINUOUS
 62
     1
100
AcDbLine
 10
-90.0
 20
161.5
 11
-90.0
 21
96.5
  0
ARC
  5
91
330
20
100
AcDbEntity
  8
0
  6
CONTINUOUS
 62
     1
100
AcDbCircle
 10
-33.38562172233853
 20
89.0
 40
9.999999999999996
100
AcDbArc
 50
90.0
 51
131.4096221092709
  0
LINE
  5
92
330
20
100
AcDbEntity
  8
0
  6
CONTINUOUS
 62
     1
100
AcDbLine
 10
-33.38562172233853
 20
99.5
 11
-33.38562172233853
 21
99.0
  0
ARC
  5
93
330
20
100
AcDbEntity
  8
0
  6
CONTINUOUS
 62
     1
100
AcDbCircle
 10
23.38562172233853
 20
89.0
 40
9.999999999999996
100
AcDbArc
 50
48.59037789072916
 51
90.0
  0
LINE
  5
94
330
20
100
AcDbEntity
  8
0
  6
CONTINUOUS
 62
     1
100
AcDbLine
 10
-90.0
 20
99.5
 11
-33.38562172233853
 21
99.5
  0
LINE
  5
95
330
20
100
AcDbEntity
  8
0
  6
CONTINUOUS
 62
     1
100
AcDbLine
 10
-33.38562172233853
 20
99.0
 11
23.38562172233853
 21
99.0
  0
LINE
  5
96
330
20
100
AcDbEntity
  8
0
  6
CONTINUOUS
 62
     1
100
AcDbLine
 10
-15.0
 20
124.0
 11
5.0
 21
124.0
  0
LINE
  5
97
330
20
100
AcDbEntity
  8
0
  6
CONTINUOUS
 62
     1
100
AcDbLine
 10
-15.0
 20
134.0
 11
5.0
 21
134.0
  0
ARC
  5
98
330
20
100
AcDbEntity
  8
0
  6
CONTINUOUS
 62
     1
100
AcDbCircle
 10
5.0
 20
129.0
 40
5.0
100
AcDbArc
 50
270.0
 51
0.0
  0
ARC
  5
99
330
20
100
AcDbEntity
  8
0
  6
CONTINUOUS
 62
     1
100
AcDbCircle
 10
5.0
 20
129.0
 40
5.0
100
AcDbArc
 50
0.0
 51
90.0
  0
ARC
  5
9A
330
20
100
AcDbEntity
  8
0
  6
CONTINUOUS
 62
     1
100
AcDbCircle
 10
-15.0
 20
129.0
 40
5.0
100
AcDbArc
 50
90.0
 51
270.0
  0
ARC
  5
9B
330
20
100
AcDbEntity
  8
0
  6
CONTINUOUS
 62
     1
100
AcDbCircle
 10
10.0
 20
111.0
 40
9.0
100
AcDbArc
 50
198.026844150455
 51
0.0
  0
ARC
  5
9C
330
20
100
AcDbEntity
  8
0
  6
CONTINUOUS
 62
     1
100
AcDbCircle
 10
10.0
 20
111.0
 40
8.999999999999995
100
AcDbArc
 50
0.0
 51
135.7051112367524
  0
ARC
  5
9D
330
20
100
AcDbEntity
  8
0
  6
CONTINUOUS
 62
     1
100
AcDbCircle
 10
-5.0
 20
114.5
 40
8.999999999999998
100
AcDbArc
 50
18.026844150455
 51
161.973155849545
  0
ARC
  5
9E
330
20
100
AcDbEntity
  8
0
  6
CONTINUOUS
 62
     1
100
AcDbCircle
 10
-5.0
 20
114.5
 40
8.999999999999998
100
AcDbArc
 50
224.2948887632476
 51
315.7051112367524
  0
ARC
  5
9F
330
20
100
AcDbEntity
  8
0
  6
CONTINUOUS
 62
     1
100
AcDbCircle
 10
-20.0
 20
111.0
 40
8.999999999999998
100
AcDbArc
 50
44.29488876324763
 51
341.973155849545
  0
LINE
  5
A0
330
20
100
AcDbEntity
  8
0
  6
CONTINUOUS
 62
     1
100
AcDbLine
 10
-90.0
 20
119.0
 11
-24.12310562561765
 21
119.0
  0
ARC
  5
A1
330
20
100
AcDbEntity
  8
0
  6
CONTINUOUS
 62
     1
100
AcDbCircle
 10
10.0
 20
147.0
 40
9.0
100
AcDbArc
 50
0.0
 51
161.973155849545
  0
ARC
  5
A2
330
20
100
AcDbEntity
  8
0
  6
CONTINUOUS
 62
     1
100
AcDbCircle
 10
10.0
 20
147.0
 40
8.999999999999995
100
AcDbArc
 50
224.2948887632477
 51
0.0
  0
ARC
  5
A3
330
20
100
AcDbEntity
  8
0
  6
CONTINUOUS
 62
     1
100
AcDbCircle
 10
-5.0
 20
143.5
 40
8.999999999999998
100
AcDbArc
 50
198.026844150455
 51
341.973155849545
  0
ARC
  5
A4
330
20
100
AcDbEntity
  8
0
  6
CONTINUOUS
 62
     1
100
AcDbCircle
 10
-20.0
 20
147.0
 40
8.999999999999998
100
AcDbArc
 50
18.02684415045497
 51
315.7051112367523
  0
ARC
  5
A5
330
20
100
AcDbEntity
  8
0
  6
CONTINUOUS
 62
     1
100
AcDbCircle
 10
-5.0
 20
143.5
 40
8.999999999999998
100
AcDbArc
 50
44.2948887632477
 51
135.7051112367523
  0
LINE
  5
A6
330
20
100
AcDbEntity
  8
0
  6
CONTINUOUS
 62
     1
100
AcDbLine
 10
-90.0
 20
139.0
 11
-24.12310562561765
 21
139.0
  0
LINE
  5
A7
330
20
100
AcDbEntity
  8
0
  6
CONTINUOUS
 62
     1
100
AcDbLine
 10
30.0
 20
96.5
 11
90.0
 21
96.5
  0
LINE
  5
A8
330
20
100
AcDbEntity
  8
0
  6
CONTINUOUS
 62
     1
100
AcDbLine
 10
-90.0
 20
96.5
 11
-40.0
 21
96.5
  0
LINE
  5
A9
330
20
100
AcDbEntity
  8
0
  6
CONTINUOUS
 62
     1
100
AcDbLine
 10
30.0
 20
161.5
 11
90.0
 21
161.5
  0
ARC
  5
AA
330
20
100
AcDbEntity
  8
0
  6
CONTINUOUS
 62
     1
100
AcDbCircle
 10
23.38562172233853
 20
169.0
 40
9.999999999999996
100
AcDbArc
 50
270.0
 51
311.4096221092709
  0
LINE
  5
AB
330
20
100
AcDbEntity
  8
0
  6
CONTINUOUS
 62
     1
100
AcDbLine
 10
-33.38562172233853
 20
159.0
 11
23.38562172233853
 21
159.0
  0
ARC
  5
AC
330
20
100
AcDbEntity
  8
0
  6
CONTINUOUS
 62
     1
100
AcDbCircle
 10
-33.38562172233853
 20
169.0
 40
9.999999999999996
100
AcDbArc
 50
228.5903778907291
 51
270.0
  0
LINE
  5
AD
330
20
100
AcDbEntity
  8
0
  6
CONTINUOUS
 62
     1
100
AcDbLine
 10
-90.0
 20
161.5
 11
-40.0
 21
161.5
  0
LINE
  5
AE
330
20
100
AcDbEntity
  8
0
  6
CONTINUOUS
 62
     1
100
AcDbLine
 10
-20.0
 20
138.0
 11
-20.0
 21
120.0
  0
LINE
  5
AF
330
20
100
AcDbEntity
  8
0
  6
CONTINUOUS
 62
     1
100
AcDbLine
 10
10.0
 20
138.0
 11
10.0
 21
120.0
  0
LINE
  5
B0
330
20
100
AcDbEntity
  8
0
  6
CONTINUOUS
 62
     1
100
AcDbLine
 10
90.0
 20
124.5
 11
100.0
 21
124.5
  0
LINE
  5
B1
330
20
100
AcDbEntity
  8
0
  6
CONTINUOUS
 62
     1
100
AcDbLine
 10
90.0
 20
133.5
 11
100.0
 21
133.5
  0
LINE
  5
B2
330
20
100
AcDbEntity
  8
0
  6
CONTINUOUS
 62
     1
100
AcDbLine
 10
100.0
 20
133.5
 11
100.0
 21
124.5
  0
SPLINE
  5
B3
330
20
100
AcDbEntity
  8
0
  6
CONTINUOUS
 62
     1
100
AcDbSpline
210
0.0
220
0.0
230
1.0
 70
     8
 71
     3
 72
    13
 73
     9
 74
     0
 42
1.000000000000000E-007
 43
1.000000000000000E-007
 40
0.0
 40
0.0
 40
0.0
 40
0.0
 40
2.046753663441601
 40
4.123976249386768
 40
6.198375796542273
 40
8.353678387702729
 40
10.53721605557726
 40
12.59944819227655
 40
12.59944819227655
 40
12.59944819227655
 40
12.59944819227655
 10
115.0
 20
125.5000000000002
 30
0.0
 10
115.3170731707317
 20
125.8661113019576
 30
0.0
 10
116.5853658536585
 20
127.3305565097905
 30
0.0
 10
114.9756097560976
 20
129.0438852627963
 30
0.0
 10
113.5121951219512
 20
130.4939024390243
 30
0.0
 10
114.9756097560976
 20
133.480504981106
 30
0.0
 10
116.5853658536586
 20
130.584077636551
 30
0.0
 10
115.3170731707317
 20
129.3168155273102
 30
0.0
 10
115.0
 20
129.0
 30
0.0
  0
LINE
  5
B4
330
20
100
AcDbEntity
  8
0
  6
CONTINUOUS
 62
     1
100
AcDbLine
 10
100.0
 20
125.5
 11
114.9999999999998
 21
125.5
  0
LINE
  5
B5
330
20
100
AcDbEntity
  8
0
  6
CONTINUOUS
 62
     1
100
AcDbLine
 10
100.0
 20
132.5
 11
115.0237103844403
 21
132.5
  0
HATCH
  5
B6
330
20
100
AcDbEntity
  8
0
  6
CONTINUOUS
 62
     1
100
AcDbHatch
 10
0.0
 20
0.0
 30
0.0
210
0.0
220
0.0
230
1.0
  2
_U
 70
     0
 71
     0
 91
        1
 92
        5
 93
        5
 72
     1
 10
-15.0
 20
124.0
 11
5.0
 21
124.0
 72
     1
 10
-15.0
 20
134.0
 11
5.0
 21
134.0
 72
     2
 10
5.0
 20
129.0
 40
5.0
 50
-90.0
 51
0.0
 73
     0
 72
     2
 10
5.0
 20
129.0
 40
5.0
 50
0.0
 51
90.0
 73
     0
 72
     2
 10
-15.0
 20
129.0
 40
5.0
 50
-270.0
 51
-90.0
 73
     0
 97
        0
 75
     0
 76
     0
 52
45.0
 41
0.699999988079071
 77
     0
 78
     1
 53
45.0
 43
0.0
 44
-149.0
 45
-0.4949747384012135
 46
0.4949747384012255
 79
     0
 47
0.322189
 98
        1
 10
0.0
 20
0.0
  0
INSERT
  5
B8
330
20
100
AcDbEntity
  8
0
  6
CONTINUOUS
 62
     1
100
AcDbBlockReference
  2
K100001-1_0001
 10
-195.0
 20
-139.0
 41
1.0
 42
1.0
 50
0.0
  0
INSERT
  5
C1
330
20
100
AcDbEntity
  8
0
  6
CONTINUOUS
 62
     1
100
AcDbBlockReference
  2
OIMLNAME_BIG_0002
 10
50.0
 20
129.0
 41
1.0
 42
1.0
 50
0.0
  0
LINE
  5
EC
330
20
100
AcDbEntity
  8
0
  6
CONTINUOUS
 62
     1
100
AcDbLine
 10
14.12310562561765
 20
139.0
 11
22.5
 21
139.0
  0
LINE
  5
ED
330
20
100
AcDbEntity
  8
0
  6
CONTINUOUS
 62
     1
100
AcDbLine
 10
77.5
 20
139.0
 11
90.0
 21
139.0
  0
LINE
  5
EE
330
20
100
AcDbEntity
  8
0
  6
CONTINUOUS
 62
     1
100
AcDbLine
 10
14.12310562561765
 20
119.0
 11
22.5
 21
119.0
  0
LINE
  5
EF
330
20
100
AcDbEntity
  8
0
  6
CONTINUOUS
 62
     1
100
AcDbLine
 10
77.5
 20
119.0
 11
90.0
 21
119.0
  0
TEXT
  5
F0
330
20
100
AcDbEntity
  8
0
  6
CONTINUOUS
 62
     1
100
AcDbText
 10
61.3125
 20
143.5
 40
2.0
 41
0.7236842105263158
 50
180.0
 51
0.0
  7
STANDARD
  1
MADE IN THAILAND
100
AcDbText
  0
ARC
  5
F1
330
20
100
AcDbEntity
  8
0
  6
CONTINUOUS
 62
     1
100
AcDbCircle
 10
210.0
 20
-139.0
 40
37.5
100
AcDbArc
 50
16.26020470831196
 51
60.07356513338575
  0
ARC
  5
F2
330
20
100
AcDbEntity
  8
0
  6
CONTINUOUS
 62
     1
100
AcDbCircle
 10
210.0
 20
-139.0
 40
37.5
100
AcDbArc
 50
299.9264348666143
 51
343.739795291688
  0
LINE
  5
F3
330
20
100
AcDbEntity
  8
0
  6
CONTINUOUS
 62
     1
100
AcDbLine
 10
246.0
 20
-128.5
 11
246.0
 21
-149.5
  0
LINE
  5
F4
330
20
100
AcDbEntity
  8
0
  6
CONTINUOUS
 62
     1
100
AcDbLine
 10
-231.0
 20
-128.5
 11
-231.0
 21
-149.5
  0
ENDSEC
  0
SECTION
  2
OBJECTS
  0
DICTIONARY
  5
C
100
AcDbDictionary
281
     1
  3
ACAD_GROUP
350
D
  3
ACAD_MLINESTYLE
350
E
  3
ACDBVARIABLEDICTIONARY
350
F5
  3
ACAD_PLOTSTYLENAME
350
F6
  3
ACAD_LAYOUT
350
F7
  3
ACAD_PLOTSETTINGS
350
F8
  0
DICTIONARY
  5
D
102
{ACAD_REACTORS
330
C
102
}
330
C
100
AcDbDictionary
281
     1
  0
DICTIONARY
  5
E
102
{ACAD_REACTORS
330
C
102
}
330
C
100
AcDbDictionary
281
     1
  3
STANDARD
350
13
  0
DICTIONARY
  5
F5
102
{ACAD_REACTORS
330
C
102
}
330
C
100
AcDbDictionary
281
     1
  3
SORTENTS
350
F9
  0
ACDBDICTIONARYWDFLT
  5
F6
102
{ACAD_REACTORS
330
C
102
}
330
C
100
AcDbDictionary
281
     1
  3
Normal
350
FA
100
AcDbDictionaryWithDefault
340
FA
  0
DICTIONARY
  5
F7
102
{ACAD_REACTORS
330
C
102
}
330
C
100
AcDbDictionary
281
     1
  3
Model
350
FB
  0
DICTIONARY
  5
F8
102
{ACAD_REACTORS
330
C
102
}
330
C
100
AcDbDictionary
281
     1
  0
MLINESTYLE
  5
13
102
{ACAD_REACTORS
330
E
102
}
330
E
100
AcDbMlineStyle
  2
STANDARD
 70
     0
  3

 62
   256
 51
90.0
 52
90.0
 71
     2
 49
0.5
 62
   256
  6
BYLAYER
 49
-0.5
 62
   256
  6
BYLAYER
  0
DICTIONARYVAR
  5
F9
102
{ACAD_REACTORS
330
F5
102
}
330
F5
100
DictionaryVariables
280
     0
  1
96
  0
ACDBPLACEHOLDER
  5
FA
102
{ACAD_REACTORS
330
F6
102
}
330
F6
  0
LAYOUT
  5
FB
102
{ACAD_REACTORS
330
F7
102
}
330
F7
100
AcDbPlotSettings
  1

  2

  4

  6

 40
0.0
 41
0.0
 42
0.0
 43
0.0
 44
0.0
 45
0.0
 46
0.0
 47
0.0
 48
0.0
 49
0.0
140
0.0
141
0.0
142
1.0
143
1.0
 70
  1712
 72
     0
 73
     0
 74
     0
  7

 75
     0
147
1.0
148
0.0
149
0.0
100
AcDbLayout
  1
Model
 70
     1
 71
     0
 10
0.0
 20
0.0
 11
297.0
 21
210.0
 12
0.0
 22
0.0
 32
0.0
 14
0.0
 24
0.0
 34
0.0
 15
0.0
 25
0.0
 35
0.0
146
0.0
 13
0.0
 23
0.0
 33
0.0
 16
1.0
 26
0.0
 36
0.0
 17
0.0
 27
1.0
 37
0.0
 76
     0
330
20
  0
ENDSEC
  0
EOF
