  0
SECTION
  2
HEADER
  9
$ACADVER
  1
AC1015
  9
$ACADMAINTVER
 70
     0
  9
$DWGCODEPAGE
  3
ANSI_932
  9
$INSBASE
 10
0.0
 20
0.0
 30
0.0
  9
$EXTMIN
 10
-70.0
 20
-12.5
  9
$EXTMAX
 10
139.0
 20
162.5
  9
$LIMMIN
 10
-70.0
 20
-12.5
  9
$LIMMAX
 10
139.0
 20
162.5
  9
$ORTHOMODE
 70
     0
  9
$REGENMODE
 70
     1
  9
$FILLMODE
 70
     1
  9
$QTEXTMODE
 70
     0
  9
$MIRRTEXT
 70
     1
  9
$LTSCALE
 40
1.0
  9
$OSMODE
 70
     0
  9
$ATTMODE
 70
     1
  9
$TEXTSIZE
 40
3.0
  9
$TRACEWID
 40
0.5
  9
$TEXTSTYLE
  7
STANDARD
  9
$CLAYER
  8
0
  9
$CELTYPE
  6
BYLAYER
  9
$CECOLOR
 62
   256
  9
$CELTSCALE
 40
1.0
  9
$DISPSILH
 70
     0
  9
$DIMSCALE
 40
1.0
  9
$DIMASZ
 40
3.0
  9
$DIMEXO
 40
1.0
  9
$DIMDLI
 40
5.0
  9
$DIMRND
 40
0.0
  9
$DIMDLE
 40
5.0
  9
$DIMEXE
 40
2.0
  9
$DIMTP
 40
0.0
  9
$DIMTM
 40
0.0
  9
$DIMTXT
 40
3.0
  9
$DIMCEN
 40
2.0
  9
$DIMTSZ
 40
0.0
  9
$DIMTOL
 70
     0
  9
$DIMLIM
 70
     0
  9
$DIMTIH
 70
     0
  9
$DIMTOH
 70
     0
  9
$DIMSE1
 70
     0
  9
$DIMSE2
 70
     0
  9
$DIMTAD
 70
     1
  9
$DIMZIN
 70
     8
  9
$DIMBLK
  1

  9
$DIMASO
 70
     1
  9
$DIMSHO
 70
     1
  9
$DIMPOST
  1

  9
$DIMAPOST
  1

  9
$DIMALT
 70
     0
  9
$DIMALTD
 70
     4
  9
$DIMALTF
 40
25.4
  9
$DIMLFAC
 40
1.0
  9
$DIMTOFL
 70
     1
  9
$DIMTVP
 40
1.0
  9
$DIMTIX
 70
     0
  9
$DIMSOXD
 70
     0
  9
$DIMSAH
 70
     0
  9
$DIMBLK1
  1

  9
$DIMBLK2
  1

  9
$DIMSTYLE
  2
ISO-25
  9
$DIMCLRD
 70
     0
  9
$DIMCLRE
 70
     0
  9
$DIMCLRT
 70
     0
  9
$DIMTFAC
 40
1.0
  9
$DIMGAP
 40
0.5
  9
$DIMJUST
 70
     0
  9
$DIMSD1
 70
     0
  9
$DIMSD2
 70
     0
  9
$DIMTOLJ
 70
     1
  9
$DIMTZIN
 70
     1
  9
$DIMALTZ
 70
     0
  9
$DIMALTTZ
 70
     0
  9
$DIMUPT
 70
     0
  9
$DIMDEC
 70
     3
  9
$DIMTDEC
 70
     3
  9
$DIMALTU
 70
     8
  9
$DIMALTTD
 70
     4
  9
$DIMTXSTY
  7
STANDARD
  9
$DIMAUNIT
 70
     0
  9
$DIMADEC
 70
     0
  9
$DIMALTRND
 40
0.0
  9
$DIMAZIN
 70
     0
  9
$DIMDSEP
 70
    46
  9
$DIMATFIT
 70
     3
  9
$DIMFRAC
 70
     0
  9
$DIMLDRBLK
  1

  9
$DIMLUNIT
 70
     2
  9
$DIMLWD
 70
    -2
  9
$DIMLWE
 70
    -2
  9
$DIMTMOVE
 70
     0
  9
$LUNITS
 70
     2
  9
$LUPREC
 70
     4
  9
$SKETCHINC
 40
1.0
  9
$FILLETRAD
 40
0.0
  9
$AUNITS
 70
     0
  9
$AUPREC
 70
     0
  9
$MENU
  1
.
  9
$ELEVATION
 40
0.0
  9
$PELEVATION
 40
0.0
  9
$THICKNESS
 40
0.0
  9
$LIMCHECK
 70
     0
  9
$CHAMFERA
 40
0.0
  9
$CHAMFERB
 40
0.0
  9
$CHAMFERC
 40
0.0
  9
$CHAMFERD
 40
0.0
  9
$SKPOLY
 70
     0
  9
$TDCREATE
 40
2456069.650578704
  9
$TDUCREATE
 40
2456069.650578704
  9
$TDUPDATE
 40
2456069.650578704
  9
$TDUUPDATE
 40
2456069.650578704
  9
$TDINDWG
 40
0.0
  9
$TDUSRTIMER
 40
0.0
  9
$USRTIMER
 70
     1
  9
$ANGBASE
 50
0.0
  9
$ANGDIR
 70
     0
  9
$PDMODE
 70
     0
  9
$PDSIZE
 40
0.0
  9
$PLINEWID
 40
0.0
  9
$SPLFRAME
 70
     0
  9
$SPLINETYPE
 70
     6
  9
$SPLINESEGS
 70
     8
  9
$HANDSEED
  5
BC
  9
$SURFTAB1
 70
     6
  9
$SURFTAB2
 70
     6
  9
$SURFTYPE
 70
     6
  9
$SURFU
 70
     6
  9
$SURFV
 70
     6
  9
$UCSBASE
  2

  9
$UCSNAME
  2

  9
$UCSORG
 10
0.0
 20
0.0
 30
0.0
  9
$UCSXDIR
 10
1.0
 20
0.0
 30
0.0
  9
$UCSYDIR
 10
0.0
 20
1.0
 30
0.0
  9
$UCSORTHOREF
  2

  9
$UCSORTHOVIEW
 70
     0
  9
$UCSORGTOP
 10
0.0
 20
0.0
 30
0.0
  9
$UCSORGBOTTOM
 10
0.0
 20
0.0
 30
0.0
  9
$UCSORGLEFT
 10
0.0
 20
0.0
 30
0.0
  9
$UCSORGRIGHT
 10
0.0
 20
0.0
 30
0.0
  9
$UCSORGFRONT
 10
0.0
 20
0.0
 30
0.0
  9
$UCSORGBACK
 10
0.0
 20
0.0
 30
0.0
  9
$PUCSBASE
  2

  9
$PUCSNAME
  2

  9
$PUCSORG
 10
0.0
 20
0.0
 30
0.0
  9
$PUCSXDIR
 10
1.0
 20
0.0
 30
0.0
  9
$PUCSYDIR
 10
0.0
 20
1.0
 30
0.0
  9
$PUCSORTHOREF
  2

  9
$PUCSORTHOVIEW
 70
     0
  9
$PUCSORGTOP
 10
0.0
 20
0.0
 30
0.0
  9
$PUCSORGBOTTOM
 10
0.0
 20
0.0
 30
0.0
  9
$PUCSORGLEFT
 10
0.0
 20
0.0
 30
0.0
  9
$PUCSORGRIGHT
 10
0.0
 20
0.0
 30
0.0
  9
$PUCSORGFRONT
 10
0.0
 20
0.0
 30
0.0
  9
$PUCSORGBACK
 10
0.0
 20
0.0
 30
0.0
  9
$USERI1
 70
     0
  9
$USERI2
 70
     0
  9
$USERI3
 70
     0
  9
$USERI4
 70
     0
  9
$USERI5
 70
     0
  9
$USERR1
 40
0.0
  9
$USERR2
 40
0.0
  9
$USERR3
 40
0.0
  9
$USERR4
 40
0.0
  9
$USERR5
 40
0.0
  9
$WORLDVIEW
 70
     1
  9
$SHADEDGE
 70
     3
  9
$SHADEDIF
 70
    70
  9
$MAXACTVP
 70
    16
  9
$PINSBASE
 10
0.0
 20
0.0
 30
0.0
  9
$PLIMCHECK
 70
     0
  9
$PEXTMIN
 10
1.000000000000000E+020
 20
1.000000000000000E+020
 30
1.000000000000000E+020
  9
$PEXTMAX
 10
-1.000000000000000E+020
 20
-1.000000000000000E+020
 30
-1.000000000000000E+020
  9
$PLIMMIN
 10
-70.0
 20
-12.5
  9
$PLIMMAX
 10
139.0
 20
162.5
  9
$UNITMODE
 70
     0
  9
$VISRETAIN
 70
     0
  9
$PLINEGEN
 70
     0
  9
$PSLTSCALE
 70
     0
  9
$TREEDEPTH
 70
  3020
  9
$CMLSTYLE
  2
STANDARD
  9
$CMLJUST
 70
     0
  9
$CMLSCALE
 40
1.0
  9
$PROXYGRAPHICS
 70
     1
  9
$MEASUREMENT
 70
     0
  9
$CELWEIGHT
370
    -3
  9
$ENDCAPS
280
     0
  9
$JOINSTYLE
280
     0
  9
$LWDISPLAY
290
     1
  9
$INSUNITS
 70
     0
  9
$HYPERLINKBASE
  1

  9
$STYLESHEET
  1

  9
$XEDIT
290
     1
  9
$CEPSNTYPE
380
     0
  9
$PSTYLEMODE
290
     1
  9
$FINGERPRINTGUID
  2
{6F25CFC2-5053-11D3-9BE9-00805F4AB38E}
  9
$VERSIONGUID
  2
{6F25CFC5-5053-11D3-9BE9-00805F4AB38E}
  9
$EXTNAMES
290
     1
  9
$PSVPSCALE
 40
0.0
  9
$OLESTARTUP
290
     0
  0
ENDSEC
  0
SECTION
  2
CLASSES
  0
CLASS
  1
LWPOLYLINE
  2
AcDbPolyline
  3
AutoCAD 2000
 90
    32768
280
     0
281
     1
  0
CLASS
  1
DICTIONARYVAR
  2
AcDbDictionaryVar
  3
AutoCAD 2000
 90
        0
280
     0
281
     1
  0
CLASS
  1
ACDBDICTIONARYWDFLT
  2
AcDbDictionaryWithDefault
  3
AutoCAD 2000
 90
        0
280
     0
281
     1
  0
CLASS
  1
ACDBPLACEHOLDER
  2
AcDbPlaceHolder
  3
AutoCAD 2000
 90
        0
280
     0
281
     1
  0
CLASS
  1
LAYOUT
  2
AcDbLayout
  3
AutoCAD 2000
 90
        0
280
     0
281
     1
  0
CLASS
  1
HATCH
  2
AcDbHatch
  3
AutoCAD 2000
 90
        0
280
     0
281
     1
  0
ENDSEC
  0
SECTION
  2
TABLES
  0
TABLE
  2
VPORT
  5
8
100
AcDbSymbolTable
 70
     1
  0
VPORT
  5
B3
330
0
100
AcDbSymbolTableRecord
100
AcDbViewportTableRecord
  2
*ACTIVE
 70
     0
 10
0.0
 20
0.0
 11
1.0
 21
1.0
 12
34.5
 22
75.0
 13
0.0
 23
0.0
 14
0.0
 24
0.0
 15
0.0
 25
0.0
 16
0.0
 26
0.0
 36
1.0
 17
0.0
 27
0.0
 37
0.0
 40
175.0
 41
1.5
 42
50.0
 43
0.0
 44
0.0
 50
0.0
 51
0.0
 71
     0
 72
   100
 73
     1
 74
     1
 75
     0
 76
     0
 77
     0
 78
     0
281
     0
 65
     1
110
0.0
120
0.0
130
0.0
111
1.0
121
0.0
131
0.0
112
0.0
122
1.0
132
0.0
 79
     0
146
0.0
  0
ENDTAB
  0
TABLE
  2
LTYPE
  5
5
330
0
100
AcDbSymbolTable
 70
    20
  0
LTYPE
  5
B4
330
5
100
AcDbSymbolTableRecord
100
AcDbLinetypeTableRecord
  2
BYBLOCK
 70
     0
  3

 72
    65
 73
     0
 40
0.0
  0
LTYPE
  5
B5
330
5
100
AcDbSymbolTableRecord
100
AcDbLinetypeTableRecord
  2
BYLAYER
 70
     0
  3

 72
    65
 73
     0
 40
0.0
  0
LTYPE
  5
B6
330
5
100
AcDbSymbolTableRecord
100
AcDbLinetypeTableRecord
  2
CONTINUOUS
 70
    64
  3
solid line
 72
    65
 73
     0
 40
0.0
  0
LTYPE
  5
B7
330
0
100
AcDbSymbolTableRecord
100
AcDbLinetypeTableRecord
  2
CENTER
 70
    64
  3
--- - --- - --- - --- - --- - 
 72
    65
 73
     4
 40
6.0
 49
3.0
 74
     0
 49
-1.0
 74
     0
 49
1.0
 74
     0
 49
-1.0
 74
     0
  0
ENDTAB
  0
TABLE
  2
LAYER
  5
2
330
0
100
AcDbSymbolTable
 70
    20
  0
LAYER
  5
B8
330
2
100
AcDbSymbolTableRecord
100
AcDbLayerTableRecord
  2
0
 70
    64
 62
     7
  6
CONTINUOUS
370
    -3
390
AF
  0
ENDTAB
  0
TABLE
  2
STYLE
  5
3
330
0
100
AcDbSymbolTable
 70
     4
  0
STYLE
  5
B9
330
3
100
AcDbSymbolTableRecord
100
AcDbTextStyleTableRecord
  2
STANDARD
 70
    64
 40
0.0
 41
1.052631578947368
 50
0.0
 71
     0
 42
3.0
  3
monotxt
  4

  0
ENDTAB
  0
TABLE
  2
VIEW
  5
6
330
0
100
AcDbSymbolTable
 70
     0
  0
ENDTAB
  0
TABLE
  2
UCS
  5
7
330
0
100
AcDbSymbolTable
 70
     0
  0
ENDTAB
  0
TABLE
  2
APPID
  5
9
330
0
100
AcDbSymbolTable
 70
     1
  0
APPID
  5
BA
330
9
100
AcDbSymbolTableRecord
100
AcDbRegAppTableRecord
  2
ACAD
 70
     0
  0
ENDTAB
  0
TABLE
  2
DIMSTYLE
  5
A
330
0
100
AcDbSymbolTable
 70
     8
100
AcDbDimStyleTable
 71
     0
  0
DIMSTYLE
105
BB
330
A
100
AcDbSymbolTableRecord
100
AcDbDimStyleTableRecord
  2
ISO-25
 70
     0
  3

  4

  5

  6

  7

 40
1.0
 41
3.0
 42
1.0
 43
5.0
 44
2.0
 45
0.0
 46
5.0
 47
0.0
 48
0.0
140
3.0
141
2.0
142
0.0
143
25.4
144
1.0
145
1.0
146
1.0
147
0.5
 71
     0
 72
     0
 73
     0
 74
     0
 75
     0
 76
     0
 77
     1
 78
     8
170
     0
171
     0
172
     1
173
     0
174
     0
175
     0
176
     0
177
     0
178
     0
270
     2
271
     3
272
     3
273
     8
274
     4
340
B9
275
     0
280
     0
281
     0
282
     0
283
     1
284
     1
285
     0
286
     0
287
     3
288
     0
  0
ENDTAB
  0
TABLE
  2
BLOCK_RECORD
  5
1
330
0
100
AcDbSymbolTable
 70
     2
  0
BLOCK_RECORD
  5
20
330
1
100
AcDbSymbolTableRecord
100
AcDbBlockTableRecord
  2
*MODEL_SPACE
340
B0
  0
BLOCK_RECORD
  5
22
330
1
100
AcDbSymbolTableRecord
100
AcDbBlockTableRecord
  2
*PAPER_SPACE
340
0
  0
ENDTAB
  0
ENDSEC
  0
SECTION
  2
BLOCKS
  0
BLOCK
  5
21
330
20
100
AcDbEntity
  8
0
100
AcDbBlockBegin
  2
*MODEL_SPACE
 70
     0
 10
0.0
 20
0.0
 30
0.0
  3
*MODEL_SPACE
  1

  0
ENDBLK
  5
B1
330
20
100
AcDbEntity
  8
0
100
AcDbBlockEnd
  0
BLOCK
  5
23
330
22
100
AcDbEntity
 67
     1
  8
0
100
AcDbBlockBegin
  2
*PAPER_SPACE
 70
     0
 10
0.0
 20
0.0
 30
0.0
  3
*PAPER_SPACE
  1

  0
ENDBLK
  5
B2
330
22
100
AcDbEntity
 67
     1
  8
0
100
AcDbBlockEnd
  0
ENDSEC
  0
SECTION
  2
ENTITIES
  0
LINE
  5
24
330
20
100
AcDbEntity
  8
0
  6
CONTINUOUS
370
     0
 62
     1
100
AcDbLine
 10
66.0
 20
1.5
 11
89.9999999999996
 21
1.5
  0
LINE
  5
25
330
20
100
AcDbEntity
  8
0
  6
CONTINUOUS
370
     0
 62
     1
100
AcDbLine
 10
66.0
 20
-1.5
 11
89.9999999999996
 21
-1.5
  0
LINE
  5
26
330
20
100
AcDbEntity
  8
0
  6
CONTINUOUS
370
     0
 62
     1
100
AcDbLine
 10
66.0
 20
151.5
 11
89.9999999999996
 21
151.5
  0
LINE
  5
27
330
20
100
AcDbEntity
  8
0
  6
CONTINUOUS
370
     0
 62
     1
100
AcDbLine
 10
66.0
 20
148.5
 11
89.9999999999996
 21
148.5
  0
LINE
  5
28
330
20
100
AcDbEntity
  8
0
  6
CONTINUOUS
370
     0
 62
     1
100
AcDbLine
 10
38.0
 20
102.0
 11
63.0
 21
102.0
  0
ARC
  5
29
330
20
100
AcDbEntity
  8
0
  6
CONTINUOUS
370
     0
 62
     1
100
AcDbCircle
 10
63.0
 20
100.0
 40
2.0
100
AcDbArc
 50
0.0
 51
90.0
  0
ARC
  5
2A
330
20
100
AcDbEntity
  8
0
  6
CONTINUOUS
370
     0
 62
     1
100
AcDbCircle
 10
38.0
 20
100.0
 40
2.0
100
AcDbArc
 50
90.0
 51
180.0
  0
LINE
  5
2B
330
20
100
AcDbEntity
  8
0
  6
CONTINUOUS
370
     0
 62
     1
100
AcDbLine
 10
35.1676192420619
 20
140.0
 11
35.1676192420619
 21
160.0
  0
LINE
  5
2C
330
20
100
AcDbEntity
  8
0
  6
CENTER
370
     0
 62
     1
100
AcDbLine
 10
-70.0
 20
0.0
 11
95.0
 21
0.0
  0
LINE
  5
2D
330
20
100
AcDbEntity
  8
0
  6
CENTER
370
     0
 62
     1
100
AcDbLine
 10
-70.0
 20
85.0
 11
70.0
 21
85.0
  0
LINE
  5
2E
330
20
100
AcDbEntity
  8
0
  6
CONTINUOUS
370
     0
 62
     1
100
AcDbLine
 10
-65.0
 20
70.0
 11
-65.0
 21
100.0
  0
LINE
  5
2F
330
20
100
AcDbEntity
  8
0
  6
CONTINUOUS
370
     0
 62
     1
100
AcDbLine
 10
65.0
 20
70.0
 11
65.0
 21
100.0
  0
LINE
  5
30
330
20
100
AcDbEntity
  8
0
  6
CONTINUOUS
370
     0
 62
     1
100
AcDbLine
 10
-65.0
 20
-11.0
 11
-65.0
 21
11.0
  0
LINE
  5
31
330
20
100
AcDbEntity
  8
0
  6
CONTINUOUS
370
     0
 62
     1
100
AcDbLine
 10
40.0
 20
11.0
 11
65.0
 21
11.0
  0
LINE
  5
32
330
20
100
AcDbEntity
  8
0
  6
CONTINUOUS
370
     0
 62
     1
100
AcDbLine
 10
-65.0
 20
100.0
 11
65.0
 21
100.0
  0
LINE
  5
33
330
20
100
AcDbEntity
  8
0
  6
CONTINUOUS
370
     0
 62
     1
100
AcDbLine
 10
-65.0
 20
70.0
 11
65.0
 21
70.0
  0
CIRCLE
  5
34
330
20
100
AcDbEntity
  8
0
  6
CONTINUOUS
370
     0
 62
     1
100
AcDbCircle
 10
53.0
 20
92.5
 40
3.0
  0
CIRCLE
  5
35
330
20
100
AcDbEntity
  8
0
  6
CONTINUOUS
370
     0
 62
     1
100
AcDbCircle
 10
53.0
 20
77.5
 40
3.0
  0
CIRCLE
  5
36
330
20
100
AcDbEntity
  8
0
  6
CONTINUOUS
370
     0
 62
     1
100
AcDbCircle
 10
-53.0
 20
92.5
 40
3.0
  0
CIRCLE
  5
37
330
20
100
AcDbEntity
  8
0
  6
CONTINUOUS
370
     0
 62
     1
100
AcDbCircle
 10
-53.0
 20
77.5
 40
3.0
  0
CIRCLE
  5
38
330
20
100
AcDbEntity
  8
0
  6
CONTINUOUS
370
     0
 62
     1
100
AcDbCircle
 10
53.0
 20
92.5
 40
2.5
  0
CIRCLE
  5
39
330
20
100
AcDbEntity
  8
0
  6
CONTINUOUS
370
     0
 62
     1
100
AcDbCircle
 10
53.0
 20
77.5
 40
2.5
  0
CIRCLE
  5
3A
330
20
100
AcDbEntity
  8
0
  6
CONTINUOUS
370
     0
 62
     1
100
AcDbCircle
 10
-53.0
 20
92.5
 40
2.5
  0
CIRCLE
  5
3B
330
20
100
AcDbEntity
  8
0
  6
CONTINUOUS
370
     0
 62
     1
100
AcDbCircle
 10
-53.0
 20
77.5
 40
2.5
  0
LINE
  5
3C
330
20
100
AcDbEntity
  8
0
  6
CONTINUOUS
370
     0
 62
     1
100
AcDbLine
 10
-13.6557112297753
 20
4.0
 11
13.6557112297753
 21
4.0
  0
LINE
  5
3D
330
20
100
AcDbEntity
  8
0
  6
CONTINUOUS
370
     0
 62
     1
100
AcDbLine
 10
-13.6557112297753
 20
-4.0
 11
13.6557112297753
 21
-4.0
  0
LINE
  5
3E
330
20
100
AcDbEntity
  8
0
  6
CONTINUOUS
370
     0
 62
     1
100
AcDbLine
 10
-40.0
 20
70.0
 11
-40.0
 21
100.0
  0
LINE
  5
3F
330
20
100
AcDbEntity
  8
0
  6
CONTINUOUS
370
     0
 62
     1
100
AcDbLine
 10
40.0
 20
70.0
 11
40.0
 21
100.0
  0
ARC
  5
40
330
20
100
AcDbEntity
  8
0
  6
CONTINUOUS
370
     0
 62
     1
100
AcDbCircle
 10
36.1270166537926
 20
18.0
 40
8.0
100
AcDbArc
 50
270.0
 51
298.9550243718597
  0
LINE
  5
41
330
20
100
AcDbEntity
  8
0
  6
CONTINUOUS
370
     0
 62
     1
100
AcDbLine
 10
-36.1270166537926
 20
10.0
 11
36.1270166537926
 21
10.0
  0
LINE
  5
42
330
20
100
AcDbEntity
  8
0
  6
CONTINUOUS
370
     0
 62
     1
100
AcDbLine
 10
-40.0
 20
11.0
 11
-65.0
 21
11.0
  0
LINE
  5
43
330
20
100
AcDbEntity
  8
0
  6
CONTINUOUS
370
     0
 62
     1
100
AcDbLine
 10
40.0
 20
-11.0
 11
65.0
 21
-11.0
  0
LINE
  5
44
330
20
100
AcDbEntity
  8
0
  6
CONTINUOUS
370
     0
 62
     1
100
AcDbLine
 10
-40.0
 20
-11.0
 11
-65.0
 21
-11.0
  0
ARC
  5
45
330
20
100
AcDbEntity
  8
0
  6
CONTINUOUS
370
     0
 62
     1
100
AcDbCircle
 10
20.0
 20
0.0
 40
7.49999999999999
100
AcDbArc
 50
212.2309526355024
 51
147.7690473644977
  0
ARC
  5
46
330
20
100
AcDbEntity
  8
0
  6
CONTINUOUS
370
     0
 62
     1
100
AcDbCircle
 10
-20.0
 20
0.0
 40
7.49999999999999
100
AcDbArc
 50
32.23095263550236
 51
327.7690473644976
  0
LINE
  5
47
330
20
100
AcDbEntity
  8
0
  6
CONTINUOUS
370
     0
 62
     1
100
AcDbLine
 10
-65.0
 20
161.0
 11
-65.0
 21
139.0
  0
LINE
  5
48
330
20
100
AcDbEntity
  8
0
  6
CONTINUOUS
370
     0
 62
     1
100
AcDbLine
 10
65.0
 20
161.0
 11
65.0
 21
139.0
  0
LINE
  5
49
330
20
100
AcDbEntity
  8
0
  6
CONTINUOUS
370
     0
 62
     1
100
AcDbLine
 10
40.0
 20
139.0
 11
65.0
 21
139.0
  0
LINE
  5
4A
330
20
100
AcDbEntity
  8
0
  6
CONTINUOUS
370
     0
 62
     1
100
AcDbLine
 10
-40.0
 20
139.0
 11
-65.0
 21
139.0
  0
LINE
  5
4B
330
20
100
AcDbEntity
  8
0
  6
CONTINUOUS
370
     0
 62
     1
100
AcDbLine
 10
40.0
 20
161.0
 11
65.0
 21
161.0
  0
LINE
  5
4C
330
20
100
AcDbEntity
  8
0
  6
CONTINUOUS
370
     0
 62
     1
100
AcDbLine
 10
-40.0
 20
161.0
 11
-65.0
 21
161.0
  0
LINE
  5
4D
330
20
100
AcDbEntity
  8
0
  6
CONTINUOUS
370
     0
 62
     1
100
AcDbLine
 10
-13.6557112297753
 20
154.0
 11
13.6557112297753
 21
154.0
  0
LINE
  5
4E
330
20
100
AcDbEntity
  8
0
  6
CONTINUOUS
370
     0
 62
     1
100
AcDbLine
 10
-13.6557112297753
 20
146.0
 11
13.6557112297753
 21
146.0
  0
ARC
  5
4F
330
20
100
AcDbEntity
  8
0
  6
CONTINUOUS
370
     0
 62
     1
100
AcDbCircle
 10
-20.0
 20
150.0
 40
7.49999999999999
100
AcDbArc
 50
32.23095263550236
 51
327.7690473644976
  0
ARC
  5
50
330
20
100
AcDbEntity
  8
0
  6
CONTINUOUS
370
     0
 62
     1
100
AcDbCircle
 10
20.0
 20
150.0
 40
7.49999999999999
100
AcDbArc
 50
212.2309526355024
 51
147.7690473644977
  0
LINE
  5
51
330
20
100
AcDbEntity
  8
0
  6
CENTER
370
     0
 62
     1
100
AcDbLine
 10
-20.0
 20
137.5
 11
-20.0
 21
162.5
  0
LINE
  5
52
330
20
100
AcDbEntity
  8
0
  6
CENTER
370
     0
 62
     1
100
AcDbLine
 10
20.0
 20
137.5
 11
20.0
 21
162.5
  0
LINE
  5
53
330
20
100
AcDbEntity
  8
0
  6
CENTER
370
     0
 62
     1
100
AcDbLine
 10
-20.0
 20
-12.5
 11
-20.0
 21
12.5
  0
LINE
  5
54
330
20
100
AcDbEntity
  8
0
  6
CENTER
370
     0
 62
     1
100
AcDbLine
 10
20.0
 20
-12.5
 11
20.0
 21
12.5
  0
LINE
  5
55
330
20
100
AcDbEntity
  8
0
  6
CENTER
370
     0
 62
     1
100
AcDbLine
 10
53.0
 20
100.5
 11
53.0
 21
69.5
  0
LINE
  5
56
330
20
100
AcDbEntity
  8
0
  6
CENTER
370
     0
 62
     1
100
AcDbLine
 10
45.0
 20
92.5
 11
61.0
 21
92.5
  0
LINE
  5
57
330
20
100
AcDbEntity
  8
0
  6
CENTER
370
     0
 62
     1
100
AcDbLine
 10
45.0
 20
77.5
 11
61.0
 21
77.5
  0
LINE
  5
58
330
20
100
AcDbEntity
  8
0
  6
CENTER
370
     0
 62
     1
100
AcDbLine
 10
-53.0
 20
100.5
 11
-53.0
 21
69.5
  0
LINE
  5
59
330
20
100
AcDbEntity
  8
0
  6
CENTER
370
     0
 62
     1
100
AcDbLine
 10
-61.0
 20
92.5
 11
-45.0
 21
92.5
  0
LINE
  5
5A
330
20
100
AcDbEntity
  8
0
  6
CENTER
370
     0
 62
     1
100
AcDbLine
 10
-61.0
 20
77.5
 11
-45.0
 21
77.5
  0
LINE
  5
5B
330
20
100
AcDbEntity
  8
0
  6
CONTINUOUS
370
     0
 62
     1
100
AcDbLine
 10
-40.0
 20
11.0
 11
40.0
 21
11.0
  0
LINE
  5
5C
330
20
100
AcDbEntity
  8
0
  6
CONTINUOUS
370
     0
 62
     1
100
AcDbLine
 10
40.0
 20
-11.0
 11
-40.0
 21
-11.0
  0
LINE
  5
5D
330
20
100
AcDbEntity
  8
0
  6
CONTINUOUS
370
     0
 62
     1
100
AcDbLine
 10
65.0
 20
-11.0
 11
65.0
 21
-2.0
  0
LINE
  5
5E
330
20
100
AcDbEntity
  8
0
  6
CONTINUOUS
370
     0
 62
     1
100
AcDbLine
 10
65.0
 20
2.0
 11
65.0
 21
11.0
  0
ARC
  5
5F
330
20
100
AcDbEntity
  8
0
  6
CONTINUOUS
370
     0
 62
     1
100
AcDbCircle
 10
89.6875000000001
 20
54.7499999999999
 40
0.812499999999886
100
AcDbArc
 50
292.6198649480367
 51
67.38013505199466
  0
ARC
  5
60
330
20
100
AcDbEntity
  8
0
  6
CONTINUOUS
370
     0
 62
     1
100
AcDbCircle
 10
90.3124999999999
 20
54.7499999999999
 40
0.812499999999886
100
AcDbArc
 50
112.6198649480054
 51
247.3801350519634
  0
ARC
  5
61
330
20
100
AcDbEntity
  8
0
  6
CONTINUOUS
370
     0
 62
     1
100
AcDbCircle
 10
89.6875000000001
 20
53.2500000000001
 40
0.812499999999886
100
AcDbArc
 50
292.6198649480053
 51
67.38013505196335
  0
ARC
  5
62
330
20
100
AcDbEntity
  8
0
  6
CONTINUOUS
370
     0
 62
     1
100
AcDbCircle
 10
89.6875000000001
 20
150.75
 40
0.812499999999886
100
AcDbArc
 50
292.619864948034
 51
67.38013505199196
  0
ARC
  5
63
330
20
100
AcDbEntity
  8
0
  6
CONTINUOUS
370
     0
 62
     1
100
AcDbCircle
 10
90.3124999999999
 20
150.75
 40
0.812499999999886
100
AcDbArc
 50
112.6198649480081
 51
247.3801350519661
  0
ARC
  5
64
330
20
100
AcDbEntity
  8
0
  6
CONTINUOUS
370
     0
 62
     1
100
AcDbCircle
 10
89.6875000000001
 20
149.25
 40
0.812499999999886
100
AcDbArc
 50
292.6198649480081
 51
67.38013505196605
  0
ARC
  5
65
330
20
100
AcDbEntity
  8
0
  6
CONTINUOUS
370
     0
 62
     1
100
AcDbCircle
 10
89.6875000000001
 20
0.749999999999922
 40
0.812499999999886
100
AcDbArc
 50
292.6198649480361
 51
67.38013505199407
  0
ARC
  5
66
330
20
100
AcDbEntity
  8
0
  6
CONTINUOUS
370
     0
 62
     1
100
AcDbCircle
 10
90.3124999999999
 20
0.749999999999915
 40
0.812499999999886
100
AcDbArc
 50
112.6198649480057
 51
247.3801350519638
  0
ARC
  5
67
330
20
100
AcDbEntity
  8
0
  6
CONTINUOUS
370
     0
 62
     1
100
AcDbCircle
 10
89.6875000000001
 20
-0.749999999999922
 40
0.812499999999886
100
AcDbArc
 50
292.6198649480059
 51
67.38013505196393
  0
HATCH
  5
68
330
20
100
AcDbEntity
  8
0
  6
CONTINUOUS
370
     0
 62
     1
100
AcDbHatch
 10
0.0
 20
0.0
 30
0.0
210
0.0
220
0.0
230
1.0
  2
_U
 70
     0
 71
     0
 91
        1
 92
        5
 93
        5
 72
     1
 10
65.0
 20
100.0
 11
40.0
 21
100.0
 72
     1
 10
40.0
 20
100.0
 11
36.0
 21
100.0
 72
     2
 10
38.0
 20
100.0
 40
2.0
 50
-180.0
 51
-89.9999999999998
 73
     0
 72
     1
 10
38.0
 20
102.0
 11
63.0
 21
102.0
 72
     2
 10
63.0
 20
100.0
 40
2.0
 50
-90.0
 51
1.989519660128281E-013
 73
     0
 97
        0
 75
     0
 76
     0
 52
-45.0
 41
2.0
 77
     0
 78
     1
 53
-45.0
 43
0.0
 44
15.0
 45
1.414213562373095
 46
1.414213562373096
 79
     0
 47
0.322189
 98
        1
 10
0.0
 20
0.0
  0
LINE
  5
69
330
20
100
AcDbEntity
  8
0
  6
CONTINUOUS
370
     0
 62
     1
100
AcDbLine
 10
111.0
 20
56.0
 11
111.0
 21
52.0
  0
LINE
  5
6A
330
20
100
AcDbEntity
  8
0
  6
CONTINUOUS
370
     0
 62
     1
100
AcDbLine
 10
116.0
 20
56.0
 11
116.0
 21
52.0
  0
LINE
  5
6B
330
20
100
AcDbEntity
  8
0
  6
CONTINUOUS
370
     0
 62
     1
100
AcDbLine
 10
111.0
 20
52.0
 11
116.0
 21
52.0
  0
LINE
  5
6C
330
20
100
AcDbEntity
  8
0
  6
CONTINUOUS
370
     0
 62
     1
100
AcDbLine
 10
91.9999999999998
 20
52.5
 11
111.0
 21
52.5
  0
LINE
  5
6D
330
20
100
AcDbEntity
  8
0
  6
CONTINUOUS
370
     0
 62
     1
100
AcDbLine
 10
92.0
 20
55.5
 11
111.0
 21
55.5
  0
LINE
  5
6E
330
20
100
AcDbEntity
  8
0
  6
CONTINUOUS
370
     0
 62
     1
100
AcDbLine
 10
111.0
 20
56.0
 11
116.0
 21
56.0
  0
ARC
  5
6F
330
20
100
AcDbEntity
  8
0
  6
CONTINUOUS
370
     0
 62
     1
100
AcDbCircle
 10
92.3124999999999
 20
54.7499999999999
 40
0.812499999999886
100
AcDbArc
 50
112.6198649480054
 51
247.3801350519634
  0
ARC
  5
70
330
20
100
AcDbEntity
  8
0
  6
CONTINUOUS
370
     0
 62
     1
100
AcDbCircle
 10
91.6875000000001
 20
53.2500000000001
 40
0.812499999999886
100
AcDbArc
 50
292.6198649480053
 51
67.38013505196335
  0
ARC
  5
71
330
20
100
AcDbEntity
  8
0
  6
CONTINUOUS
370
     0
 62
     1
100
AcDbCircle
 10
92.3124999999999
 20
53.2500000000001
 40
0.812499999999886
100
AcDbArc
 50
112.6198649480367
 51
247.3801350519946
  0
ARC
  5
72
330
20
100
AcDbEntity
  8
0
  6
CONTINUOUS
370
     0
 62
     1
100
AcDbCircle
 10
-36.1270166537926
 20
18.0
 40
8.0
100
AcDbArc
 50
241.0449756281403
 51
270.0
  0
ARC
  5
73
330
20
100
AcDbEntity
  8
0
  6
CONTINUOUS
370
     0
 62
     1
100
AcDbCircle
 10
36.1270166537926
 20
-18.0
 40
8.0
100
AcDbArc
 50
61.04497562814027
 51
90.0
  0
LINE
  5
74
330
20
100
AcDbEntity
  8
0
  6
CONTINUOUS
370
     0
 62
     1
100
AcDbLine
 10
-36.1270166537926
 20
-10.0
 11
36.1270166537926
 21
-10.0
  0
ARC
  5
75
330
20
100
AcDbEntity
  8
0
  6
CONTINUOUS
370
     0
 62
     1
100
AcDbCircle
 10
-36.1270166537926
 20
-18.0
 40
8.0
100
AcDbArc
 50
90.0
 51
118.9550243718597
  0
HATCH
  5
76
330
20
100
AcDbEntity
  8
0
  6
CONTINUOUS
370
     0
 62
     1
100
AcDbHatch
 10
0.0
 20
0.0
 30
0.0
210
0.0
220
0.0
230
1.0
  2
_U
 70
     0
 71
     0
 91
        1
 92
        5
 93
        4
 72
     2
 10
36.1270166537926
 20
18.0
 40
8.0
 50
-298.9550243718597
 51
-269.9999999999999
 73
     0
 72
     1
 10
36.1270166537926
 20
10.0
 11
-36.1270166537926
 21
10.0
 72
     2
 10
-36.1270166537926
 20
18.0
 40
8.0
 50
-270.0
 51
-241.0449756281402
 73
     0
 72
     1
 10
-40.0
 20
11.0
 11
40.0
 21
11.0
 97
        0
 75
     0
 76
     0
 52
-45.0
 41
2.0
 77
     0
 78
     1
 53
-45.0
 43
0.0
 44
0.0
 45
1.414213562373095
 46
1.414213562373095
 79
     0
 47
0.322189
 98
        1
 10
0.0
 20
0.0
  0
HATCH
  5
77
330
20
100
AcDbEntity
  8
0
  6
CONTINUOUS
370
     0
 62
     1
100
AcDbHatch
 10
0.0
 20
0.0
 30
0.0
210
0.0
220
0.0
230
1.0
  2
_U
 70
     0
 71
     0
 91
        1
 92
        5
 93
        4
 72
     1
 10
-36.1270166537926
 20
-10.0
 11
36.1270166537926
 21
-10.0
 72
     2
 10
36.1270166537926
 20
-18.0
 40
8.0
 50
-90.0
 51
-61.04497562814023
 73
     0
 72
     1
 10
40.0
 20
-11.0
 11
-40.0
 21
-11.0
 72
     2
 10
-36.1270166537926
 20
-18.0
 40
8.0
 50
-118.9550243718597
 51
-89.99999999999992
 73
     0
 97
        0
 75
     0
 76
     0
 52
-45.0
 41
2.0
 77
     0
 78
     1
 53
-45.0
 43
0.0
 44
0.0
 45
1.414213562373095
 46
1.414213562373095
 79
     0
 47
0.322189
 98
        1
 10
0.0
 20
0.0
  0
LINE
  5
78
330
20
100
AcDbEntity
  8
0
  6
CONTINUOUS
370
     0
 62
     1
100
AcDbLine
 10
-40.0
 20
139.0
 11
40.0
 21
139.0
  0
ARC
  5
79
330
20
100
AcDbEntity
  8
0
  6
CONTINUOUS
370
     0
 62
     1
100
AcDbCircle
 10
-36.1270166537926
 20
132.0
 40
8.0
100
AcDbArc
 50
90.0
 51
118.9550243718597
  0
LINE
  5
7A
330
20
100
AcDbEntity
  8
0
  6
CONTINUOUS
370
     0
 62
     1
100
AcDbLine
 10
-36.1270166537926
 20
140.0
 11
36.1270166537926
 21
140.0
  0
HATCH
  5
7B
330
20
100
AcDbEntity
  8
0
  6
CONTINUOUS
370
     0
 62
     1
100
AcDbHatch
 10
0.0
 20
0.0
 30
0.0
210
0.0
220
0.0
230
1.0
  2
_U
 70
     0
 71
     0
 91
        1
 92
        5
 93
        4
 72
     2
 10
36.1270166537926
 20
132.0
 40
8.0
 50
61.04497562814027
 51
90.00000000000004
 73
     1
 72
     1
 10
36.1270166537926
 20
140.0
 11
-36.1270166537926
 21
140.0
 72
     2
 10
-36.1270166537926
 20
132.0
 40
8.0
 50
90.0
 51
118.9550243718598
 73
     1
 72
     1
 10
-40.0
 20
139.0
 11
40.0
 21
139.0
 97
        0
 75
     0
 76
     0
 52
-45.0
 41
2.0
 77
     0
 78
     1
 53
-45.0
 43
0.0
 44
20.0
 45
1.414213562373095
 46
1.414213562373096
 79
     0
 47
0.322189
 98
        1
 10
0.0
 20
0.0
  0
ARC
  5
7C
330
20
100
AcDbEntity
  8
0
  6
CONTINUOUS
370
     0
 62
     1
100
AcDbCircle
 10
36.1270166537926
 20
132.0
 40
8.0
100
AcDbArc
 50
61.04497562814027
 51
90.0
  0
LINE
  5
7D
330
20
100
AcDbEntity
  8
0
  6
CONTINUOUS
370
     0
 62
     1
100
AcDbLine
 10
40.0
 20
161.0
 11
-40.0
 21
161.0
  0
ARC
  5
7E
330
20
100
AcDbEntity
  8
0
  6
CONTINUOUS
370
     0
 62
     1
100
AcDbCircle
 10
36.1270166537926
 20
168.0
 40
8.0
100
AcDbArc
 50
270.0
 51
298.9550243718597
  0
LINE
  5
7F
330
20
100
AcDbEntity
  8
0
  6
CONTINUOUS
370
     0
 62
     1
100
AcDbLine
 10
-36.1270166537926
 20
160.0
 11
36.1270166537926
 21
160.0
  0
HATCH
  5
80
330
20
100
AcDbEntity
  8
0
  6
CONTINUOUS
370
     0
 62
     1
100
AcDbHatch
 10
0.0
 20
0.0
 30
0.0
210
0.0
220
0.0
230
1.0
  2
_U
 70
     0
 71
     0
 91
        1
 92
        5
 93
        4
 72
     1
 10
-36.1270166537926
 20
160.0
 11
36.1270166537926
 21
160.0
 72
     2
 10
36.1270166537926
 20
168.0
 40
8.0
 50
270.0
 51
298.9550243718598
 73
     1
 72
     1
 10
40.0
 20
161.0
 11
-40.0
 21
161.0
 72
     2
 10
-36.1270166537926
 20
168.0
 40
8.0
 50
241.0449756281403
 51
270.0000000000001
 73
     1
 97
        0
 75
     0
 76
     0
 52
-45.0
 41
2.0
 77
     0
 78
     1
 53
-45.0
 43
0.0
 44
20.0
 45
1.414213562373095
 46
1.414213562373096
 79
     0
 47
0.322189
 98
        1
 10
0.0
 20
0.0
  0
ARC
  5
81
330
20
100
AcDbEntity
  8
0
  6
CONTINUOUS
370
     0
 62
     1
100
AcDbCircle
 10
-36.1270166537926
 20
168.0
 40
8.0
100
AcDbArc
 50
241.0449756281403
 51
270.0
  0
HATCH
  5
82
330
20
100
AcDbEntity
  8
0
  6
CONTINUOUS
370
     0
 62
     1
100
AcDbHatch
 10
0.0
 20
0.0
 30
0.0
210
0.0
220
0.0
230
1.0
  2
_U
 70
     0
 71
     0
 91
        1
 92
        5
 93
       10
 72
     1
 10
65.0
 20
161.0
 11
65.0
 21
151.5
 72
     1
 10
65.0
 20
151.5
 11
65.0
 21
148.5
 72
     1
 10
65.0
 20
148.5
 11
65.0
 21
139.0
 72
     1
 10
65.0
 20
139.0
 11
40.0
 21
139.0
 72
     2
 10
36.1270166537926
 20
132.0
 40
8.0
 50
61.04497562814027
 51
90.00000000000004
 73
     1
 72
     1
 10
36.1270166537926
 20
140.0
 11
35.1676192420619
 21
140.0
 72
     1
 10
35.1676192420619
 20
140.0
 11
35.1676192420619
 21
160.0
 72
     1
 10
35.1676192420619
 20
160.0
 11
36.1270166537926
 21
160.0
 72
     2
 10
36.1270166537926
 20
168.0
 40
8.0
 50
270.0
 51
298.9550243718598
 73
     1
 72
     1
 10
40.0
 20
161.0
 11
65.0
 21
161.0
 97
        0
 75
     0
 76
     0
 52
-45.0
 41
2.0
 77
     0
 78
     1
 53
-45.0
 43
0.0
 44
20.0
 45
1.414213562373095
 46
1.414213562373096
 79
     0
 47
0.322189
 98
        1
 10
0.0
 20
0.0
  0
HATCH
  5
83
330
20
100
AcDbEntity
  8
0
  6
CONTINUOUS
370
     0
 62
     1
100
AcDbHatch
 10
0.0
 20
0.0
 30
0.0
210
0.0
220
0.0
230
1.0
  2
_U
 70
     0
 71
     0
 91
        1
 92
        5
 93
        5
 72
     1
 10
-40.0
 20
100.0
 11
36.0
 21
100.0
 72
     1
 10
36.0
 20
100.0
 11
40.0
 21
100.0
 72
     1
 10
40.0
 20
100.0
 11
40.0
 21
70.0
 72
     1
 10
40.0
 20
70.0
 11
-40.0
 21
70.0
 72
     1
 10
-40.0
 20
70.0
 11
-40.0
 21
100.0
 97
        0
 75
     0
 76
     0
 52
45.0
 41
2.0
 77
     0
 78
     1
 53
45.0
 43
0.0
 44
20.0
 45
-1.414213562373095
 46
1.414213562373096
 79
     0
 47
0.322189
 98
        1
 10
0.0
 20
0.0
  0
LINE
  5
84
330
20
100
AcDbEntity
  8
0
  6
CONTINUOUS
370
     0
 62
     1
100
AcDbLine
 10
131.0
 20
54.0
 11
134.0
 21
54.0
  0
LINE
  5
85
330
20
100
AcDbEntity
  8
0
  6
CONTINUOUS
370
     0
 62
     1
100
AcDbLine
 10
116.0
 20
54.5
 11
131.0
 21
54.5
  0
LINE
  5
86
330
20
100
AcDbEntity
  8
0
  6
CONTINUOUS
370
     0
 62
     1
100
AcDbLine
 10
117.931710259589
 20
53.5
 11
131.0
 21
53.5
  0
LINE
  5
87
330
20
100
AcDbEntity
  8
0
  6
CONTINUOUS
370
     0
 62
     1
100
AcDbLine
 10
131.0
 20
54.5
 11
131.0
 21
53.5
  0
LINE
  5
88
330
20
100
AcDbEntity
  8
0
  6
CONTINUOUS
370
     0
 62
     1
100
AcDbLine
 10
130.806409824497
 20
57.2036153139877
 11
130.936936016717
 21
56.2121704526139
  0
LINE
  5
89
330
20
100
AcDbEntity
  8
0
  6
CONTINUOUS
370
     0
 62
     1
100
AcDbLine
 10
130.871672920607
 20
56.7078928833008
 11
133.846007504728
 21
57.0994714599609
  0
LINE
  5
8A
330
20
100
AcDbEntity
  8
0
  6
CONTINUOUS
370
     0
 62
     1
100
AcDbLine
 10
117.931710259589
 20
54.5
 11
130.936936016717
 21
56.2121704526139
  0
LINE
  5
8B
330
20
100
AcDbEntity
  8
0
  6
CONTINUOUS
370
     0
 62
     1
100
AcDbLine
 10
116.0
 20
55.2543144802901
 11
130.806409824497
 21
57.2036153139877
  0
LINE
  5
8C
330
20
100
AcDbEntity
  8
0
  6
CONTINUOUS
370
     0
 62
     1
100
AcDbLine
 10
115.934173751206
 20
52.0
 11
130.359477871784
 21
48.1347514103177
  0
LINE
  5
8D
330
20
100
AcDbEntity
  8
0
  6
CONTINUOUS
370
     0
 62
     1
100
AcDbLine
 10
116.0
 20
53.017638090205
 11
130.618296916887
 21
49.1006772366067
  0
LINE
  5
8E
330
20
100
AcDbEntity
  8
0
  6
CONTINUOUS
370
     0
 62
     1
100
AcDbLine
 10
130.359477871784
 20
48.1347514103177
 11
130.618296916887
 21
49.1006772366067
  0
LINE
  5
8F
330
20
100
AcDbEntity
  8
0
  6
CONTINUOUS
370
     0
 62
     1
100
AcDbLine
 10
130.488887394336
 20
48.6177143234622
 11
133.386664873203
 21
47.8412571881546
  0
LINE
  5
90
330
20
100
AcDbEntity
  8
0
  6
CONTINUOUS
370
     0
 62
     1
100
AcDbLine
 10
117.995298351195
 20
52.482999508343
 11
130.806409824497
 21
50.7963846860123
  0
LINE
  5
91
330
20
100
AcDbEntity
  8
0
  6
CONTINUOUS
370
     0
 62
     1
100
AcDbLine
 10
116.0
 20
53.7543144802901
 11
130.936936016717
 21
51.7878295473861
  0
LINE
  5
92
330
20
100
AcDbEntity
  8
0
  6
CONTINUOUS
370
     0
 62
     1
100
AcDbLine
 10
130.806409824497
 20
50.7963846860123
 11
130.936936016717
 21
51.7878295473861
  0
LINE
  5
93
330
20
100
AcDbEntity
  8
0
  6
CONTINUOUS
370
     0
 62
     1
100
AcDbLine
 10
130.871672920607
 20
51.2921071166992
 11
133.846007504728
 21
50.9005285400391
  0
LINE
  5
94
330
20
100
AcDbEntity
  8
0
  6
CONTINUOUS
370
     0
 62
     1
100
AcDbLine
 10
116.0
 20
55.8882285676538
 11
133.28960773129
 21
60.5209649967038
  0
LINE
  5
95
330
20
100
AcDbEntity
  8
0
  6
CONTINUOUS
370
     0
 62
     1
100
AcDbLine
 10
117.045829087105
 20
55.392000491657
 11
133.483722015116
 21
59.796520626987
  0
LINE
  5
96
330
20
100
AcDbEntity
  8
0
  6
CONTINUOUS
370
     0
 62
     1
100
AcDbLine
 10
133.28960773129
 20
60.5209649967038
 11
133.483722015116
 21
59.796520626987
  0
HATCH
  5
97
330
20
100
AcDbEntity
  8
0
  6
CONTINUOUS
370
     0
 62
     1
100
AcDbHatch
 10
0.0
 20
0.0
 30
0.0
210
0.0
220
0.0
230
1.0
  2
_U
 70
     0
 71
     0
 91
        1
 92
        5
 93
        5
 72
     1
 10
116.0
 20
55.8882285676538
 11
133.28960773129
 21
60.5209649967038
 72
     1
 10
133.28960773129
 20
60.5209649967038
 11
133.483722015116
 21
59.796520626987
 72
     1
 10
133.483722015116
 20
59.796520626987
 11
117.045829087105
 21
55.392000491657
 72
     1
 10
117.045829087105
 20
55.392000491657
 11
116.0
 21
55.2543144802901
 72
     1
 10
116.0
 20
55.2543144802901
 11
116.0
 21
55.8882285676538
 97
        0
 75
     0
 76
     0
 52
45.0
 41
0.5
 77
     0
 78
     1
 53
45.0
 43
0.0
 44
5.5
 45
-0.3535533905932737
 46
0.353553390593274
 79
     0
 47
0.322189
 98
        1
 10
0.0
 20
0.0
  0
LINE
  5
98
330
20
100
AcDbEntity
  8
0
  6
CENTER
370
     0
 62
     1
100
AcDbLine
 10
-70.0
 20
150.0
 11
95.0
 21
150.0
  0
LINE
  5
99
330
20
100
AcDbEntity
  8
0
  6
CONTINUOUS
370
     0
 62
     1
100
AcDbLine
 10
76.0
 20
55.5
 11
89.9999999999996
 21
55.5
  0
LINE
  5
9A
330
20
100
AcDbEntity
  8
0
  6
CONTINUOUS
370
     0
 62
     1
100
AcDbLine
 10
74.1265006004805
 20
52.5
 11
90.0000000000002
 21
52.5
  0
LINE
  5
9B
330
20
100
AcDbEntity
  8
0
  6
CONTINUOUS
370
     0
 62
     1
100
AcDbLine
 10
66.0
 20
-2.0
 11
66.0
 21
2.0
  0
LINE
  5
9C
330
20
100
AcDbEntity
  8
0
  6
CONTINUOUS
370
     0
 62
     1
100
AcDbLine
 10
60.0
 20
2.0
 11
66.0
 21
2.0
  0
LINE
  5
9D
330
20
100
AcDbEntity
  8
0
  6
CONTINUOUS
370
     0
 62
     1
100
AcDbLine
 10
60.0
 20
-2.0
 11
66.0
 21
-2.0
  0
ARC
  5
9E
330
20
100
AcDbEntity
  8
0
  6
CONTINUOUS
370
     0
 62
     1
100
AcDbCircle
 10
60.0
 20
0.0
 40
2.0
100
AcDbArc
 50
90.0
 51
270.0
  0
LINE
  5
9F
330
20
100
AcDbEntity
  8
0
  6
CONTINUOUS
370
     0
 62
     1
100
AcDbLine
 10
66.0
 20
148.0
 11
66.0
 21
152.0
  0
LINE
  5
A0
330
20
100
AcDbEntity
  8
0
  6
CONTINUOUS
370
     0
 62
     1
100
AcDbLine
 10
65.0
 20
152.0
 11
66.0
 21
152.0
  0
LINE
  5
A1
330
20
100
AcDbEntity
  8
0
  6
CONTINUOUS
370
     0
 62
     1
100
AcDbLine
 10
65.0
 20
148.0
 11
66.0
 21
148.0
  0
LINE
  5
A2
330
20
100
AcDbEntity
  8
0
  6
CENTER
370
     0
 62
     1
100
AcDbLine
 10
60.0
 20
70.0
 11
60.0
 21
75.0
  0
ARC
  5
A3
330
20
100
AcDbEntity
  8
0
  6
CENTER
370
     0
 62
     1
100
AcDbCircle
 10
76.0
 20
70.0
 40
16.0
100
AcDbArc
 50
180.0
 51
270.0
  0
ARC
  5
A4
330
20
100
AcDbEntity
  8
0
  6
CONTINUOUS
370
     0
 62
     1
100
AcDbCircle
 10
76.0
 20
70.0
 40
14.4
100
AcDbArc
 50
210.0
 51
270.0
  0
ARC
  5
A5
330
20
100
AcDbEntity
  8
0
  6
CONTINUOUS
370
     0
 62
     1
100
AcDbCircle
 10
76.0
 20
70.0
 40
17.6
100
AcDbArc
 50
210.0
 51
263.8893537511227
  0
LINE
  5
A6
330
20
100
AcDbEntity
  8
0
  6
CENTER
370
     0
 62
     1
100
AcDbLine
 10
76.0
 20
54.0
 11
139.0
 21
54.0
  0
ARC
  5
A7
330
20
100
AcDbEntity
  8
0
  6
CONTINUOUS
370
     0
 62
     1
100
AcDbCircle
 10
76.0
 20
70.0
 40
17.85
100
AcDbArc
 50
180.0
 51
210.0
  0
ARC
  5
A8
330
20
100
AcDbEntity
  8
0
  6
CONTINUOUS
370
     0
 62
     1
100
AcDbCircle
 10
76.0
 20
70.0
 40
14.15
100
AcDbArc
 50
180.0
 51
210.0
  0
LINE
  5
A9
330
20
100
AcDbEntity
  8
0
  6
CONTINUOUS
370
     0
 62
     1
100
AcDbLine
 10
60.5414465424478
 20
61.075
 11
63.7457405364501
 21
62.9249999999999
  0
ENDSEC
  0
SECTION
  2
OBJECTS
  0
DICTIONARY
  5
C
100
AcDbDictionary
281
     1
  3
ACAD_GROUP
350
D
  3
ACAD_MLINESTYLE
350
E
  3
ACDBVARIABLEDICTIONARY
350
AA
  3
ACAD_PLOTSTYLENAME
350
AB
  3
ACAD_LAYOUT
350
AC
  3
ACAD_PLOTSETTINGS
350
AD
  0
DICTIONARY
  5
D
102
{ACAD_REACTORS
330
C
102
}
330
C
100
AcDbDictionary
281
     1
  0
DICTIONARY
  5
E
102
{ACAD_REACTORS
330
C
102
}
330
C
100
AcDbDictionary
281
     1
  3
STANDARD
350
13
  0
DICTIONARY
  5
AA
102
{ACAD_REACTORS
330
C
102
}
330
C
100
AcDbDictionary
281
     1
  3
SORTENTS
350
AE
  0
ACDBDICTIONARYWDFLT
  5
AB
102
{ACAD_REACTORS
330
C
102
}
330
C
100
AcDbDictionary
281
     1
  3
Normal
350
AF
100
AcDbDictionaryWithDefault
340
AF
  0
DICTIONARY
  5
AC
102
{ACAD_REACTORS
330
C
102
}
330
C
100
AcDbDictionary
281
     1
  3
Model
350
B0
  0
DICTIONARY
  5
AD
102
{ACAD_REACTORS
330
C
102
}
330
C
100
AcDbDictionary
281
     1
  0
MLINESTYLE
  5
13
102
{ACAD_REACTORS
330
E
102
}
330
E
100
AcDbMlineStyle
  2
STANDARD
 70
     0
  3

 62
   256
 51
90.0
 52
90.0
 71
     2
 49
0.5
 62
   256
  6
BYLAYER
 49
-0.5
 62
   256
  6
BYLAYER
  0
DICTIONARYVAR
  5
AE
102
{ACAD_REACTORS
330
AA
102
}
330
AA
100
DictionaryVariables
280
     0
  1
96
  0
ACDBPLACEHOLDER
  5
AF
102
{ACAD_REACTORS
330
AB
102
}
330
AB
  0
LAYOUT
  5
B0
102
{ACAD_REACTORS
330
AC
102
}
330
AC
100
AcDbPlotSettings
  1

  2

  4

  6

 40
0.0
 41
0.0
 42
0.0
 43
0.0
 44
0.0
 45
0.0
 46
0.0
 47
0.0
 48
0.0
 49
0.0
140
0.0
141
0.0
142
1.0
143
1.0
 70
  1712
 72
     0
 73
     0
 74
     0
  7

 75
     0
147
1.0
148
0.0
149
0.0
100
AcDbLayout
  1
Model
 70
     1
 71
     0
 10
0.0
 20
0.0
 11
297.0
 21
210.0
 12
0.0
 22
0.0
 32
0.0
 14
0.0
 24
0.0
 34
0.0
 15
0.0
 25
0.0
 35
0.0
146
0.0
 13
0.0
 23
0.0
 33
0.0
 16
1.0
 26
0.0
 36
0.0
 17
0.0
 27
1.0
 37
0.0
 76
     0
330
20
  0
ENDSEC
  0
EOF
