  0
SECTION
  2
HEADER
  9
$ACADVER
  1
AC1015
  9
$ACADMAINTVER
 70
     0
  9
$DWGCODEPAGE
  3
ANSI_932
  9
$INSBASE
 10
0.0
 20
0.0
 30
0.0
  9
$EXTMIN
 10
-77.0
 20
-87.5
 30
0.0
  9
$EXTMAX
 10
167.0
 20
87.5
 30
0.0
  9
$LIMMIN
 10
-77.0
 20
-87.5
  9
$LIMMAX
 10
167.0
 20
87.5
  9
$ORTHOMODE
 70
     0
  9
$REGENMODE
 70
     1
  9
$FILLMODE
 70
     1
  9
$QTEXTMODE
 70
     0
  9
$MIRRTEXT
 70
     1
  9
$LTSCALE
 40
1.0
  9
$ATTMODE
 70
     1
  9
$TEXTSIZE
 40
3.0
  9
$TRACEWID
 40
0.5
  9
$TEXTSTYLE
  7
STANDARD
  9
$CLAYER
  8
0
  9
$CELTYPE
  6
BYLAYER
  9
$CECOLOR
 62
   256
  9
$CELTSCALE
 40
1.0
  9
$DISPSILH
 70
     0
  9
$DIMSCALE
 40
1.0
  9
$DIMASZ
 40
3.0
  9
$DIMEXO
 40
1.0
  9
$DIMDLI
 40
5.0
  9
$DIMRND
 40
0.0
  9
$DIMDLE
 40
5.0
  9
$DIMEXE
 40
2.0
  9
$DIMTP
 40
0.0
  9
$DIMTM
 40
0.0
  9
$DIMTXT
 40
3.0
  9
$DIMCEN
 40
2.0
  9
$DIMTSZ
 40
0.0
  9
$DIMTOL
 70
     0
  9
$DIMLIM
 70
     0
  9
$DIMTIH
 70
     0
  9
$DIMTOH
 70
     0
  9
$DIMSE1
 70
     0
  9
$DIMSE2
 70
     0
  9
$DIMTAD
 70
     1
  9
$DIMZIN
 70
     8
  9
$DIMBLK
  1

  9
$DIMASO
 70
     1
  9
$DIMSHO
 70
     1
  9
$DIMPOST
  1

  9
$DIMAPOST
  1

  9
$DIMALT
 70
     0
  9
$DIMALTD
 70
     4
  9
$DIMALTF
 40
25.4
  9
$DIMLFAC
 40
1.0
  9
$DIMTOFL
 70
     1
  9
$DIMTVP
 40
1.0
  9
$DIMTIX
 70
     0
  9
$DIMSOXD
 70
     0
  9
$DIMSAH
 70
     0
  9
$DIMBLK1
  1

  9
$DIMBLK2
  1

  9
$DIMSTYLE
  2
ISO-25
  9
$DIMCLRD
 70
     0
  9
$DIMCLRE
 70
     0
  9
$DIMCLRT
 70
     0
  9
$DIMTFAC
 40
1.0
  9
$DIMGAP
 40
0.5
  9
$DIMJUST
 70
     0
  9
$DIMSD1
 70
     0
  9
$DIMSD2
 70
     0
  9
$DIMTOLJ
 70
     1
  9
$DIMTZIN
 70
     1
  9
$DIMALTZ
 70
     0
  9
$DIMALTTZ
 70
     0
  9
$DIMUPT
 70
     0
  9
$DIMDEC
 70
     3
  9
$DIMTDEC
 70
     3
  9
$DIMALTU
 70
     8
  9
$DIMALTTD
 70
     4
  9
$DIMTXSTY
  7
STANDARD
  9
$DIMAUNIT
 70
     0
  9
$DIMADEC
 70
     0
  9
$DIMALTRND
 40
0.0
  9
$DIMAZIN
 70
     0
  9
$DIMDSEP
 70
    46
  9
$DIMATFIT
 70
     3
  9
$DIMFRAC
 70
     0
  9
$DIMLDRBLK
  1

  9
$DIMLUNIT
 70
     2
  9
$DIMLWD
 70
    -2
  9
$DIMLWE
 70
    -2
  9
$DIMTMOVE
 70
     0
  9
$LUNITS
 70
     2
  9
$LUPREC
 70
     4
  9
$SKETCHINC
 40
1.0
  9
$FILLETRAD
 40
0.0
  9
$AUNITS
 70
     0
  9
$AUPREC
 70
     0
  9
$MENU
  1
.
  9
$ELEVATION
 40
0.0
  9
$PELEVATION
 40
0.0
  9
$THICKNESS
 40
0.0
  9
$LIMCHECK
 70
     0
  9
$CHAMFERA
 40
0.0
  9
$CHAMFERB
 40
0.0
  9
$CHAMFERC
 40
0.0
  9
$CHAMFERD
 40
0.0
  9
$SKPOLY
 70
     0
  9
$TDCREATE
 40
2456741.559618055
  9
$TDUCREATE
 40
2456741.559618055
  9
$TDUPDATE
 40
2456741.559618055
  9
$TDUUPDATE
 40
2456741.559618055
  9
$TDINDWG
 40
0.0
  9
$TDUSRTIMER
 40
0.0
  9
$USRTIMER
 70
     1
  9
$ANGBASE
 50
0.0
  9
$ANGDIR
 70
     0
  9
$PDMODE
 70
     0
  9
$PDSIZE
 40
0.0
  9
$PLINEWID
 40
0.0
  9
$SPLFRAME
 70
     0
  9
$SPLINETYPE
 70
     6
  9
$SPLINESEGS
 70
     8
  9
$HANDSEED
  5
12C
  9
$SURFTAB1
 70
     6
  9
$SURFTAB2
 70
     6
  9
$SURFTYPE
 70
     6
  9
$SURFU
 70
     6
  9
$SURFV
 70
     6
  9
$UCSBASE
  2

  9
$UCSNAME
  2

  9
$UCSORG
 10
0.0
 20
0.0
 30
0.0
  9
$UCSXDIR
 10
1.0
 20
0.0
 30
0.0
  9
$UCSYDIR
 10
0.0
 20
1.0
 30
0.0
  9
$UCSORTHOREF
  2

  9
$UCSORTHOVIEW
 70
     0
  9
$UCSORGTOP
 10
0.0
 20
0.0
 30
0.0
  9
$UCSORGBOTTOM
 10
0.0
 20
0.0
 30
0.0
  9
$UCSORGLEFT
 10
0.0
 20
0.0
 30
0.0
  9
$UCSORGRIGHT
 10
0.0
 20
0.0
 30
0.0
  9
$UCSORGFRONT
 10
0.0
 20
0.0
 30
0.0
  9
$UCSORGBACK
 10
0.0
 20
0.0
 30
0.0
  9
$PUCSBASE
  2

  9
$PUCSNAME
  2

  9
$PUCSORG
 10
0.0
 20
0.0
 30
0.0
  9
$PUCSXDIR
 10
1.0
 20
0.0
 30
0.0
  9
$PUCSYDIR
 10
0.0
 20
1.0
 30
0.0
  9
$PUCSORTHOREF
  2

  9
$PUCSORTHOVIEW
 70
     0
  9
$PUCSORGTOP
 10
0.0
 20
0.0
 30
0.0
  9
$PUCSORGBOTTOM
 10
0.0
 20
0.0
 30
0.0
  9
$PUCSORGLEFT
 10
0.0
 20
0.0
 30
0.0
  9
$PUCSORGRIGHT
 10
0.0
 20
0.0
 30
0.0
  9
$PUCSORGFRONT
 10
0.0
 20
0.0
 30
0.0
  9
$PUCSORGBACK
 10
0.0
 20
0.0
 30
0.0
  9
$USERI1
 70
     0
  9
$USERI2
 70
     0
  9
$USERI3
 70
     0
  9
$USERI4
 70
     0
  9
$USERI5
 70
     0
  9
$USERR1
 40
0.0
  9
$USERR2
 40
0.0
  9
$USERR3
 40
0.0
  9
$USERR4
 40
0.0
  9
$USERR5
 40
0.0
  9
$WORLDVIEW
 70
     1
  9
$SHADEDGE
 70
     3
  9
$SHADEDIF
 70
    70
  9
$MAXACTVP
 70
    16
  9
$PINSBASE
 10
0.0
 20
0.0
 30
0.0
  9
$PLIMCHECK
 70
     0
  9
$PEXTMIN
 10
1.000000000000000E+020
 20
1.000000000000000E+020
 30
1.000000000000000E+020
  9
$PEXTMAX
 10
-1.000000000000000E+020
 20
-1.000000000000000E+020
 30
-1.000000000000000E+020
  9
$PLIMMIN
 10
-77.0
 20
-87.5
  9
$PLIMMAX
 10
167.0
 20
87.5
  9
$UNITMODE
 70
     0
  9
$VISRETAIN
 70
     0
  9
$PLINEGEN
 70
     0
  9
$PSLTSCALE
 70
     0
  9
$TREEDEPTH
 70
  3020
  9
$CMLSTYLE
  2
STANDARD
  9
$CMLJUST
 70
     0
  9
$CMLSCALE
 40
1.0
  9
$PROXYGRAPHICS
 70
     1
  9
$MEASUREMENT
 70
     1
  9
$CELWEIGHT
370
    -3
  9
$ENDCAPS
280
     0
  9
$JOINSTYLE
280
     0
  9
$LWDISPLAY
290
     1
  9
$INSUNITS
 70
     0
  9
$HYPERLINKBASE
  1

  9
$STYLESHEET
  1

  9
$XEDIT
290
     1
  9
$CEPSNTYPE
380
     0
  9
$PSTYLEMODE
290
     1
  9
$FINGERPRINTGUID
  2
{6F25CFC2-5053-11D3-9BE9-00805F4AB38E}
  9
$VERSIONGUID
  2
{6F25CFC5-5053-11D3-9BE9-00805F4AB38E}
  9
$EXTNAMES
290
     1
  9
$PSVPSCALE
 40
0.0
  9
$OLESTARTUP
290
     0
  0
ENDSEC
  0
SECTION
  2
CLASSES
  0
CLASS
  1
LWPOLYLINE
  2
AcDbPolyline
  3
AutoCAD 2000
 90
    32768
280
     0
281
     1
  0
CLASS
  1
ACDBDICTIONARYWDFLT
  2
AcDbDictionaryWithDefault
  3
AutoCAD 2000
 90
        0
280
     0
281
     0
  0
CLASS
  1
DICTIONARYVAR
  2
AcDbDictionaryVar
  3
AutoCAD 2000
 90
        0
280
     0
281
     0
  0
CLASS
  1
ACDBPLACEHOLDER
  2
AcDbPlaceHolder
  3
AutoCAD 2000
 90
        0
280
     0
281
     1
  0
CLASS
  1
LAYOUT
  2
AcDbLayout
  3
AutoCAD 2000
 90
        0
280
     0
281
     1
  0
CLASS
  1
HATCH
  2
AcDbHatch
  3
AutoCAD 2000
 90
        0
280
     0
281
     1
  0
ENDSEC
  0
SECTION
  2
TABLES
  0
TABLE
  2
VPORT
  5
8
100
AcDbSymbolTable
 70
     1
  0
VPORT
  5
121
330
0
100
AcDbSymbolTableRecord
100
AcDbViewportTableRecord
  2
*ACTIVE
 70
     0
 10
0.0
 20
0.0
 11
1.0
 21
1.0
 12
45.0
 22
0.0
 13
0.0
 23
0.0
 14
0.0
 24
0.0
 15
0.0
 25
0.0
 16
0.0
 26
0.0
 36
1.0
 17
0.0
 27
0.0
 37
0.0
 40
175.0
 41
1.5
 42
50.0
 43
0.0
 44
0.0
 50
0.0
 51
0.0
 71
     0
 72
   100
 73
     1
 74
     1
 75
     0
 76
     0
 77
     0
 78
     0
281
     0
 65
     1
110
0.0
120
0.0
130
0.0
111
1.0
121
0.0
131
0.0
112
0.0
122
1.0
132
0.0
 79
     0
146
0.0
  0
ENDTAB
  0
TABLE
  2
LTYPE
  5
5
330
0
100
AcDbSymbolTable
 70
    20
  0
LTYPE
  5
122
330
5
100
AcDbSymbolTableRecord
100
AcDbLinetypeTableRecord
  2
BYBLOCK
 70
     0
  3

 72
    65
 73
     0
 40
0.0
  0
LTYPE
  5
123
330
5
100
AcDbSymbolTableRecord
100
AcDbLinetypeTableRecord
  2
BYLAYER
 70
     0
  3

 72
    65
 73
     0
 40
0.0
  0
LTYPE
  5
124
330
5
100
AcDbSymbolTableRecord
100
AcDbLinetypeTableRecord
  2
CONTINUOUS
 70
    64
  3
solid line
 72
    65
 73
     0
 40
0.0
  0
LTYPE
  5
125
330
0
100
AcDbSymbolTableRecord
100
AcDbLinetypeTableRecord
  2
DASHED
 70
    64
  3
-- -- -- -- -- -- -- -- -- -- 
 72
    65
 73
     2
 40
3.75
 49
2.5
 74
     0
 49
-1.25
 74
     0
  0
LTYPE
  5
126
330
0
100
AcDbSymbolTableRecord
100
AcDbLinetypeTableRecord
  2
CENTER
 70
    64
  3
--- - --- - --- - --- - --- - 
 72
    65
 73
     4
 40
7.5
 49
3.75
 74
     0
 49
-1.25
 74
     0
 49
1.25
 74
     0
 49
-1.25
 74
     0
  0
ENDTAB
  0
TABLE
  2
LAYER
  5
2
330
0
100
AcDbSymbolTable
 70
    20
  0
LAYER
  5
127
330
2
100
AcDbSymbolTableRecord
100
AcDbLayerTableRecord
  2
0
 70
    64
 62
     7
  6
CONTINUOUS
370
    -3
390
11D
  0
LAYER
  5
25
330
2
100
AcDbSymbolTableRecord
100
AcDbLayerTableRecord
  2
100
 70
    64
 62
     7
  6
CONTINUOUS
370
    -3
390
11D
  0
ENDTAB
  0
TABLE
  2
STYLE
  5
3
330
0
100
AcDbSymbolTable
 70
     4
  0
STYLE
  5
128
330
3
100
AcDbSymbolTableRecord
100
AcDbTextStyleTableRecord
  2
STANDARD
 70
    64
 40
0.0
 41
1.052631578947368
 50
0.0
 71
     0
 42
3.75
  3
monotxt
  4

  0
ENDTAB
  0
TABLE
  2
VIEW
  5
6
330
0
100
AcDbSymbolTable
 70
     0
  0
ENDTAB
  0
TABLE
  2
UCS
  5
7
330
0
100
AcDbSymbolTable
 70
     0
  0
ENDTAB
  0
TABLE
  2
APPID
  5
9
330
0
100
AcDbSymbolTable
 70
     1
  0
APPID
  5
129
330
9
100
AcDbSymbolTableRecord
100
AcDbRegAppTableRecord
  2
ACAD
 70
     0
  0
ENDTAB
  0
TABLE
  2
DIMSTYLE
  5
A
330
0
100
AcDbSymbolTable
 70
     8
100
AcDbDimStyleTable
 71
     0
  0
DIMSTYLE
105
12A
330
A
100
AcDbSymbolTableRecord
100
AcDbDimStyleTableRecord
  2
ISO-25
 70
     0
  3

  4

  5

  6

  7

 40
1.0
 41
3.0
 42
1.0
 43
5.0
 44
2.0
 45
0.0
 46
5.0
 47
0.0
 48
0.0
140
3.0
141
2.0
142
0.0
143
25.4
144
1.0
145
1.0
146
1.0
147
0.5
 71
     0
 72
     0
 73
     0
 74
     0
 75
     0
 76
     0
 77
     1
 78
     8
170
     0
171
     0
172
     1
173
     0
174
     0
175
     0
176
     0
177
     0
178
     0
270
     2
271
     3
272
     3
273
     8
274
     4
340
128
275
     0
280
     0
281
     0
282
     0
283
     1
284
     1
285
     0
286
     0
287
     3
288
     0
  0
DIMSTYLE
105
12B
330
A
100
AcDbSymbolTableRecord
100
AcDbDimStyleTableRecord
  2
ISO-25 0.8
 70
     0
  3

  4

  5

  6

  7

 40
1.0
 41
3.75
 42
1.25
 43
6.25
 44
2.5
 45
0.0
 46
6.25
 47
0.0
 48
0.0
140
3.75
141
2.5
142
0.0
143
25.4
144
1.0
145
1.0
146
1.0
147
0.625
 71
     0
 72
     0
 73
     0
 74
     0
 75
     0
 76
     0
 77
     1
 78
     8
170
     0
171
     0
172
     1
173
     0
174
     0
175
     0
176
     0
177
     0
178
     0
270
     2
271
     3
272
     3
273
     8
274
     4
340
128
275
     0
280
     0
281
     0
282
     0
283
     1
284
     1
285
     0
286
     0
287
     3
288
     0
  0
ENDTAB
  0
TABLE
  2
BLOCK_RECORD
  5
1
330
0
100
AcDbSymbolTable
 70
     2
  0
BLOCK_RECORD
  5
20
330
1
100
AcDbSymbolTableRecord
100
AcDbBlockTableRecord
  2
*MODEL_SPACE
340
11E
  0
BLOCK_RECORD
  5
22
330
1
100
AcDbSymbolTableRecord
100
AcDbBlockTableRecord
  2
*PAPER_SPACE
340
0
  0
BLOCK_RECORD
  5
61
330
1
100
AcDbSymbolTableRecord
100
AcDbBlockTableRecord
  2
COMP1
340
0
102
{BLKREFS
331
62
102
}
  0
BLOCK_RECORD
  5
7E
330
1
100
AcDbSymbolTableRecord
100
AcDbBlockTableRecord
  2
COMP2
340
0
102
{BLKREFS
331
7F
102
}
  0
BLOCK_RECORD
  5
9D
330
1
100
AcDbSymbolTableRecord
100
AcDbBlockTableRecord
  2
COMP3
340
0
102
{BLKREFS
331
9E
102
}
  0
BLOCK_RECORD
  5
A6
330
1
100
AcDbSymbolTableRecord
100
AcDbBlockTableRecord
  2
COMP4
340
0
102
{BLKREFS
331
A7
102
}
  0
BLOCK_RECORD
  5
C5
330
1
100
AcDbSymbolTableRecord
100
AcDbBlockTableRecord
  2
COMP5
340
0
102
{BLKREFS
331
C6
102
}
  0
BLOCK_RECORD
  5
CE
330
1
100
AcDbSymbolTableRecord
100
AcDbBlockTableRecord
  2
COMP6
340
0
102
{BLKREFS
331
CF
102
}
  0
BLOCK_RECORD
  5
ED
330
1
100
AcDbSymbolTableRecord
100
AcDbBlockTableRecord
  2
COMP7
340
0
102
{BLKREFS
331
EE
102
}
  0
BLOCK_RECORD
  5
F7
330
1
100
AcDbSymbolTableRecord
100
AcDbBlockTableRecord
  2
COMP8
340
0
102
{BLKREFS
331
F8
102
}
  0
ENDTAB
  0
ENDSEC
  0
SECTION
  2
BLOCKS
  0
BLOCK
  5
21
330
20
100
AcDbEntity
  8
0
100
AcDbBlockBegin
  2
*MODEL_SPACE
 70
     0
 10
0.0
 20
0.0
 30
0.0
  3
*MODEL_SPACE
  1

  0
ENDBLK
  5
11F
330
20
100
AcDbEntity
  8
0
100
AcDbBlockEnd
  0
BLOCK
  5
23
330
22
100
AcDbEntity
 67
     1
  8
0
100
AcDbBlockBegin
  2
*PAPER_SPACE
 70
     0
 10
0.0
 20
0.0
 30
0.0
  3
*PAPER_SPACE
  1

  0
ENDBLK
  5
120
330
22
100
AcDbEntity
 67
     1
  8
0
100
AcDbBlockEnd
  0
BLOCK
  5
63
330
61
100
AcDbEntity
  8
100
100
AcDbBlockBegin
  2
COMP1
 70
    64
 10
0.0
 20
0.0
  0
LINE
  5
64
330
61
100
AcDbEntity
  8
100
  6
CONTINUOUS
100
AcDbLine
 10
140.5
 20
16.1754264805429
 11
140.5
 21
9.82457351945706
  0
LINE
  5
65
330
61
100
AcDbEntity
  8
100
  6
CONTINUOUS
100
AcDbLine
 10
140.5
 20
16.1754264805429
 11
135.0
 21
19.3508529610859
  0
LINE
  5
66
330
61
100
AcDbEntity
  8
100
  6
CONTINUOUS
100
AcDbLine
 10
129.5
 20
16.1754264805429
 11
135.0
 21
19.3508529610859
  0
LINE
  5
67
330
61
100
AcDbEntity
  8
100
  6
CONTINUOUS
100
AcDbLine
 10
129.5
 20
16.1754264805429
 11
129.5
 21
9.82457351945706
  0
LINE
  5
68
330
61
100
AcDbEntity
  8
100
  6
CONTINUOUS
100
AcDbLine
 10
135.0
 20
6.64914703891411
 11
129.5
 21
9.82457351945706
  0
LINE
  5
69
330
61
100
AcDbEntity
  8
100
  6
CONTINUOUS
100
AcDbLine
 10
135.0
 20
6.64914703891411
 11
140.5
 21
9.82457351945706
  0
CIRCLE
  5
6A
330
61
100
AcDbEntity
  8
100
  6
CONTINUOUS
100
AcDbCircle
 10
135.0
 20
13.0
 40
5.5
  0
CIRCLE
  5
6B
330
61
100
AcDbEntity
  8
100
  6
CONTINUOUS
100
AcDbCircle
 10
135.0
 20
13.0
 40
2.35
  0
ENDBLK
  5
6C
330
61
100
AcDbEntity
  8
100
100
AcDbBlockEnd
  0
BLOCK
  5
80
330
7E
100
AcDbEntity
  8
100
100
AcDbBlockBegin
  2
COMP2
 70
    64
 10
0.0
 20
0.0
  0
ARC
  5
81
330
7E
100
AcDbEntity
  8
100
  6
CONTINUOUS
100
AcDbCircle
 10
89.5
 20
79.5
 40
1.0
100
AcDbArc
 50
0.0
 51
90.0
  0
LINE
  5
82
330
7E
100
AcDbEntity
  8
100
  6
CONTINUOUS
100
AcDbLine
 10
83.0
 20
81.35085296108591
 11
83.0
 21
68.64914703891409
  0
LINE
  5
83
330
7E
100
AcDbEntity
  8
100
  6
CONTINUOUS
100
AcDbLine
 10
75.0
 20
81.35085296108591
 11
83.0
 21
81.35085296108591
  0
LINE
  5
84
330
7E
100
AcDbEntity
  8
100
  6
CONTINUOUS
100
AcDbLine
 10
86.5
 20
81.35085296108591
 11
88.5
 21
81.35085296108591
  0
LINE
  5
85
330
7E
100
AcDbEntity
  8
100
  6
CONTINUOUS
100
AcDbLine
 10
88.5
 20
81.35085296108591
 11
88.5
 21
68.64914703891409
  0
LINE
  5
86
330
7E
100
AcDbEntity
  8
100
  6
CONTINUOUS
100
AcDbLine
 10
88.5
 20
80.5
 11
89.5
 21
80.5
  0
LINE
  5
87
330
7E
100
AcDbEntity
  8
100
  6
CONTINUOUS
100
AcDbLine
 10
75.0
 20
78.1754264805429
 11
83.0
 21
78.1754264805429
  0
LINE
  5
88
330
7E
100
AcDbEntity
  8
100
  6
CONTINUOUS
100
AcDbLine
 10
86.5
 20
78.1754264805429
 11
88.5
 21
78.1754264805429
  0
ARC
  5
89
330
7E
100
AcDbEntity
  8
100
  6
CONTINUOUS
100
AcDbCircle
 10
89.5
 20
70.5
 40
1.0
100
AcDbArc
 50
270.0
 51
0.0
  0
LINE
  5
8A
330
7E
100
AcDbEntity
  8
100
  6
CONTINUOUS
100
AcDbLine
 10
75.0
 20
68.64914703891409
 11
83.0
 21
68.64914703891409
  0
LINE
  5
8B
330
7E
100
AcDbEntity
  8
100
  6
CONTINUOUS
100
AcDbLine
 10
86.5
 20
68.64914703891409
 11
88.5
 21
68.64914703891409
  0
LINE
  5
8C
330
7E
100
AcDbEntity
  8
100
  6
CONTINUOUS
100
AcDbLine
 10
88.5
 20
69.5
 11
89.5
 21
69.5
  0
LINE
  5
8D
330
7E
100
AcDbEntity
  8
100
  6
CONTINUOUS
100
AcDbLine
 10
75.0
 20
71.82457351945709
 11
83.0
 21
71.82457351945709
  0
LINE
  5
8E
330
7E
100
AcDbEntity
  8
100
  6
CONTINUOUS
100
AcDbLine
 10
86.5
 20
71.82457351945709
 11
88.5
 21
71.82457351945709
  0
LINE
  5
8F
330
7E
100
AcDbEntity
  8
100
  6
CONTINUOUS
100
AcDbLine
 10
86.5
 20
81.35085296108591
 11
86.5
 21
79.688
  0
ARC
  5
90
330
7E
100
AcDbEntity
  8
100
  6
CONTINUOUS
100
AcDbCircle
 10
86.0
 20
79.688
 40
0.5
100
AcDbArc
 50
180.0
 51
0.0
  0
LINE
  5
91
330
7E
100
AcDbEntity
  8
100
  6
CONTINUOUS
100
AcDbLine
 10
85.5
 20
80.0
 11
85.5
 21
79.688
  0
LINE
  5
92
330
7E
100
AcDbEntity
  8
100
  6
CONTINUOUS
100
AcDbLine
 10
83.0
 20
80.0
 11
85.5
 21
80.0
  0
ARC
  5
93
330
7E
100
AcDbEntity
  8
100
  6
CONTINUOUS
100
AcDbCircle
 10
86.0
 20
70.312
 40
0.5
100
AcDbArc
 50
0.0
 51
180.0
  0
LINE
  5
94
330
7E
100
AcDbEntity
  8
100
  6
CONTINUOUS
100
AcDbLine
 10
86.5
 20
68.64914703891409
 11
86.5
 21
70.312
  0
LINE
  5
95
330
7E
100
AcDbEntity
  8
100
  6
CONTINUOUS
100
AcDbLine
 10
85.5
 20
70.0
 11
85.5
 21
70.312
  0
LINE
  5
96
330
7E
100
AcDbEntity
  8
100
  6
CONTINUOUS
100
AcDbLine
 10
83.0
 20
70.0
 11
85.5
 21
70.0
  0
LINE
  5
97
330
7E
100
AcDbEntity
  8
100
  6
CONTINUOUS
100
AcDbLine
 10
86.5
 20
79.688
 11
86.5
 21
70.312
  0
LINE
  5
98
330
7E
100
AcDbEntity
  8
100
  6
CONTINUOUS
100
AcDbLine
 10
85.5
 20
79.688
 11
85.5
 21
70.312
  0
LINE
  5
99
330
7E
100
AcDbEntity
  8
100
  6
CONTINUOUS
100
AcDbLine
 10
83.0
 20
79.188
 11
85.5
 21
79.188
  0
LINE
  5
9A
330
7E
100
AcDbEntity
  8
100
  6
CONTINUOUS
100
AcDbLine
 10
83.0
 20
70.812
 11
85.5
 21
70.812
  0
LINE
  5
9B
330
7E
100
AcDbEntity
  8
100
  6
CONTINUOUS
100
AcDbLine
 10
90.5
 20
79.5
 11
90.5
 21
70.5
  0
ENDBLK
  5
9C
330
7E
100
AcDbEntity
  8
100
100
AcDbBlockEnd
  0
BLOCK
  5
9F
330
9D
100
AcDbEntity
  8
100
100
AcDbBlockBegin
  2
COMP3
 70
    64
 10
0.0
 20
0.0
  0
LINE
  5
A0
330
9D
100
AcDbEntity
  8
100
  6
CONTINUOUS
100
AcDbLine
 10
90.5
 20
77.34999999999999
 11
100.0
 21
77.34999999999999
  0
LINE
  5
A1
330
9D
100
AcDbEntity
  8
100
  6
CONTINUOUS
100
AcDbLine
 10
90.5
 20
72.65000000000001
 11
100.0
 21
72.65000000000001
  0
ARC
  5
A2
330
9D
100
AcDbEntity
  8
100
  6
CONTINUOUS
100
AcDbCircle
 10
99.8096875
 20
76.175
 40
1.1903125
100
AcDbArc
 50
279.2001913325268
 51
80.7998086674732
  0
ARC
  5
A3
330
9D
100
AcDbEntity
  8
100
  6
CONTINUOUS
100
AcDbCircle
 10
99.8096875
 20
73.825
 40
1.1903125
100
AcDbArc
 50
279.2001913325268
 51
80.7998086674732
  0
ARC
  5
A4
330
9D
100
AcDbEntity
  8
100
  6
CONTINUOUS
100
AcDbCircle
 10
100.1903125
 20
73.825
 40
1.1903125
100
AcDbArc
 50
99.2001913325268
 51
260.7998086674732
  0
ENDBLK
  5
A5
330
9D
100
AcDbEntity
  8
100
100
AcDbBlockEnd
  0
BLOCK
  5
A8
330
A6
100
AcDbEntity
  8
100
100
AcDbBlockBegin
  2
COMP4
 70
    64
 10
0.0
 20
0.0
  0
ARC
  5
A9
330
A6
100
AcDbEntity
  8
100
  6
CONTINUOUS
100
AcDbCircle
 10
89.5
 20
-70.5
 40
1.0
100
AcDbArc
 50
0.0
 51
90.0
  0
LINE
  5
AA
330
A6
100
AcDbEntity
  8
100
  6
CONTINUOUS
100
AcDbLine
 10
83.0
 20
-68.64914703891409
 11
83.0
 21
-81.35085296108591
  0
LINE
  5
AB
330
A6
100
AcDbEntity
  8
100
  6
CONTINUOUS
100
AcDbLine
 10
75.0
 20
-68.64914703891409
 11
83.0
 21
-68.64914703891409
  0
LINE
  5
AC
330
A6
100
AcDbEntity
  8
100
  6
CONTINUOUS
100
AcDbLine
 10
86.5
 20
-68.64914703891409
 11
88.5
 21
-68.64914703891409
  0
LINE
  5
AD
330
A6
100
AcDbEntity
  8
100
  6
CONTINUOUS
100
AcDbLine
 10
88.5
 20
-68.64914703891409
 11
88.5
 21
-81.35085296108591
  0
LINE
  5
AE
330
A6
100
AcDbEntity
  8
100
  6
CONTINUOUS
100
AcDbLine
 10
88.5
 20
-69.5
 11
89.5
 21
-69.5
  0
LINE
  5
AF
330
A6
100
AcDbEntity
  8
100
  6
CONTINUOUS
100
AcDbLine
 10
75.0
 20
-71.82457351945709
 11
83.0
 21
-71.82457351945709
  0
LINE
  5
B0
330
A6
100
AcDbEntity
  8
100
  6
CONTINUOUS
100
AcDbLine
 10
86.5
 20
-71.82457351945709
 11
88.5
 21
-71.82457351945709
  0
ARC
  5
B1
330
A6
100
AcDbEntity
  8
100
  6
CONTINUOUS
100
AcDbCircle
 10
89.5
 20
-79.5
 40
1.0
100
AcDbArc
 50
270.0
 51
0.0
  0
LINE
  5
B2
330
A6
100
AcDbEntity
  8
100
  6
CONTINUOUS
100
AcDbLine
 10
75.0
 20
-81.35085296108591
 11
83.0
 21
-81.35085296108591
  0
LINE
  5
B3
330
A6
100
AcDbEntity
  8
100
  6
CONTINUOUS
100
AcDbLine
 10
86.5
 20
-81.35085296108591
 11
88.5
 21
-81.35085296108591
  0
LINE
  5
B4
330
A6
100
AcDbEntity
  8
100
  6
CONTINUOUS
100
AcDbLine
 10
88.5
 20
-80.5
 11
89.5
 21
-80.5
  0
LINE
  5
B5
330
A6
100
AcDbEntity
  8
100
  6
CONTINUOUS
100
AcDbLine
 10
75.0
 20
-78.1754264805429
 11
83.0
 21
-78.1754264805429
  0
LINE
  5
B6
330
A6
100
AcDbEntity
  8
100
  6
CONTINUOUS
100
AcDbLine
 10
86.5
 20
-78.1754264805429
 11
88.5
 21
-78.1754264805429
  0
LINE
  5
B7
330
A6
100
AcDbEntity
  8
100
  6
CONTINUOUS
100
AcDbLine
 10
86.5
 20
-68.64914703891409
 11
86.5
 21
-70.312
  0
ARC
  5
B8
330
A6
100
AcDbEntity
  8
100
  6
CONTINUOUS
100
AcDbCircle
 10
86.0
 20
-70.312
 40
0.5
100
AcDbArc
 50
180.0
 51
0.0
  0
LINE
  5
B9
330
A6
100
AcDbEntity
  8
100
  6
CONTINUOUS
100
AcDbLine
 10
85.5
 20
-70.0
 11
85.5
 21
-70.312
  0
LINE
  5
BA
330
A6
100
AcDbEntity
  8
100
  6
CONTINUOUS
100
AcDbLine
 10
83.0
 20
-70.0
 11
85.5
 21
-70.0
  0
ARC
  5
BB
330
A6
100
AcDbEntity
  8
100
  6
CONTINUOUS
100
AcDbCircle
 10
86.0
 20
-79.688
 40
0.5
100
AcDbArc
 50
0.0
 51
180.0
  0
LINE
  5
BC
330
A6
100
AcDbEntity
  8
100
  6
CONTINUOUS
100
AcDbLine
 10
86.5
 20
-81.35085296108591
 11
86.5
 21
-79.688
  0
LINE
  5
BD
330
A6
100
AcDbEntity
  8
100
  6
CONTINUOUS
100
AcDbLine
 10
85.5
 20
-80.0
 11
85.5
 21
-79.688
  0
LINE
  5
BE
330
A6
100
AcDbEntity
  8
100
  6
CONTINUOUS
100
AcDbLine
 10
83.0
 20
-80.0
 11
85.5
 21
-80.0
  0
LINE
  5
BF
330
A6
100
AcDbEntity
  8
100
  6
CONTINUOUS
100
AcDbLine
 10
86.5
 20
-70.312
 11
86.5
 21
-79.688
  0
LINE
  5
C0
330
A6
100
AcDbEntity
  8
100
  6
CONTINUOUS
100
AcDbLine
 10
85.5
 20
-70.312
 11
85.5
 21
-79.688
  0
LINE
  5
C1
330
A6
100
AcDbEntity
  8
100
  6
CONTINUOUS
100
AcDbLine
 10
83.0
 20
-70.812
 11
85.5
 21
-70.812
  0
LINE
  5
C2
330
A6
100
AcDbEntity
  8
100
  6
CONTINUOUS
100
AcDbLine
 10
83.0
 20
-79.188
 11
85.5
 21
-79.188
  0
LINE
  5
C3
330
A6
100
AcDbEntity
  8
100
  6
CONTINUOUS
100
AcDbLine
 10
90.5
 20
-70.5
 11
90.5
 21
-79.5
  0
ENDBLK
  5
C4
330
A6
100
AcDbEntity
  8
100
100
AcDbBlockEnd
  0
BLOCK
  5
C7
330
C5
100
AcDbEntity
  8
100
100
AcDbBlockBegin
  2
COMP5
 70
    64
 10
0.0
 20
0.0
  0
LINE
  5
C8
330
C5
100
AcDbEntity
  8
100
  6
CONTINUOUS
100
AcDbLine
 10
90.5
 20
-72.65000000000001
 11
100.0
 21
-72.65000000000001
  0
LINE
  5
C9
330
C5
100
AcDbEntity
  8
100
  6
CONTINUOUS
100
AcDbLine
 10
90.5
 20
-77.34999999999999
 11
100.0
 21
-77.34999999999999
  0
ARC
  5
CA
330
C5
100
AcDbEntity
  8
100
  6
CONTINUOUS
100
AcDbCircle
 10
99.8096875
 20
-73.825
 40
1.1903125
100
AcDbArc
 50
279.2001913325268
 51
80.7998086674732
  0
ARC
  5
CB
330
C5
100
AcDbEntity
  8
100
  6
CONTINUOUS
100
AcDbCircle
 10
99.8096875
 20
-76.175
 40
1.1903125
100
AcDbArc
 50
279.2001913325268
 51
80.7998086674732
  0
ARC
  5
CC
330
C5
100
AcDbEntity
  8
100
  6
CONTINUOUS
100
AcDbCircle
 10
100.1903125
 20
-76.175
 40
1.1903125
100
AcDbArc
 50
99.2001913325268
 51
260.7998086674732
  0
ENDBLK
  5
CD
330
C5
100
AcDbEntity
  8
100
100
AcDbBlockEnd
  0
BLOCK
  5
D0
330
CE
100
AcDbEntity
  8
100
100
AcDbBlockBegin
  2
COMP6
 70
    64
 10
0.0
 20
0.0
  0
ARC
  5
D1
330
CE
100
AcDbEntity
  8
100
  6
CONTINUOUS
100
AcDbCircle
 10
89.5
 20
17.5
 40
1.0
100
AcDbArc
 50
0.0
 51
90.0
  0
LINE
  5
D2
330
CE
100
AcDbEntity
  8
100
  6
CONTINUOUS
100
AcDbLine
 10
83.0
 20
19.3508529610859
 11
83.0
 21
6.64914703891411
  0
LINE
  5
D3
330
CE
100
AcDbEntity
  8
100
  6
CONTINUOUS
100
AcDbLine
 10
75.0
 20
19.3508529610859
 11
83.0
 21
19.3508529610859
  0
LINE
  5
D4
330
CE
100
AcDbEntity
  8
100
  6
CONTINUOUS
100
AcDbLine
 10
86.5
 20
19.3508529610859
 11
88.5
 21
19.3508529610859
  0
LINE
  5
D5
330
CE
100
AcDbEntity
  8
100
  6
CONTINUOUS
100
AcDbLine
 10
88.5
 20
19.3508529610859
 11
88.5
 21
6.64914703891411
  0
LINE
  5
D6
330
CE
100
AcDbEntity
  8
100
  6
CONTINUOUS
100
AcDbLine
 10
88.5
 20
18.5
 11
89.5
 21
18.5
  0
LINE
  5
D7
330
CE
100
AcDbEntity
  8
100
  6
CONTINUOUS
100
AcDbLine
 10
75.0
 20
16.1754264805429
 11
83.0
 21
16.1754264805429
  0
LINE
  5
D8
330
CE
100
AcDbEntity
  8
100
  6
CONTINUOUS
100
AcDbLine
 10
86.5
 20
16.1754264805429
 11
88.5
 21
16.1754264805429
  0
ARC
  5
D9
330
CE
100
AcDbEntity
  8
100
  6
CONTINUOUS
100
AcDbCircle
 10
89.5
 20
8.5
 40
1.0
100
AcDbArc
 50
270.0
 51
0.0
  0
LINE
  5
DA
330
CE
100
AcDbEntity
  8
100
  6
CONTINUOUS
100
AcDbLine
 10
75.0
 20
6.64914703891411
 11
83.0
 21
6.64914703891411
  0
LINE
  5
DB
330
CE
100
AcDbEntity
  8
100
  6
CONTINUOUS
100
AcDbLine
 10
86.5
 20
6.64914703891411
 11
88.5
 21
6.64914703891411
  0
LINE
  5
DC
330
CE
100
AcDbEntity
  8
100
  6
CONTINUOUS
100
AcDbLine
 10
88.5
 20
7.5
 11
89.5
 21
7.5
  0
LINE
  5
DD
330
CE
100
AcDbEntity
  8
100
  6
CONTINUOUS
100
AcDbLine
 10
75.0
 20
9.82457351945706
 11
83.0
 21
9.82457351945706
  0
LINE
  5
DE
330
CE
100
AcDbEntity
  8
100
  6
CONTINUOUS
100
AcDbLine
 10
86.5
 20
9.82457351945706
 11
88.5
 21
9.82457351945706
  0
LINE
  5
DF
330
CE
100
AcDbEntity
  8
100
  6
CONTINUOUS
100
AcDbLine
 10
86.5
 20
19.3508529610859
 11
86.5
 21
17.688
  0
ARC
  5
E0
330
CE
100
AcDbEntity
  8
100
  6
CONTINUOUS
100
AcDbCircle
 10
86.0
 20
17.688
 40
0.5
100
AcDbArc
 50
180.0
 51
0.0
  0
LINE
  5
E1
330
CE
100
AcDbEntity
  8
100
  6
CONTINUOUS
100
AcDbLine
 10
85.5
 20
18.0
 11
85.5
 21
17.688
  0
LINE
  5
E2
330
CE
100
AcDbEntity
  8
100
  6
CONTINUOUS
100
AcDbLine
 10
83.0
 20
18.0
 11
85.5
 21
18.0
  0
ARC
  5
E3
330
CE
100
AcDbEntity
  8
100
  6
CONTINUOUS
100
AcDbCircle
 10
86.0
 20
8.311999999999999
 40
0.5
100
AcDbArc
 50
0.0
 51
180.0
  0
LINE
  5
E4
330
CE
100
AcDbEntity
  8
100
  6
CONTINUOUS
100
AcDbLine
 10
86.5
 20
6.64914703891411
 11
86.5
 21
8.311999999999999
  0
LINE
  5
E5
330
CE
100
AcDbEntity
  8
100
  6
CONTINUOUS
100
AcDbLine
 10
85.5
 20
8.0
 11
85.5
 21
8.311999999999999
  0
LINE
  5
E6
330
CE
100
AcDbEntity
  8
100
  6
CONTINUOUS
100
AcDbLine
 10
83.0
 20
8.0
 11
85.5
 21
8.0
  0
LINE
  5
E7
330
CE
100
AcDbEntity
  8
100
  6
CONTINUOUS
100
AcDbLine
 10
86.5
 20
17.688
 11
86.5
 21
8.311999999999999
  0
LINE
  5
E8
330
CE
100
AcDbEntity
  8
100
  6
CONTINUOUS
100
AcDbLine
 10
85.5
 20
17.688
 11
85.5
 21
8.311999999999999
  0
LINE
  5
E9
330
CE
100
AcDbEntity
  8
100
  6
CONTINUOUS
100
AcDbLine
 10
83.0
 20
17.188
 11
85.5
 21
17.188
  0
LINE
  5
EA
330
CE
100
AcDbEntity
  8
100
  6
CONTINUOUS
100
AcDbLine
 10
83.0
 20
8.811999999999999
 11
85.5
 21
8.811999999999999
  0
LINE
  5
EB
330
CE
100
AcDbEntity
  8
100
  6
CONTINUOUS
100
AcDbLine
 10
90.5
 20
17.5
 11
90.5
 21
8.5
  0
ENDBLK
  5
EC
330
CE
100
AcDbEntity
  8
100
100
AcDbBlockEnd
  0
BLOCK
  5
EF
330
ED
100
AcDbEntity
  8
100
100
AcDbBlockBegin
  2
COMP7
 70
    64
 10
0.0
 20
0.0
  0
LINE
  5
F0
330
ED
100
AcDbEntity
  8
100
  6
CONTINUOUS
100
AcDbLine
 10
90.5
 20
15.35
 11
100.0
 21
15.35
  0
LINE
  5
F1
330
ED
100
AcDbEntity
  8
100
  6
CONTINUOUS
100
AcDbLine
 10
90.5
 20
10.65
 11
100.0
 21
10.65
  0
ARC
  5
F2
330
ED
100
AcDbEntity
  8
100
  6
CONTINUOUS
100
AcDbCircle
 10
99.8096875
 20
14.175
 40
1.1903125
100
AcDbArc
 50
279.2001913325267
 51
80.79980866747322
  0
ARC
  5
F3
330
ED
100
AcDbEntity
  8
100
  6
CONTINUOUS
100
AcDbCircle
 10
99.8096875
 20
11.825
 40
1.1903125
100
AcDbArc
 50
279.2001913325268
 51
80.79980866747323
  0
ARC
  5
F4
330
ED
100
AcDbEntity
  8
100
  6
CONTINUOUS
100
AcDbCircle
 10
100.1903125
 20
11.825
 40
1.1903125
100
AcDbArc
 50
99.20019133252677
 51
260.7998086674732
  0
ENDBLK
  5
F5
330
ED
100
AcDbEntity
  8
100
100
AcDbBlockEnd
  0
BLOCK
  5
F9
330
F7
100
AcDbEntity
  8
100
100
AcDbBlockBegin
  2
COMP8
 70
    64
 10
0.0
 20
0.0
  0
LINE
  5
FA
330
F7
100
AcDbEntity
  8
100
  6
CONTINUOUS
100
AcDbLine
 10
124.0
 20
72.65000000000001
 11
104.0
 21
72.65000000000001
  0
LINE
  5
FB
330
F7
100
AcDbEntity
  8
100
  6
CONTINUOUS
100
AcDbLine
 10
124.0
 20
77.34999999999999
 11
104.0
 21
77.34999999999999
  0
ARC
  5
FC
330
F7
100
AcDbEntity
  8
100
  6
CONTINUOUS
100
AcDbCircle
 10
104.1903125
 20
73.825
 40
1.1903125
100
AcDbArc
 50
99.2001913325268
 51
260.7998086674732
  0
ARC
  5
FD
330
F7
100
AcDbEntity
  8
100
  6
CONTINUOUS
100
AcDbCircle
 10
104.1903125
 20
76.175
 40
1.1903125
100
AcDbArc
 50
99.2001913325268
 51
260.7998086674732
  0
ARC
  5
FE
330
F7
100
AcDbEntity
  8
100
  6
CONTINUOUS
100
AcDbCircle
 10
103.8096875
 20
76.175
 40
1.1903125
100
AcDbArc
 50
279.2001913325268
 51
80.7998086674732
  0
ENDBLK
  5
FF
330
F7
100
AcDbEntity
  8
100
100
AcDbBlockEnd
  0
ENDSEC
  0
SECTION
  2
ENTITIES
  0
LINE
  5
24
330
20
100
AcDbEntity
  8
100
  6
CONTINUOUS
100
AcDbLine
 10
164.0
 20
75.0
 11
167.0
 21
75.0
  0
LINE
  5
26
330
20
100
AcDbEntity
  8
100
  6
CONTINUOUS
100
AcDbLine
 10
139.0
 20
75.5
 11
164.0
 21
75.5
  0
LINE
  5
27
330
20
100
AcDbEntity
  8
100
  6
CONTINUOUS
100
AcDbLine
 10
141.628525844133
 20
74.5
 11
164.0
 21
74.5
  0
LINE
  5
28
330
20
100
AcDbEntity
  8
100
  6
CONTINUOUS
100
AcDbLine
 10
164.0
 20
75.5
 11
164.0
 21
74.5
  0
LINE
  5
29
330
20
100
AcDbEntity
  8
100
  6
CONTINUOUS
100
AcDbLine
 10
-75.0
 20
62.5
 11
75.0
 21
62.5
  0
LINE
  5
2A
330
20
100
AcDbEntity
  8
100
  6
CONTINUOUS
100
AcDbLine
 10
-75.0
 20
87.5
 11
75.0
 21
87.5
  0
LINE
  5
2B
330
20
100
AcDbEntity
  8
100
  6
CONTINUOUS
100
AcDbLine
 10
-75.0
 20
62.5
 11
-75.0
 21
87.5
  0
LINE
  5
2C
330
20
100
AcDbEntity
  8
100
  6
CONTINUOUS
100
AcDbLine
 10
75.0
 20
62.5
 11
75.0
 21
87.5
  0
LINE
  5
2D
330
20
100
AcDbEntity
  8
100
  6
CONTINUOUS
100
AcDbLine
 10
-42.0
 20
62.5
 11
-42.0
 21
87.5
  0
CIRCLE
  5
2E
330
20
100
AcDbEntity
  8
100
  6
CONTINUOUS
100
AcDbCircle
 10
-69.0
 20
75.0
 40
3.0
  0
CIRCLE
  5
2F
330
20
100
AcDbEntity
  8
100
  6
CONTINUOUS
100
AcDbCircle
 10
-50.0
 20
75.0
 40
3.0
  0
LINE
  5
30
330
20
100
AcDbEntity
  8
100
  6
CONTINUOUS
100
AcDbLine
 10
-75.0
 20
20.0
 11
-42.0
 21
20.0
  0
LINE
  5
31
330
20
100
AcDbEntity
  8
100
  6
CONTINUOUS
100
AcDbLine
 10
-75.0
 20
20.0
 11
-75.0
 21
-18.0
  0
ARC
  5
32
330
20
100
AcDbEntity
  8
100
  6
CONTINUOUS
100
AcDbCircle
 10
-36.7084973778708
 20
26.0
 40
8.0
100
AcDbArc
 50
228.590377890729
 51
270.0
  0
ARC
  5
33
330
20
100
AcDbEntity
  8
100
  6
CONTINUOUS
100
AcDbCircle
 10
-36.7084973778708
 20
26.0
 40
8.0
100
AcDbArc
 50
228.590377890729
 51
270.0
  0
LINE
  5
34
330
20
100
AcDbEntity
  8
100
  6
CONTINUOUS
100
AcDbLine
 10
-75.0
 20
20.0
 11
-42.0
 21
20.0
  0
LINE
  5
35
330
20
100
AcDbEntity
  8
100
  6
CONTINUOUS
100
AcDbLine
 10
-75.0
 20
20.0
 11
-75.0
 21
-20.0
  0
ARC
  5
36
330
20
100
AcDbEntity
  8
100
  6
CONTINUOUS
100
AcDbCircle
 10
36.7084973778708
 20
-26.0
 40
8.0
100
AcDbArc
 50
48.59037789072904
 51
90.0
  0
LINE
  5
37
330
20
100
AcDbEntity
  8
100
  6
CONTINUOUS
100
AcDbLine
 10
-5.00684734430621
 20
7.0
 11
5.00684734430621
 21
7.0
  0
LINE
  5
38
330
20
100
AcDbEntity
  8
100
  6
CONTINUOUS
100
AcDbLine
 10
-5.00684734430621
 20
-7.0
 11
5.00684734430621
 21
-7.0
  0
LINE
  5
39
330
20
100
AcDbEntity
  8
100
  6
CONTINUOUS
100
AcDbLine
 10
75.0
 20
-20.0
 11
75.0
 21
20.0
  0
LINE
  5
3A
330
20
100
AcDbEntity
  8
100
  6
CONTINUOUS
100
AcDbLine
 10
122.5
 20
-20.0
 11
122.5
 21
20.0
  0
LINE
  5
3B
330
20
100
AcDbEntity
  8
100
  6
CONTINUOUS
100
AcDbLine
 10
147.5
 20
-20.0
 11
147.5
 21
20.0
  0
LINE
  5
3C
330
20
100
AcDbEntity
  8
100
  6
CONTINUOUS
100
AcDbLine
 10
122.5
 20
-20.0
 11
147.5
 21
-20.0
  0
LINE
  5
3D
330
20
100
AcDbEntity
  8
100
  6
CONTINUOUS
100
AcDbLine
 10
122.5
 20
20.0
 11
147.5
 21
20.0
  0
LINE
  5
3E
330
20
100
AcDbEntity
  8
100
  6
CONTINUOUS
100
AcDbLine
 10
-36.7084973778708
 20
18.0
 11
36.7084973778708
 21
18.0
  0
LINE
  5
3F
330
20
100
AcDbEntity
  8
100
  6
CONTINUOUS
100
AcDbLine
 10
-30.0
 20
-18.0
 11
-36.7084973778708
 21
-18.0
  0
LINE
  5
40
330
20
100
AcDbEntity
  8
100
  6
CONTINUOUS
100
AcDbLine
 10
36.7084973778708
 20
-18.0
 11
30.0
 21
-18.0
  0
LINE
  5
41
330
20
100
AcDbEntity
  8
100
  6
CONTINUOUS
100
AcDbLine
 10
30.0
 20
-18.0
 11
25.7578283043646
 21
-18.0
  0
LINE
  5
42
330
20
100
AcDbEntity
  8
100
  6
CONTINUOUS
100
AcDbLine
 10
25.7578283043646
 20
-18.0
 11
-30.0
 21
-18.0
  0
LINE
  5
43
330
20
100
AcDbEntity
  8
100
  6
CONTINUOUS
100
AcDbLine
 10
75.0
 20
-20.0
 11
42.0
 21
-20.0
  0
LINE
  5
44
330
20
100
AcDbEntity
  8
100
  6
CONTINUOUS
100
AcDbLine
 10
-75.0
 20
-62.5
 11
75.0
 21
-62.5
  0
LINE
  5
45
330
20
100
AcDbEntity
  8
100
  6
CONTINUOUS
100
AcDbLine
 10
-75.0
 20
-87.5
 11
75.0
 21
-87.5
  0
LINE
  5
46
330
20
100
AcDbEntity
  8
100
  6
CONTINUOUS
100
AcDbLine
 10
-75.0
 20
-62.5
 11
-75.0
 21
-87.5
  0
LINE
  5
47
330
20
100
AcDbEntity
  8
100
  6
CONTINUOUS
100
AcDbLine
 10
75.0
 20
-62.5
 11
75.0
 21
-87.5
  0
LINE
  5
48
330
20
100
AcDbEntity
  8
100
  6
CONTINUOUS
100
AcDbLine
 10
42.0
 20
-62.5
 11
42.0
 21
-87.5
  0
CIRCLE
  5
49
330
20
100
AcDbEntity
  8
100
  6
CONTINUOUS
100
AcDbCircle
 10
69.0
 20
-75.0
 40
3.0
  0
CIRCLE
  5
4A
330
20
100
AcDbEntity
  8
100
  6
CONTINUOUS
100
AcDbCircle
 10
50.0
 20
-75.0
 40
3.0
  0
ARC
  5
4B
330
20
100
AcDbEntity
  8
100
  6
CONTINUOUS
100
AcDbCircle
 10
15.0
 20
-7.37
 40
10.0
100
AcDbArc
 50
177.8795721592693
 51
47.47648475181472
  0
ARC
  5
4C
330
20
100
AcDbEntity
  8
100
  6
CONTINUOUS
100
AcDbCircle
 10
-15.0
 20
-7.37
 40
10.0
100
AcDbArc
 50
132.5235152481853
 51
2.120427840730747
  0
ARC
  5
4D
330
20
100
AcDbEntity
  8
100
  6
CONTINUOUS
100
AcDbCircle
 10
15.0
 20
7.37
 40
10.0
100
AcDbArc
 50
312.5235152481853
 51
182.1204278407307
  0
ARC
  5
4E
330
20
100
AcDbEntity
  8
100
  6
CONTINUOUS
100
AcDbCircle
 10
-15.0
 20
7.37
 40
10.0
100
AcDbArc
 50
357.8795721592692
 51
227.4764847518147
  0
LINE
  5
4F
330
20
100
AcDbEntity
  8
100
  6
CENTER
100
AcDbLine
 10
126.0
 20
13.0
 11
144.0
 21
13.0
  0
LINE
  5
50
330
20
100
AcDbEntity
  8
100
  6
CENTER
100
AcDbLine
 10
135.0
 20
4.0
 11
135.0
 21
22.0
  0
LINE
  5
51
330
20
100
AcDbEntity
  8
100
  6
CONTINUOUS
100
AcDbLine
 10
42.0
 20
84.0
 11
60.0
 21
84.0
  0
ARC
  5
52
330
20
100
AcDbEntity
  8
100
  6
CONTINUOUS
100
AcDbCircle
 10
60.0
 20
81.0
 40
3.0
100
AcDbArc
 50
0.0
 51
90.0
  0
LINE
  5
53
330
20
100
AcDbEntity
  8
100
  6
CONTINUOUS
100
AcDbLine
 10
63.0
 20
81.0
 11
63.0
 21
69.0
  0
LINE
  5
54
330
20
100
AcDbEntity
  8
100
  6
CONTINUOUS
100
AcDbLine
 10
42.0
 20
66.0
 11
60.0
 21
66.0
  0
ARC
  5
55
330
20
100
AcDbEntity
  8
100
  6
CONTINUOUS
100
AcDbCircle
 10
60.0
 20
69.0
 40
3.0
100
AcDbArc
 50
270.0
 51
0.0
  0
CIRCLE
  5
56
330
20
100
AcDbEntity
  8
100
  6
CONTINUOUS
100
AcDbCircle
 10
69.0
 20
-75.0
 40
2.4585
  0
CIRCLE
  5
57
330
20
100
AcDbEntity
  8
100
  6
CONTINUOUS
100
AcDbCircle
 10
50.0
 20
-75.0
 40
2.4585
  0
CIRCLE
  5
58
330
20
100
AcDbEntity
  8
100
  6
CONTINUOUS
100
AcDbCircle
 10
-50.0
 20
75.0
 40
2.4585
  0
CIRCLE
  5
59
330
20
100
AcDbEntity
  8
100
  6
CONTINUOUS
100
AcDbCircle
 10
-69.0
 20
75.0
 40
2.4585
  0
LINE
  5
5A
330
20
100
AcDbEntity
  8
100
  6
CONTINUOUS
100
AcDbLine
 10
75.0
 20
20.0
 11
42.0
 21
20.0
  0
ARC
  5
5B
330
20
100
AcDbEntity
  8
100
  6
CONTINUOUS
100
AcDbCircle
 10
36.7084973778708
 20
26.0
 40
8.000000000000011
100
AcDbArc
 50
270.0
 51
311.409622109271
  0
ARC
  5
5C
330
20
100
AcDbEntity
  8
100
  6
CONTINUOUS
100
AcDbCircle
 10
-36.7084973778708
 20
-26.0
 40
8.0
100
AcDbArc
 50
90.0
 51
131.409622109271
  0
LINE
  5
5D
330
20
100
AcDbEntity
  8
100
  6
CONTINUOUS
100
AcDbLine
 10
-75.0
 20
-20.0
 11
-42.0
 21
-20.0
  0
LINE
  5
5E
330
20
100
AcDbEntity
  8
100
  6
CONTINUOUS
100
AcDbLine
 10
-42.0
 20
-87.5
 11
-42.0
 21
-62.5
  0
LINE
  5
5F
330
20
100
AcDbEntity
  8
100
  6
CONTINUOUS
100
AcDbLine
 10
42.0
 20
62.5
 11
42.0
 21
66.0
  0
LINE
  5
60
330
20
100
AcDbEntity
  8
100
  6
CONTINUOUS
100
AcDbLine
 10
42.0
 20
84.0
 11
42.0
 21
87.5
  0
INSERT
  5
62
330
20
100
AcDbEntity
  8
100
  6
CONTINUOUS
100
AcDbBlockReference
  2
COMP1
 10
0.0
 20
0.0
 41
1.0
 42
1.0
 50
0.0
  0
LINE
  5
6D
330
20
100
AcDbEntity
  8
100
  6
CONTINUOUS
100
AcDbLine
 10
-42.0
 20
20.0
 11
42.0
 21
20.0
  0
LINE
  5
6E
330
20
100
AcDbEntity
  8
100
  6
CONTINUOUS
100
AcDbLine
 10
-42.0
 20
-20.0
 11
42.0
 21
-20.0
  0
LWPOLYLINE
  5
6F
330
20
100
AcDbEntity
  8
100
  6
CONTINUOUS
100
AcDbPolyline
 90
        5
 70
     0
 43
0.0
 10
-42.0
 20
20.0
 10
42.0
 20
20.0
 42
-0.1826758136816039
 10
36.7084973778708
 20
18.0
 10
-36.7084973778708
 20
18.0
 42
-0.1826758136816041
 10
-42.0
 20
20.0
  0
HATCH
  5
70
330
20
100
AcDbEntity
  8
100
  6
CONTINUOUS
100
AcDbHatch
 10
0.0
 20
0.0
 30
0.0
210
0.0
220
0.0
230
1.0
  2
_U
 70
     0
 71
     0
 91
        1
 92
        5
 93
        4
 72
     1
 10
-42.0
 20
20.0
 11
42.0
 21
20.0
 72
     2
 10
36.7084973778708
 20
26.0
 40
8.000000000000011
 50
-311.409622109271
 51
-270.0
 73
     0
 72
     1
 10
36.7084973778708
 20
18.0
 11
-36.7084973778708
 21
18.0
 72
     2
 10
-36.7084973778708
 20
26.0
 40
8.0
 50
-270.0
 51
-228.5903778907292
 73
     0
 97
        0
 75
     0
 76
     0
 52
45.0
 41
1.25
 77
     0
 78
     1
 53
45.0
 43
-345.0
 44
-10.0
 45
-0.8838834764831631
 46
0.8838834764831844
 79
     0
 47
0.322189
 98
        1
 10
0.0
 20
0.0
  0
LWPOLYLINE
  5
71
330
20
100
AcDbEntity
  8
100
  6
CONTINUOUS
100
AcDbPolyline
 90
        5
 70
     0
 43
0.0
 10
42.0
 20
-20.0
 10
-42.0
 20
-20.0
 42
-0.1826758136816039
 10
-36.7084973778708
 20
-18.0
 10
36.7084973778708
 20
-18.0
 42
-0.1826758136816041
 10
42.0
 20
-20.0
  0
HATCH
  5
72
330
20
100
AcDbEntity
  8
100
  6
CONTINUOUS
100
AcDbHatch
 10
0.0
 20
0.0
 30
0.0
210
0.0
220
0.0
230
1.0
  2
_U
 70
     0
 71
     0
 91
        1
 92
        5
 93
        4
 72
     1
 10
42.0
 20
-20.0
 11
-42.0
 21
-20.0
 72
     2
 10
-36.7084973778708
 20
-26.0
 40
8.0
 50
-131.409622109271
 51
-90.00000000000009
 73
     0
 72
     1
 10
-36.7084973778708
 20
-18.0
 11
36.7084973778708
 21
-18.0
 72
     2
 10
36.7084973778708
 20
-26.0
 40
8.0
 50
-90.0
 51
-48.59037789072917
 73
     0
 97
        0
 75
     0
 76
     0
 52
45.0
 41
1.25
 77
     0
 78
     1
 53
45.0
 43
-345.0
 44
-10.0
 45
-0.8838834764831631
 46
0.8838834764831844
 79
     0
 47
0.322189
 98
        1
 10
0.0
 20
0.0
  0
LWPOLYLINE
  5
73
330
20
100
AcDbEntity
  8
100
  6
CONTINUOUS
100
AcDbPolyline
 90
       11
 70
     0
 43
0.0
 10
-42.0
 20
87.5
 10
42.0
 20
87.5
 10
42.0
 20
84.0
 10
60.0
 20
84.0
 42
-0.4142135623731031
 10
63.0
 20
81.0
 10
63.0
 20
69.0
 42
-0.4142135623730984
 10
60.0
 20
66.0
 10
42.0
 20
66.0
 10
42.0
 20
62.5
 10
-42.0
 20
62.5
 10
-42.0
 20
87.5
  0
HATCH
  5
74
330
20
100
AcDbEntity
  8
100
  6
CONTINUOUS
100
AcDbHatch
 10
0.0
 20
0.0
 30
0.0
210
0.0
220
0.0
230
1.0
  2
_U
 70
     0
 71
     0
 91
        1
 92
        5
 93
       10
 72
     1
 10
-42.0
 20
87.5
 11
42.0
 21
87.5
 72
     1
 10
42.0
 20
87.5
 11
42.0
 21
84.0
 72
     1
 10
42.0
 20
84.0
 11
60.0
 21
84.0
 72
     2
 10
60.0
 20
81.0
 40
3.0
 50
-90.0
 51
1.989519660128281E-013
 73
     0
 72
     1
 10
63.0
 20
81.0
 11
63.0
 21
69.0
 72
     2
 10
60.0
 20
69.0
 40
3.0
 50
0.0
 51
90.0000000000002
 73
     0
 72
     1
 10
60.0
 20
66.0
 11
42.0
 21
66.0
 72
     1
 10
42.0
 20
66.0
 11
42.0
 21
62.5
 72
     1
 10
42.0
 20
62.5
 11
-42.0
 21
62.5
 72
     1
 10
-42.0
 20
62.5
 11
-42.0
 21
87.5
 97
        0
 75
     0
 76
     0
 52
45.0
 41
1.25
 77
     0
 78
     1
 53
45.0
 43
-345.0
 44
-12.5
 45
-0.8838834764831631
 46
0.8838834764831844
 79
     0
 47
0.322189
 98
        1
 10
0.0
 20
0.0
  0
LWPOLYLINE
  5
75
330
20
100
AcDbEntity
  8
100
  6
CONTINUOUS
100
AcDbPolyline
 90
        5
 70
     0
 43
0.0
 10
42.0
 20
-87.5
 10
-42.0
 20
-87.5
 10
-42.0
 20
-62.5
 10
42.0
 20
-62.5
 10
42.0
 20
-87.5
  0
HATCH
  5
76
330
20
100
AcDbEntity
  8
100
  6
CONTINUOUS
100
AcDbHatch
 10
0.0
 20
0.0
 30
0.0
210
0.0
220
0.0
230
1.0
  2
_U
 70
     0
 71
     0
 91
        1
 92
        5
 93
        4
 72
     1
 10
42.0
 20
-87.5
 11
-42.0
 21
-87.5
 72
     1
 10
-42.0
 20
-87.5
 11
-42.0
 21
-62.5
 72
     1
 10
-42.0
 20
-62.5
 11
42.0
 21
-62.5
 72
     1
 10
42.0
 20
-62.5
 11
42.0
 21
-87.5
 97
        0
 75
     0
 76
     0
 52
45.0
 41
1.25
 77
     0
 78
     1
 53
45.0
 43
-345.0
 44
-12.5
 45
-0.8838834764831631
 46
0.8838834764831844
 79
     0
 47
0.322189
 98
        1
 10
0.0
 20
0.0
  0
LINE
  5
77
330
20
100
AcDbEntity
  8
100
  6
CONTINUOUS
100
AcDbLine
 10
75.0
 20
19.3508529610859
 11
75.0
 21
6.64914703891411
  0
LINE
  5
78
330
20
100
AcDbEntity
  8
100
  6
CENTER
100
AcDbLine
 10
77.0
 20
-75.0
 11
42.0
 21
-75.0
  0
LINE
  5
79
330
20
100
AcDbEntity
  8
100
  6
CENTER
100
AcDbLine
 10
69.0
 20
-67.0
 11
69.0
 21
-83.0
  0
LINE
  5
7A
330
20
100
AcDbEntity
  8
100
  6
CENTER
100
AcDbLine
 10
50.0
 20
-67.0
 11
50.0
 21
-83.0
  0
LINE
  5
7B
330
20
100
AcDbEntity
  8
100
  6
CENTER
100
AcDbLine
 10
-42.0
 20
75.0
 11
-77.0
 21
75.0
  0
LINE
  5
7C
330
20
100
AcDbEntity
  8
100
  6
CENTER
100
AcDbLine
 10
-50.0
 20
83.0
 11
-50.0
 21
67.0
  0
LINE
  5
7D
330
20
100
AcDbEntity
  8
100
  6
CENTER
100
AcDbLine
 10
-69.0
 20
83.0
 11
-69.0
 21
67.0
  0
INSERT
  5
7F
330
20
100
AcDbEntity
  8
100
  6
CONTINUOUS
100
AcDbBlockReference
  2
COMP2
 10
0.0
 20
0.0
 41
1.0
 42
1.0
 50
0.0
  0
INSERT
  5
9E
330
20
100
AcDbEntity
  8
100
  6
CONTINUOUS
100
AcDbBlockReference
  2
COMP3
 10
0.0
 20
0.0
 41
1.0
 42
1.0
 50
0.0
  0
INSERT
  5
A7
330
20
100
AcDbEntity
  8
100
  6
CONTINUOUS
100
AcDbBlockReference
  2
COMP4
 10
0.0
 20
0.0
 41
1.0
 42
1.0
 50
0.0
  0
INSERT
  5
C6
330
20
100
AcDbEntity
  8
100
  6
CONTINUOUS
100
AcDbBlockReference
  2
COMP5
 10
0.0
 20
0.0
 41
1.0
 42
1.0
 50
0.0
  0
INSERT
  5
CF
330
20
100
AcDbEntity
  8
100
  6
CONTINUOUS
100
AcDbBlockReference
  2
COMP6
 10
0.0
 20
0.0
 41
1.0
 42
1.0
 50
0.0
  0
INSERT
  5
EE
330
20
100
AcDbEntity
  8
100
  6
CONTINUOUS
100
AcDbBlockReference
  2
COMP7
 10
0.0
 20
0.0
 41
1.0
 42
1.0
 50
0.0
  0
LINE
  5
F6
330
20
100
AcDbEntity
  8
100
  6
CENTER
100
AcDbLine
 10
70.0
 20
13.0
 11
105.0
 21
13.0
  0
INSERT
  5
F8
330
20
100
AcDbEntity
  8
100
  6
CONTINUOUS
100
AcDbBlockReference
  2
COMP8
 10
0.0
 20
0.0
 41
1.0
 42
1.0
 50
0.0
  0
LINE
  5
100
330
20
100
AcDbEntity
  8
100
  6
CONTINUOUS
100
AcDbLine
 10
139.0
 20
77.84999999999999
 11
139.0
 21
72.15000000000001
  0
LINE
  5
101
330
20
100
AcDbEntity
  8
100
  6
CONTINUOUS
100
AcDbLine
 10
124.0
 20
77.84999999999999
 11
124.0
 21
72.15000000000001
  0
LINE
  5
102
330
20
100
AcDbEntity
  8
100
  6
CONTINUOUS
100
AcDbLine
 10
139.0
 20
77.84999999999999
 11
124.0
 21
77.84999999999999
  0
LINE
  5
103
330
20
100
AcDbEntity
  8
100
  6
CONTINUOUS
100
AcDbLine
 10
139.0
 20
72.15000000000001
 11
124.0
 21
72.15000000000001
  0
LINE
  5
104
330
20
100
AcDbEntity
  8
100
  6
CONTINUOUS
100
AcDbLine
 10
163.743345841214
 20
78.9157857666015
 11
166.717680425336
 21
79.3073643432617
  0
LINE
  5
105
330
20
100
AcDbEntity
  8
100
  6
CONTINUOUS
100
AcDbLine
 10
163.678082745104
 20
79.4115081972885
 11
163.808608937324
 21
78.42006333591461
  0
LINE
  5
106
330
20
100
AcDbEntity
  8
100
  6
CONTINUOUS
100
AcDbLine
 10
141.628525844133
 20
75.5
 11
163.808608937324
 21
78.42006333591461
  0
LINE
  5
107
330
20
100
AcDbEntity
  8
100
  6
CONTINUOUS
100
AcDbLine
 10
139.0
 20
76.1625769682271
 11
163.678082745104
 21
79.4115081972885
  0
LINE
  5
108
330
20
100
AcDbEntity
  8
100
  6
CONTINUOUS
100
AcDbLine
 10
163.743345841214
 20
71.0842142333985
 11
166.717680425336
 21
70.6926356567383
  0
LINE
  5
109
330
20
100
AcDbEntity
  8
100
  6
CONTINUOUS
100
AcDbLine
 10
163.808608937324
 20
71.57993666408541
 11
163.678082745104
 21
70.5884918027115
  0
LINE
  5
10A
330
20
100
AcDbEntity
  8
100
  6
CONTINUOUS
100
AcDbLine
 10
141.497999651913
 20
73.50855513862621
 11
163.678082745104
 21
70.5884918027115
  0
LINE
  5
10B
330
20
100
AcDbEntity
  8
100
  6
CONTINUOUS
100
AcDbLine
 10
139.0
 20
74.8460519923531
 11
163.808608937324
 21
71.57993666408541
  0
LINE
  5
10C
330
20
100
AcDbEntity
  8
100
  6
CONTINUOUS
100
AcDbLine
 10
162.977774788672
 20
67.23542864692439
 11
165.875552267539
 21
66.4589715116168
  0
LINE
  5
10D
330
20
100
AcDbEntity
  8
100
  6
CONTINUOUS
100
AcDbLine
 10
163.107184311223
 20
67.71839156006891
 11
162.848365266121
 21
66.7524657337798
  0
LINE
  5
10E
330
20
100
AcDbEntity
  8
100
  6
CONTINUOUS
100
AcDbLine
 10
139.0
 20
73.1426159476393
 11
162.848365266121
 21
66.7524657337798
  0
LINE
  5
10F
330
20
100
AcDbEntity
  8
100
  6
CONTINUOUS
100
AcDbLine
 10
139.0
 20
74.17789212804939
 11
163.107184311223
 21
67.71839156006891
  0
LINE
  5
110
330
20
100
AcDbEntity
  8
100
  6
CONTINUOUS
100
AcDbLine
 10
141.497999651913
 20
76.49144486137379
 11
166.004961790091
 21
83.0580655752386
  0
LINE
  5
111
330
20
100
AcDbEntity
  8
100
  6
CONTINUOUS
100
AcDbLine
 10
165.746142744988
 20
84.0239914015277
 11
166.004961790091
 21
83.0580655752386
  0
LINE
  5
112
330
20
100
AcDbEntity
  8
100
  6
CONTINUOUS
100
AcDbLine
 10
139.0
 20
76.8573840523607
 11
165.746142744988
 21
84.0239914015277
  0
LWPOLYLINE
  5
113
330
20
100
AcDbEntity
  8
100
  6
CONTINUOUS
100
AcDbPolyline
 90
        6
 70
     0
 43
0.0
 10
166.004961790091
 20
83.0580655752386
 10
141.497999651913
 20
76.49144486137379
 10
139.0
 20
76.1625769682271
 10
139.0
 20
76.8573840523607
 10
165.746142744988
 20
84.0239914015277
 10
166.004961790091
 20
83.0580655752386
  0
HATCH
  5
114
330
20
100
AcDbEntity
  8
100
  6
CONTINUOUS
100
AcDbHatch
 10
0.0
 20
0.0
 30
0.0
210
0.0
220
0.0
230
1.0
  2
_U
 70
     0
 71
     0
 91
        1
 92
        5
 93
        5
 72
     1
 10
166.004961790091
 20
83.0580655752386
 11
141.497999651913
 21
76.49144486137379
 72
     1
 10
141.497999651913
 20
76.49144486137379
 11
139.0
 21
76.1625769682271
 72
     1
 10
139.0
 20
76.1625769682271
 11
139.0
 21
76.8573840523607
 72
     1
 10
139.0
 20
76.8573840523607
 11
165.746142744988
 21
84.0239914015277
 72
     1
 10
165.746142744988
 20
84.0239914015277
 11
166.004961790091
 21
83.0580655752386
 97
        0
 75
     0
 76
     0
 52
45.0
 41
0.625
 77
     0
 78
     1
 53
45.0
 43
-1.0
 44
10.0
 45
-0.4419417382415922
 46
0.4419417382415922
 79
     0
 47
0.322189
 98
        1
 10
0.0
 20
0.0
  0
LINE
  5
115
330
20
100
AcDbEntity
  8
100
  6
DASHED
100
AcDbLine
 10
134.0
 20
77.34999999999999
 11
134.0
 21
72.65000000000001
  0
LINE
  5
116
330
20
100
AcDbEntity
  8
100
  6
DASHED
100
AcDbLine
 10
124.0
 20
77.34999999999999
 11
134.0
 21
77.34999999999999
  0
LINE
  5
117
330
20
100
AcDbEntity
  8
100
  6
DASHED
100
AcDbLine
 10
124.0
 20
72.65000000000001
 11
134.0
 21
72.65000000000001
  0
ENDSEC
  0
SECTION
  2
OBJECTS
  0
DICTIONARY
  5
C
100
AcDbDictionary
281
     1
  3
ACAD_GROUP
350
D
  3
ACAD_MLINESTYLE
350
E
  3
ACDBVARIABLEDICTIONARY
350
118
  3
ACAD_PLOTSTYLENAME
350
119
  3
ACAD_LAYOUT
350
11A
  3
ACAD_PLOTSETTINGS
350
11B
  0
DICTIONARY
  5
D
102
{ACAD_REACTORS
330
C
102
}
330
C
100
AcDbDictionary
281
     1
  0
DICTIONARY
  5
E
102
{ACAD_REACTORS
330
C
102
}
330
C
100
AcDbDictionary
281
     1
  3
STANDARD
350
13
  0
DICTIONARY
  5
118
102
{ACAD_REACTORS
330
C
102
}
330
C
100
AcDbDictionary
281
     1
  3
SORTENTS
350
11C
  0
ACDBDICTIONARYWDFLT
  5
119
102
{ACAD_REACTORS
330
C
102
}
330
C
100
AcDbDictionary
281
     1
  3
Normal
350
11D
100
AcDbDictionaryWithDefault
340
11D
  0
DICTIONARY
  5
11A
102
{ACAD_REACTORS
330
C
102
}
330
C
100
AcDbDictionary
281
     1
  3
Model
350
11E
  0
DICTIONARY
  5
11B
102
{ACAD_REACTORS
330
C
102
}
330
C
100
AcDbDictionary
281
     1
  0
MLINESTYLE
  5
13
102
{ACAD_REACTORS
330
E
102
}
330
E
100
AcDbMlineStyle
  2
STANDARD
 70
     0
  3

 62
   256
 51
90.0
 52
90.0
 71
     2
 49
0.5
 62
   256
  6
BYLAYER
 49
-0.5
 62
   256
  6
BYLAYER
  0
DICTIONARYVAR
  5
11C
102
{ACAD_REACTORS
330
118
102
}
330
118
100
DictionaryVariables
280
     0
  1
96
  0
ACDBPLACEHOLDER
  5
11D
102
{ACAD_REACTORS
330
119
102
}
330
119
  0
LAYOUT
  5
11E
102
{ACAD_REACTORS
330
11A
102
}
330
11A
100
AcDbPlotSettings
  1

  2

  4

  6

 40
0.0
 41
0.0
 42
0.0
 43
0.0
 44
0.0
 45
0.0
 46
0.0
 47
0.0
 48
0.0
 49
0.0
140
0.0
141
0.0
142
1.0
143
1.0
 70
  1712
 72
     0
 73
     0
 74
     0
  7

 75
     0
147
1.0
148
0.0
149
0.0
100
AcDbLayout
  1
Model
 70
     1
 71
     0
 10
0.0
 20
0.0
 11
297.0
 21
210.0
 12
0.0
 22
0.0
 32
0.0
 14
0.0
 24
0.0
 34
0.0
 15
0.0
 25
0.0
 35
0.0
146
0.0
 13
0.0
 23
0.0
 33
0.0
 16
1.0
 26
0.0
 36
0.0
 17
0.0
 27
1.0
 37
0.0
 76
     0
330
20
  0
ENDSEC
  0
EOF
