  0
SECTION
  2
HEADER
  9
$ACADVER
  1
AC1015
  9
$ACADMAINTVER
 70
     0
  9
$DWGCODEPAGE
  3
ANSI_932
  9
$INSBASE
 10
0.0
 20
0.0
 30
0.0
  9
$EXTMIN
 10
-165.0
 20
-115.6666666666667
  9
$EXTMAX
 10
90.66666666666669
 20
115.6666666666667
  9
$LIMMIN
 10
-165.0
 20
-115.6666666666667
  9
$LIMMAX
 10
90.66666666666669
 20
115.6666666666667
  9
$ORTHOMODE
 70
     0
  9
$REGENMODE
 70
     1
  9
$FILLMODE
 70
     1
  9
$QTEXTMODE
 70
     0
  9
$MIRRTEXT
 70
     1
  9
$LTSCALE
 40
1.0
  9
$OSMODE
 70
     0
  9
$ATTMODE
 70
     1
  9
$TEXTSIZE
 40
3.0
  9
$TRACEWID
 40
0.5
  9
$TEXTSTYLE
  7
STANDARD
  9
$CLAYER
  8
0
  9
$CELTYPE
  6
BYLAYER
  9
$CECOLOR
 62
   256
  9
$CELTSCALE
 40
1.0
  9
$DISPSILH
 70
     0
  9
$DIMSCALE
 40
1.0
  9
$DIMASZ
 40
3.0
  9
$DIMEXO
 40
1.0
  9
$DIMDLI
 40
5.0
  9
$DIMRND
 40
0.0
  9
$DIMDLE
 40
5.0
  9
$DIMEXE
 40
2.0
  9
$DIMTP
 40
0.0
  9
$DIMTM
 40
0.0
  9
$DIMTXT
 40
3.0
  9
$DIMCEN
 40
2.0
  9
$DIMTSZ
 40
0.0
  9
$DIMTOL
 70
     0
  9
$DIMLIM
 70
     0
  9
$DIMTIH
 70
     0
  9
$DIMTOH
 70
     0
  9
$DIMSE1
 70
     0
  9
$DIMSE2
 70
     0
  9
$DIMTAD
 70
     1
  9
$DIMZIN
 70
     8
  9
$DIMBLK
  1

  9
$DIMASO
 70
     1
  9
$DIMSHO
 70
     1
  9
$DIMPOST
  1

  9
$DIMAPOST
  1

  9
$DIMALT
 70
     0
  9
$DIMALTD
 70
     0
  9
$DIMALTF
 40
25.4
  9
$DIMLFAC
 40
1.0
  9
$DIMTOFL
 70
     1
  9
$DIMTVP
 40
1.0
  9
$DIMTIX
 70
     0
  9
$DIMSOXD
 70
     0
  9
$DIMSAH
 70
     0
  9
$DIMBLK1
  1

  9
$DIMBLK2
  1

  9
$DIMSTYLE
  2
ISO-25
  9
$DIMCLRD
 70
     0
  9
$DIMCLRE
 70
     0
  9
$DIMCLRT
 70
     0
  9
$DIMTFAC
 40
1.0
  9
$DIMGAP
 40
1.0
  9
$DIMJUST
 70
     0
  9
$DIMSD1
 70
     0
  9
$DIMSD2
 70
     0
  9
$DIMTOLJ
 70
     0
  9
$DIMTZIN
 70
     8
  9
$DIMALTZ
 70
     0
  9
$DIMALTTZ
 70
     0
  9
$DIMUPT
 70
     0
  9
$DIMDEC
 70
     2
  9
$DIMTDEC
 70
     2
  9
$DIMALTU
 70
     2
  9
$DIMALTTD
 70
     3
  9
$DIMTXSTY
  7
STANDARD
  9
$DIMAUNIT
 70
     0
  9
$DIMADEC
 70
     0
  9
$DIMALTRND
 40
0.0
  9
$DIMAZIN
 70
     0
  9
$DIMDSEP
 70
    46
  9
$DIMATFIT
 70
     3
  9
$DIMFRAC
 70
     0
  9
$DIMLDRBLK
  1

  9
$DIMLUNIT
 70
     2
  9
$DIMLWD
 70
    -2
  9
$DIMLWE
 70
    -2
  9
$DIMTMOVE
 70
     0
  9
$LUNITS
 70
     2
  9
$LUPREC
 70
     4
  9
$SKETCHINC
 40
1.0
  9
$FILLETRAD
 40
0.0
  9
$AUNITS
 70
     0
  9
$AUPREC
 70
     0
  9
$MENU
  1
.
  9
$ELEVATION
 40
0.0
  9
$PELEVATION
 40
0.0
  9
$THICKNESS
 40
0.0
  9
$LIMCHECK
 70
     0
  9
$CHAMFERA
 40
0.0
  9
$CHAMFERB
 40
0.0
  9
$CHAMFERC
 40
0.0
  9
$CHAMFERD
 40
0.0
  9
$SKPOLY
 70
     0
  9
$TDCREATE
 40
2454067.553865741
  9
$TDUCREATE
 40
2454067.553865741
  9
$TDUPDATE
 40
2454067.553865741
  9
$TDUUPDATE
 40
2454067.553865741
  9
$TDINDWG
 40
0.0
  9
$TDUSRTIMER
 40
0.0
  9
$USRTIMER
 70
     1
  9
$ANGBASE
 50
0.0
  9
$ANGDIR
 70
     0
  9
$PDMODE
 70
     0
  9
$PDSIZE
 40
0.0
  9
$PLINEWID
 40
0.0
  9
$SPLFRAME
 70
     0
  9
$SPLINETYPE
 70
     6
  9
$SPLINESEGS
 70
     8
  9
$HANDSEED
  5
F1
  9
$SURFTAB1
 70
     6
  9
$SURFTAB2
 70
     6
  9
$SURFTYPE
 70
     6
  9
$SURFU
 70
     6
  9
$SURFV
 70
     6
  9
$UCSBASE
  2

  9
$UCSNAME
  2

  9
$UCSORG
 10
0.0
 20
0.0
 30
0.0
  9
$UCSXDIR
 10
1.0
 20
0.0
 30
0.0
  9
$UCSYDIR
 10
0.0
 20
1.0
 30
0.0
  9
$UCSORTHOREF
  2

  9
$UCSORTHOVIEW
 70
     0
  9
$UCSORGTOP
 10
0.0
 20
0.0
 30
0.0
  9
$UCSORGBOTTOM
 10
0.0
 20
0.0
 30
0.0
  9
$UCSORGLEFT
 10
0.0
 20
0.0
 30
0.0
  9
$UCSORGRIGHT
 10
0.0
 20
0.0
 30
0.0
  9
$UCSORGFRONT
 10
0.0
 20
0.0
 30
0.0
  9
$UCSORGBACK
 10
0.0
 20
0.0
 30
0.0
  9
$PUCSBASE
  2

  9
$PUCSNAME
  2

  9
$PUCSORG
 10
0.0
 20
0.0
 30
0.0
  9
$PUCSXDIR
 10
1.0
 20
0.0
 30
0.0
  9
$PUCSYDIR
 10
0.0
 20
1.0
 30
0.0
  9
$PUCSORTHOREF
  2

  9
$PUCSORTHOVIEW
 70
     0
  9
$PUCSORGTOP
 10
0.0
 20
0.0
 30
0.0
  9
$PUCSORGBOTTOM
 10
0.0
 20
0.0
 30
0.0
  9
$PUCSORGLEFT
 10
0.0
 20
0.0
 30
0.0
  9
$PUCSORGRIGHT
 10
0.0
 20
0.0
 30
0.0
  9
$PUCSORGFRONT
 10
0.0
 20
0.0
 30
0.0
  9
$PUCSORGBACK
 10
0.0
 20
0.0
 30
0.0
  9
$USERI1
 70
     0
  9
$USERI2
 70
     0
  9
$USERI3
 70
     0
  9
$USERI4
 70
     0
  9
$USERI5
 70
     0
  9
$USERR1
 40
0.0
  9
$USERR2
 40
0.0
  9
$USERR3
 40
0.0
  9
$USERR4
 40
0.0
  9
$USERR5
 40
0.0
  9
$WORLDVIEW
 70
     1
  9
$SHADEDGE
 70
     3
  9
$SHADEDIF
 70
    70
  9
$MAXACTVP
 70
    16
  9
$PINSBASE
 10
0.0
 20
0.0
 30
0.0
  9
$PLIMCHECK
 70
     0
  9
$PEXTMIN
 10
1.000000E+20
 20
1.000000E+20
 30
1.000000E+20
  9
$PEXTMAX
 10
-1.000000E+20
 20
-1.000000E+20
 30
-1.000000E+20
  9
$PLIMMIN
 10
-165.0
 20
-115.6666666666667
  9
$PLIMMAX
 10
90.66666666666669
 20
115.6666666666667
  9
$UNITMODE
 70
     0
  9
$VISRETAIN
 70
     0
  9
$PLINEGEN
 70
     0
  9
$PSLTSCALE
 70
     0
  9
$TREEDEPTH
 70
  3020
  9
$CMLSTYLE
  2
STANDARD
  9
$CMLJUST
 70
     0
  9
$CMLSCALE
 40
1.0
  9
$PROXYGRAPHICS
 70
     1
  9
$MEASUREMENT
 70
     0
  9
$CELWEIGHT
370
    -3
  9
$ENDCAPS
280
     0
  9
$JOINSTYLE
280
     0
  9
$LWDISPLAY
290
     1
  9
$INSUNITS
 70
     0
  9
$HYPERLINKBASE
  1

  9
$STYLESHEET
  1

  9
$XEDIT
290
     1
  9
$CEPSNTYPE
380
     0
  9
$PSTYLEMODE
290
     1
  9
$FINGERPRINTGUID
  2
{6F25CFC2-5053-11D3-9BE9-00805F4AB38E}
  9
$VERSIONGUID
  2
{6F25CFC5-5053-11D3-9BE9-00805F4AB38E}
  9
$EXTNAMES
290
     1
  9
$PSVPSCALE
 40
0.0
  9
$OLESTARTUP
290
     0
  0
ENDSEC
  0
SECTION
  2
CLASSES
  0
CLASS
  1
LWPOLYLINE
  2
AcDbPolyline
  3
AutoCAD 2000
 90
    32768
280
     0
281
     1
  0
CLASS
  1
DICTIONARYVAR
  2
AcDbDictionaryVar
  3
AutoCAD 2000
 90
        0
280
     0
281
     1
  0
CLASS
  1
ACDBDICTIONARYWDFLT
  2
AcDbDictionaryWithDefault
  3
AutoCAD 2000
 90
        0
280
     0
281
     1
  0
CLASS
  1
ACDBPLACEHOLDER
  2
AcDbPlaceHolder
  3
AutoCAD 2000
 90
        0
280
     0
281
     1
  0
CLASS
  1
LAYOUT
  2
AcDbLayout
  3
AutoCAD 2000
 90
        0
280
     0
281
     1
  0
CLASS
  1
HATCH
  2
AcDbHatch
  3
AutoCAD 2000
 90
        0
280
     0
281
     1
  0
ENDSEC
  0
SECTION
  2
TABLES
  0
TABLE
  2
VPORT
  5
8
100
AcDbSymbolTable
 70
     1
  0
VPORT
  5
E7
330
0
100
AcDbSymbolTableRecord
100
AcDbViewportTableRecord
  2
*ACTIVE
 70
     0
 10
0.0
 20
0.0
 11
1.0
 21
1.0
 12
-37.16666666666666
 22
0.0
 13
0.0
 23
0.0
 14
0.0
 24
0.0
 15
0.0
 25
0.0
 16
0.0
 26
0.0
 36
1.0
 17
0.0
 27
0.0
 37
0.0
 40
231.3333333333333
 41
1.5
 42
50.0
 43
0.0
 44
0.0
 50
0.0
 51
0.0
 71
     0
 72
   100
 73
     1
 74
     1
 75
     0
 76
     0
 77
     0
 78
     0
281
     0
 65
     1
110
0.0
120
0.0
130
0.0
111
1.0
121
0.0
131
0.0
112
0.0
122
1.0
132
0.0
 79
     0
146
0.0
  0
ENDTAB
  0
TABLE
  2
LTYPE
  5
5
330
0
100
AcDbSymbolTable
 70
    20
  0
LTYPE
  5
E8
330
5
100
AcDbSymbolTableRecord
100
AcDbLinetypeTableRecord
  2
BYBLOCK
 70
     0
  3

 72
    65
 73
     0
 40
0.0
  0
LTYPE
  5
E9
330
5
100
AcDbSymbolTableRecord
100
AcDbLinetypeTableRecord
  2
BYLAYER
 70
     0
  3

 72
    65
 73
     0
 40
0.0
  0
LTYPE
  5
EA
330
5
100
AcDbSymbolTableRecord
100
AcDbLinetypeTableRecord
  2
CONTINUOUS
 70
    64
  3
solid line
 72
    65
 73
     0
 40
0.0
  0
LTYPE
  5
EB
330
0
100
AcDbSymbolTableRecord
100
AcDbLinetypeTableRecord
  2
CENTER
 70
    64
  3
--- - --- - --- - --- - --- - 
 72
    65
 73
     4
 40
8.0
 49
4.0
 74
     0
 49
-1.333333333333333
 74
     0
 49
1.333333333333333
 74
     0
 49
-1.333333333333333
 74
     0
  0
ENDTAB
  0
TABLE
  2
LAYER
  5
2
330
0
100
AcDbSymbolTable
 70
    20
  0
LAYER
  5
EC
330
2
100
AcDbSymbolTableRecord
100
AcDbLayerTableRecord
  2
0
 70
    64
 62
     7
  6
CONTINUOUS
370
    -3
390
E3
  0
LAYER
  5
25
330
2
100
AcDbSymbolTableRecord
100
AcDbLayerTableRecord
  2
100
 70
    64
 62
     7
  6
CONTINUOUS
370
    -3
390
E3
  0
LAYER
  5
A3
330
2
100
AcDbSymbolTableRecord
100
AcDbLayerTableRecord
  2
10
 70
    64
 62
     7
  6
CONTINUOUS
370
    -3
390
E3
  0
ENDTAB
  0
TABLE
  2
STYLE
  5
3
330
0
100
AcDbSymbolTable
 70
     4
  0
STYLE
  5
ED
330
3
100
AcDbSymbolTableRecord
100
AcDbTextStyleTableRecord
  2
STANDARD
 70
    64
 40
0.0
 41
1.052631578947368
 50
0.0
 71
     0
 42
4.0
  3
monotxt
  4

  0
ENDTAB
  0
TABLE
  2
VIEW
  5
6
330
0
100
AcDbSymbolTable
 70
     0
  0
ENDTAB
  0
TABLE
  2
UCS
  5
7
330
0
100
AcDbSymbolTable
 70
     0
  0
ENDTAB
  0
TABLE
  2
APPID
  5
9
330
0
100
AcDbSymbolTable
 70
     1
  0
APPID
  5
EE
330
9
100
AcDbSymbolTableRecord
100
AcDbRegAppTableRecord
  2
ACAD
 70
     0
  0
ENDTAB
  0
TABLE
  2
DIMSTYLE
  5
A
330
0
100
AcDbSymbolTable
 70
     8
100
AcDbDimStyleTable
 71
     0
  0
DIMSTYLE
105
EF
330
A
100
AcDbSymbolTableRecord
100
AcDbDimStyleTableRecord
  2
ISO-25
 70
     0
  3

  4

  5

  6

  7

 40
1.0
 41
3.0
 42
1.0
 43
5.0
 44
2.0
 45
0.0
 46
5.0
 47
0.0
 48
0.0
140
3.0
141
2.0
142
0.0
143
25.4
144
1.0
145
1.0
146
1.0
147
1.0
 71
     0
 72
     0
 73
     0
 74
     0
 75
     0
 76
     0
 77
     1
 78
     8
170
     0
171
     0
172
     1
173
     0
174
     0
175
     0
176
     0
177
     0
178
     0
270
     0
271
     2
272
     2
273
     2
274
     3
340
ED
275
     0
277
     2
280
     0
281
     0
282
     0
283
     0
284
     8
285
     0
286
     0
287
     3
288
     0
  0
DIMSTYLE
105
F0
330
A
100
AcDbSymbolTableRecord
100
AcDbDimStyleTableRecord
  2
ISO-25 0.75
 70
     0
  3

  4

  5

  6

  7

 40
1.0
 41
3.0
 42
1.0
 43
5.0
 44
2.0
 45
0.0
 46
5.0
 47
0.0
 48
0.0
140
3.0
141
2.0
142
0.0
143
25.4
144
1.333333333333333
145
1.0
146
1.0
147
1.0
 71
     0
 72
     0
 73
     0
 74
     0
 75
     0
 76
     0
 77
     1
 78
     8
170
     0
171
     0
172
     1
173
     0
174
     0
175
     0
176
     0
177
     0
178
     0
270
     0
271
     2
272
     2
273
     2
274
     3
340
ED
275
     0
277
     2
280
     0
281
     0
282
     0
283
     0
284
     8
285
     0
286
     0
287
     3
288
     0
  0
ENDTAB
  0
TABLE
  2
BLOCK_RECORD
  5
1
330
0
100
AcDbSymbolTable
 70
     2
  0
BLOCK_RECORD
  5
20
330
1
100
AcDbSymbolTableRecord
100
AcDbBlockTableRecord
  2
*MODEL_SPACE
340
E4
  0
BLOCK_RECORD
  5
22
330
1
100
AcDbSymbolTableRecord
100
AcDbBlockTableRecord
  2
*PAPER_SPACE
340
0
  0
ENDTAB
  0
ENDSEC
  0
SECTION
  2
BLOCKS
  0
BLOCK
  5
21
330
20
100
AcDbEntity
  8
0
100
AcDbBlockBegin
  2
*MODEL_SPACE
 70
     0
 10
0.0
 20
0.0
 30
0.0
  3
*MODEL_SPACE
  1

  0
ENDBLK
  5
E5
330
20
100
AcDbEntity
  8
0
100
AcDbBlockEnd
  0
BLOCK
  5
23
330
22
100
AcDbEntity
 67
     1
  8
0
100
AcDbBlockBegin
  2
*PAPER_SPACE
 70
     0
 10
0.0
 20
0.0
 30
0.0
  3
*PAPER_SPACE
  1

  0
ENDBLK
  5
E6
330
22
100
AcDbEntity
 67
     1
  8
0
100
AcDbBlockEnd
  0
ENDSEC
  0
SECTION
  2
ENTITIES
  0
LINE
  5
24
330
20
100
AcDbEntity
  8
100
  6
CONTINUOUS
100
AcDbLine
 10
87.0
 20
32.5
 11
87.0
 21
-32.5
  0
ARC
  5
26
330
20
100
AcDbEntity
  8
100
  6
CONTINUOUS
100
AcDbCircle
 10
-15.0
 20
-15.0
 40
10.0
100
AcDbArc
 50
85.00107825621616
 51
180.0
  0
ARC
  5
27
330
20
100
AcDbEntity
  8
100
  6
CONTINUOUS
100
AcDbCircle
 10
-15.0
 20
-15.0
 40
10.0
100
AcDbArc
 50
180.0
 51
4.998921743783879
  0
ARC
  5
28
330
20
100
AcDbEntity
  8
100
  6
CONTINUOUS
100
AcDbCircle
 10
0.0
 20
0.0
 40
15.0
100
AcDbArc
 50
180.0
 51
199.6253966083802
  0
ARC
  5
29
330
20
100
AcDbEntity
  8
100
  6
CONTINUOUS
100
AcDbCircle
 10
0.0
 20
0.0
 40
15.0
100
AcDbArc
 50
250.3746033916198
 51
289.6253966083802
  0
ARC
  5
2A
330
20
100
AcDbEntity
  8
100
  6
CONTINUOUS
100
AcDbCircle
 10
15.0
 20
-15.0
 40
10.0
100
AcDbArc
 50
180.0
 51
94.99892174378384
  0
ARC
  5
2B
330
20
100
AcDbEntity
  8
100
  6
CONTINUOUS
100
AcDbCircle
 10
15.0
 20
-15.0
 40
10.0
100
AcDbArc
 50
175.0010782562161
 51
180.0
  0
ARC
  5
2C
330
20
100
AcDbEntity
  8
100
  6
CONTINUOUS
100
AcDbCircle
 10
15.0
 20
15.0
 40
10.0
100
AcDbArc
 50
265.0010782562162
 51
180.0
  0
ARC
  5
2D
330
20
100
AcDbEntity
  8
100
  6
CONTINUOUS
100
AcDbCircle
 10
0.0
 20
0.0
 40
15.0
100
AcDbArc
 50
340.3746033916198
 51
19.6253966083802
  0
ARC
  5
2E
330
20
100
AcDbEntity
  8
100
  6
CONTINUOUS
100
AcDbCircle
 10
15.0
 20
15.0
 40
10.0
100
AcDbArc
 50
180.0
 51
184.9989217437839
  0
ARC
  5
2F
330
20
100
AcDbEntity
  8
100
  6
CONTINUOUS
100
AcDbCircle
 10
-15.0
 20
15.0
 40
10.0
100
AcDbArc
 50
355.0010782562161
 51
180.0
  0
ARC
  5
30
330
20
100
AcDbEntity
  8
100
  6
CONTINUOUS
100
AcDbCircle
 10
0.0
 20
0.0
 40
15.0
100
AcDbArc
 50
70.37460339161974
 51
109.6253966083803
  0
ARC
  5
31
330
20
100
AcDbEntity
  8
100
  6
CONTINUOUS
100
AcDbCircle
 10
-15.0
 20
15.0
 40
10.0
100
AcDbArc
 50
180.0
 51
274.9989217437839
  0
ARC
  5
32
330
20
100
AcDbEntity
  8
100
  6
CONTINUOUS
100
AcDbCircle
 10
0.0
 20
0.0
 40
15.0
100
AcDbArc
 50
160.3746033916198
 51
180.0
  0
LINE
  5
33
330
20
100
AcDbEntity
  8
100
  6
CONTINUOUS
100
AcDbLine
 10
87.0
 20
-32.5
 11
44.5
 21
-32.5
  0
LINE
  5
34
330
20
100
AcDbEntity
  8
100
  6
CONTINUOUS
100
AcDbLine
 10
87.0
 20
32.5
 11
44.5
 21
32.5
  0
LINE
  5
35
330
20
100
AcDbEntity
  8
100
  6
CONTINUOUS
100
AcDbLine
 10
44.32842712474621
 20
-31.5
 11
-44.32842712474621
 21
-31.5
  0
LINE
  5
36
330
20
100
AcDbEntity
  8
100
  6
CONTINUOUS
100
AcDbLine
 10
44.32842712474621
 20
31.5
 11
-44.32842712474621
 21
31.5
  0
ARC
  5
37
330
20
100
AcDbEntity
  8
100
  6
CONTINUOUS
100
AcDbCircle
 10
-41.5
 20
32.5
 40
3.0
100
AcDbArc
 50
199.4712206344906
 51
270.0
  0
ARC
  5
38
330
20
100
AcDbEntity
  8
100
  6
CONTINUOUS
100
AcDbCircle
 10
-41.5
 20
32.5
 40
2.999999999999988
100
AcDbArc
 50
180.0
 51
199.4712206344909
  0
ARC
  5
39
330
20
100
AcDbEntity
  8
100
  6
CONTINUOUS
100
AcDbCircle
 10
41.5
 20
32.5
 40
3.0
100
AcDbArc
 50
340.5287793655095
 51
0.0
  0
ARC
  5
3A
330
20
100
AcDbEntity
  8
100
  6
CONTINUOUS
100
AcDbCircle
 10
41.5
 20
32.5
 40
3.000000000000001
100
AcDbArc
 50
270.0
 51
340.5287793655095
  0
ARC
  5
3B
330
20
100
AcDbEntity
  8
100
  6
CONTINUOUS
100
AcDbCircle
 10
41.5
 20
-32.5
 40
3.0
100
AcDbArc
 50
19.47122063449055
 51
90.0
  0
ARC
  5
3C
330
20
100
AcDbEntity
  8
100
  6
CONTINUOUS
100
AcDbCircle
 10
41.5
 20
-32.5
 40
3.000000000000001
100
AcDbArc
 50
0.0
 51
19.47122063449055
  0
ARC
  5
3D
330
20
100
AcDbEntity
  8
100
  6
CONTINUOUS
100
AcDbCircle
 10
-41.5
 20
-32.5
 40
3.0
100
AcDbArc
 50
90.0
 51
160.5287793655094
  0
ARC
  5
3E
330
20
100
AcDbEntity
  8
100
  6
CONTINUOUS
100
AcDbCircle
 10
-41.5
 20
-32.5
 40
2.999999999999988
100
AcDbArc
 50
160.5287793655091
 51
180.0
  0
SPLINE
  5
3F
330
20
100
AcDbEntity
  8
100
  6
CONTINUOUS
100
AcDbSpline
210
0.0
220
0.0
230
1.0
 70
     8
 71
     3
 72
    11
 73
     7
 74
     0
 42
1.000000000000000E-007
 43
1.000000000000000E-007
 40
0.0
 40
0.0
 40
0.0
 40
0.0
 40
12.71566994788935
 40
26.88380429937185
 40
42.0543226013686
 40
60.06215513406028
 40
60.06215513406028
 40
60.06215513406028
 40
60.06215513406028
 10
-36.0
 20
-29.50000000000053
 30
0.0
 10
-35.26315789473699
 20
-26.95215311004535
 30
0.0
 10
-32.31578947368418
 20
-16.76076555023989
 30
0.0
 10
-38.0
 20
-2.909090909090541
 30
0.0
 10
-31.68421052631578
 20
10.39712918660306
 30
0.0
 10
-36.73684210526318
 20
25.67942583732079
 30
0.0
 10
-38.0
 20
29.5
 30
0.0
  0
SPLINE
  5
40
330
20
100
AcDbEntity
  8
100
  6
CONTINUOUS
100
AcDbSpline
210
0.0
220
0.0
230
1.0
 70
     8
 71
     3
 72
     9
 73
     5
 74
     0
 42
1.000000000000000E-007
 43
1.000000000000000E-007
 40
0.0
 40
0.0
 40
0.0
 40
0.0
 40
1.593213285997077
 40
3.1864265719942
 40
3.1864265719942
 40
3.1864265719942
 40
3.1864265719942
 10
-97.0
 20
-64.0
 30
0.0
 10
-97.33333333333337
 20
-63.76500000000016
 30
0.0
 10
-98.66666666666664
 20
-62.82499999999997
 30
0.0
 10
-97.33333333333331
 20
-61.88500000000003
 30
0.0
 10
-97.0
 20
-61.64999999999999
 30
0.0
  0
SPLINE
  5
41
330
20
100
AcDbEntity
  8
100
  6
CONTINUOUS
100
AcDbSpline
210
0.0
220
0.0
230
1.0
 70
     8
 71
     3
 72
     9
 73
     5
 74
     0
 42
1.000000000000000E-007
 43
1.000000000000000E-007
 40
0.0
 40
0.0
 40
0.0
 40
0.0
 40
1.593213285997075
 40
3.186426571994189
 40
3.186426571994189
 40
3.186426571994189
 40
3.186426571994189
 10
-97.0
 20
-61.64999999999999
 30
0.0
 10
-97.33333333333337
 20
-61.41500000000013
 30
0.0
 10
-98.66666666666666
 20
-60.47499999999997
 30
0.0
 10
-97.33333333333331
 20
-59.53500000000003
 30
0.0
 10
-97.0
 20
-59.3
 30
0.0
  0
SPLINE
  5
42
330
20
100
AcDbEntity
  8
100
  6
CONTINUOUS
100
AcDbSpline
210
0.0
220
0.0
230
1.0
 70
     8
 71
     3
 72
     9
 73
     5
 74
     0
 42
1.000000000000000E-007
 43
1.000000000000000E-007
 40
0.0
 40
0.0
 40
0.0
 40
0.0
 40
1.593213285997075
 40
3.186426571994204
 40
3.186426571994204
 40
3.186426571994204
 40
3.186426571994204
 10
-97.0
 20
-59.3
 30
0.0
 10
-96.66666666666663
 20
-59.53499999999985
 30
0.0
 10
-95.33333333333337
 20
-60.47499999999999
 30
0.0
 10
-96.66666666666663
 20
-61.41499999999996
 30
0.0
 10
-97.0
 20
-61.65000000000001
 30
0.0
  0
SPLINE
  5
43
330
20
100
AcDbEntity
  8
100
  6
CONTINUOUS
100
AcDbSpline
210
0.0
220
0.0
230
1.0
 70
     8
 71
     3
 72
    31
 73
    27
 74
     0
 42
1.000000000000000E-007
 43
1.000000000000000E-007
 40
0.0
 40
0.0
 40
0.0
 40
0.0
 40
0.7058048943203514
 40
1.420692695346463
 40
2.145105762226267
 40
2.879534836894466
 40
3.62451840734718
 40
4.380641788452008
 40
5.148535923687178
 40
5.928875917307821
 40
7.697129252165897
 40
9.555672343976426
 40
11.52613302592466
 40
13.63100455210267
 40
15.8988076250206
 40
18.36716446762778
 40
21.08379695520868
 40
24.10575837511497
 40
27.46941378405268
 40
31.09781025064376
 40
34.87670966629519
 40
38.68598345625684
 40
42.40220457235679
 40
45.89997294040788
 40
49.05265376698575
 40
51.73283393620672
 40
51.73283393620672
 40
51.73283393620672
 40
51.73283393620672
 10
-79.74568480493491
 20
-17.65
 30
0.0
 10
-79.70517947884522
 20
-17.41973589357944
 30
0.0
 10
-79.61677503779008
 20
-16.95756878557932
 30
0.0
 10
-79.4612399012194
 20
-16.25979603758308
 30
0.0
 10
-79.28202918130151
 20
-15.55789580307852
 30
0.0
 10
-79.07839576967692
 20
-14.85226268155171
 30
0.0
 10
-78.84959255798586
 20
-14.14329127248795
 30
0.0
 10
-78.59487243786883
 20
-13.43137617537335
 30
0.0
 10
-78.3134883009661
 20
-12.71691198969321
 30
0.0
 10
-77.88111031931574
 20
-11.71349589402334
 30
0.0
 10
-77.24401913875595
 20
-10.41821172248779
 30
0.0
 10
-76.3763830741627
 20
-8.778483851674483
 30
0.0
 10
-75.46725478468898
 20
-7.034240430621721
 30
0.0
 10
-74.56406997607643
 20
-5.137485047846401
 30
0.0
 10
-73.71426435406696
 20
-3.040221291865742
 30
0.0
 10
-72.96527362440193
 20
-0.6944527511960505
 30
0.0
 10
-72.36453349282296
 20
1.947816985646197
 30
0.0
 10
-71.95947966507174
 20
4.934584330143955
 30
0.0
 10
-71.79754784688996
 20
8.313845693780149
 30
0.0
 10
-71.8375822368421
 20
11.96227384868445
 30
0.0
 10
-72.03842703349281
 20
15.75654156698587
 30
0.0
 10
-72.35892643540669
 20
19.57332162081361
 30
0.0
 10
-72.75792464114832
 20
23.28928678229681
 30
0.0
 10
-73.1942658492821
 20
26.78110982356354
 30
0.0
 10
-73.62679425837318
 20
29.92546351674643
 30
0.0
 10
-73.88516746411483
 20
31.70783492822969
 30
0.0
 10
-74.0
 20
32.5
 30
0.0
  0
SPLINE
  5
44
330
20
100
AcDbEntity
  8
100
  6
CONTINUOUS
100
AcDbSpline
210
0.0
220
0.0
230
1.0
 70
     8
 71
     3
 72
    23
 73
    19
 74
     0
 42
1.000000000000000E-007
 43
1.000000000000000E-007
 40
0.0
 40
0.0
 40
0.0
 40
0.0
 40
0.7154794283388982
 40
1.572772823228515
 40
2.55432524901436
 40
3.643060636806379
 40
4.822540956022268
 40
6.077142024195441
 40
7.392267312879813
 40
8.754616004219674
 40
8.958575391496044
 40
9.163300693941329
 40
9.368790302809446
 40
9.575043056268726
 40
9.782058244794685
 40
9.989835616484045
 40
10.19837538228207
 40
10.40767822111519
 40
10.40767822111519
 40
10.40767822111519
 40
10.40767822111519
 10
-78.0
 20
-32.50000000000059
 30
0.0
 10
-78.06937799043061
 20
-32.29874401913892
 30
0.0
 10
-78.2254784688995
 20
-31.84591806220034
 30
0.0
 10
-78.49607505980856
 20
-31.02933425538157
 30
0.0
 10
-78.78752990430611
 20
-30.08900269138615
 30
0.0
 10
-79.08425538277504
 20
-29.03852048444829
 30
0.0
 10
-79.3706638755981
 20
-27.89148474880212
 30
0.0
 10
-79.63116776315792
 20
-26.66149259868286
 30
0.0
 10
-79.85017942583733
 20
-25.36214114832438
 30
0.0
 10
-79.9660855895973
 20
-24.39218956738612
 30
0.0
 10
-80.01797671692066
 20
-23.79696175847903
 30
0.0
 10
-80.0340881570945
 20
-23.59286940957177
 30
0.0
 10
-80.04857169827088
 20
-23.38788890467265
 30
0.0
 10
-80.06140188638715
 20
-23.18203368782712
 30
0.0
 10
-80.07255326738046
 20
-22.97531720308426
 30
0.0
 10
-80.08200038718805
 20
-22.76775289449284
 30
0.0
 10
-80.08971779174721
 20
-22.55935420610173
 30
0.0
 10
-80.09369261524603
 20
-22.4198744566682
 30
0.0
 10
-80.09538325643314
 20
-22.35
 30
0.0
  0
SPLINE
  5
45
330
20
100
AcDbEntity
  8
100
  6
CONTINUOUS
100
AcDbSpline
210
0.0
220
0.0
230
1.0
 70
     8
 71
     3
 72
     8
 73
     4
 74
     0
 42
1.000000000000000E-007
 43
1.000000000000000E-007
 40
0.0
 40
0.0
 40
0.0
 40
0.0
 40
4.72073935045378
 40
4.72073935045378
 40
4.72073935045378
 40
4.72073935045378
 10
-80.09538325643314
 20
-22.35
 30
0.0
 10
-80.13194900393211
 20
-20.83873211026338
 30
0.0
 10
-80.02969002014055
 20
-19.26450884146224
 30
0.0
 10
-79.74568480493491
 20
-17.65
 30
0.0
  0
HATCH
  5
46
330
20
100
AcDbEntity
  8
100
  6
CONTINUOUS
100
AcDbHatch
 10
0.0
 20
0.0
 30
0.0
210
0.0
220
0.0
230
1.0
  2
_U
 70
     0
 71
     0
 91
        1
 92
        5
 93
        8
 72
     1
 10
44.32842712474621
 20
-31.5
 11
-44.32842712474621
 21
-31.5
 72
     2
 10
-41.5
 20
-32.5
 40
3.0
 50
90.0
 51
160.5287793655092
 73
     1
 72
     1
 10
41.5
 20
-29.5
 11
-41.5
 21
-29.5
 72
     2
 10
41.5
 20
-32.5
 40
3.0
 50
-90.0
 51
-19.47122063449069
 73
     0
 72
     2
 10
41.5
 20
32.5
 40
3.000000000000001
 50
-340.5287793655095
 51
-270.0000000000002
 73
     0
 72
     1
 10
41.5
 20
29.5
 11
-41.5
 21
29.5
 72
     1
 10
44.32842712474621
 20
31.5
 11
-44.32842712474621
 21
31.5
 72
     2
 10
-41.5
 20
32.5
 40
3.0
 50
-270.0
 51
-199.4712206344908
 73
     0
 97
        0
 75
     0
 76
     0
 52
0.0
 41
2.666666666666667
 77
     0
 78
     1
 53
45.0
 43
0.0
 44
0.0
 45
-1.885618083164127
 46
1.885618083164127
 79
     0
 47
0.322189
 98
        1
 10
0.0
 20
0.0
  0
LINE
  5
47
330
20
100
AcDbEntity
  8
100
  6
CONTINUOUS
100
AcDbLine
 10
41.5
 20
-29.5
 11
-35.99999999999983
 21
-29.5
  0
LINE
  5
48
330
20
100
AcDbEntity
  8
100
  6
CONTINUOUS
100
AcDbLine
 10
-35.99999999999983
 20
-29.5
 11
-41.5
 21
-29.5
  0
LINE
  5
49
330
20
100
AcDbEntity
  8
100
  6
CONTINUOUS
100
AcDbLine
 10
41.5
 20
29.5
 11
-38.0
 21
29.5
  0
LINE
  5
4A
330
20
100
AcDbEntity
  8
100
  6
CONTINUOUS
100
AcDbLine
 10
-38.0
 20
29.5
 11
-41.5
 21
29.5
  0
LINE
  5
4B
330
20
100
AcDbEntity
  8
100
  6
CONTINUOUS
100
AcDbLine
 10
-44.5
 20
32.5
 11
-87.0
 21
32.5
  0
LINE
  5
4C
330
20
100
AcDbEntity
  8
100
  6
CONTINUOUS
100
AcDbLine
 10
-44.5
 20
-32.5
 11
-87.0
 21
-32.5
  0
LINE
  5
4D
330
20
100
AcDbEntity
  8
100
  6
CONTINUOUS
100
AcDbLine
 10
-87.0
 20
-65.0
 11
-87.0
 21
-115.0
  0
LINE
  5
4E
330
20
100
AcDbEntity
  8
100
  6
CONTINUOUS
100
AcDbLine
 10
87.0
 20
-65.0
 11
87.0
 21
-115.0
  0
LINE
  5
4F
330
20
100
AcDbEntity
  8
100
  6
CONTINUOUS
100
AcDbLine
 10
-44.5
 20
-65.0
 11
-44.5
 21
-115.0
  0
LINE
  5
50
330
20
100
AcDbEntity
  8
100
  6
CONTINUOUS
100
AcDbLine
 10
44.5
 20
-65.0
 11
44.5
 21
-115.0
  0
CIRCLE
  5
51
330
20
100
AcDbEntity
  8
100
  6
CONTINUOUS
100
AcDbCircle
 10
-80.0
 20
-105.0
 40
4.0
  0
CIRCLE
  5
52
330
20
100
AcDbEntity
  8
100
  6
CONTINUOUS
100
AcDbCircle
 10
-61.0
 20
-105.0
 40
4.0
  0
CIRCLE
  5
53
330
20
100
AcDbEntity
  8
100
  6
CONTINUOUS
100
AcDbCircle
 10
-61.0
 20
-75.0
 40
4.0
  0
CIRCLE
  5
54
330
20
100
AcDbEntity
  8
100
  6
CONTINUOUS
100
AcDbCircle
 10
-80.0
 20
-75.0
 40
4.0
  0
CIRCLE
  5
55
330
20
100
AcDbEntity
  8
100
  6
CONTINUOUS
100
AcDbCircle
 10
-80.0
 20
-105.0
 40
3.0
  0
CIRCLE
  5
56
330
20
100
AcDbEntity
  8
100
  6
CONTINUOUS
100
AcDbCircle
 10
-61.0
 20
-105.0
 40
3.0
  0
CIRCLE
  5
57
330
20
100
AcDbEntity
  8
100
  6
CONTINUOUS
100
AcDbCircle
 10
-61.0
 20
-75.0
 40
3.0
  0
CIRCLE
  5
58
330
20
100
AcDbEntity
  8
100
  6
CONTINUOUS
100
AcDbCircle
 10
-80.0
 20
-75.0
 40
3.0
  0
SPLINE
  5
59
330
20
100
AcDbEntity
  8
100
  6
CONTINUOUS
100
AcDbSpline
210
0.0
220
0.0
230
1.0
 70
     8
 71
     3
 72
     9
 73
     5
 74
     0
 42
1.000000000000000E-007
 43
1.000000000000000E-007
 40
0.0
 40
0.0
 40
0.0
 40
0.0
 40
13.10518327827249
 40
31.79361443021776
 40
31.79361443021776
 40
31.79361443021776
 40
31.79361443021776
 10
-67.0
 20
-58.49999999999999
 30
0.0
 10
-64.73333333333528
 20
-58.56666666666622
 30
0.0
 10
-55.66666666666668
 20
-58.83333333333333
 30
0.0
 10
-39.93333333333379
 20
-63.76666666666655
 30
0.0
 10
-36.0
 20
-65.0
 30
0.0
  0
SPLINE
  5
5A
330
20
100
AcDbEntity
  8
100
  6
CONTINUOUS
100
AcDbSpline
210
0.0
220
0.0
230
1.0
 70
     8
 71
     3
 72
     9
 73
     5
 74
     0
 42
1.000000000000000E-007
 43
1.000000000000000E-007
 40
0.0
 40
0.0
 40
0.0
 40
0.0
 40
4.034061154857448
 40
7.202160097540416
 40
7.202160097540416
 40
7.202160097540416
 40
7.202160097540416
 10
-77.0
 20
-58.49999999999999
 30
0.0
 10
-77.46666666666647
 20
-59.23333333333292
 30
0.0
 10
-79.33333333333329
 20
-62.16666666666654
 30
0.0
 10
-79.86666666666662
 20
-64.43333333333322
 30
0.0
 10
-80.0
 20
-65.0
 30
0.0
  0
LINE
  5
5B
330
20
100
AcDbEntity
  8
100
  6
CONTINUOUS
100
AcDbLine
 10
-80.0
 20
-65.0
 11
-87.0
 21
-65.0
  0
LINE
  5
5C
330
20
100
AcDbEntity
  8
100
  6
CONTINUOUS
100
AcDbLine
 10
-77.0
 20
-65.0
 11
-80.0
 21
-65.0
  0
LINE
  5
5D
330
20
100
AcDbEntity
  8
100
  6
CONTINUOUS
100
AcDbLine
 10
-67.0
 20
-65.0
 11
-77.0
 21
-65.0
  0
HATCH
  5
5E
330
20
100
AcDbEntity
  8
100
  6
CONTINUOUS
100
AcDbHatch
 10
0.0
 20
0.0
 30
0.0
210
0.0
220
0.0
230
1.0
  2
_U
 70
     0
 71
     0
 91
        1
 92
        5
 93
        4
 72
     4
 94
        3
 73
     0
 74
     0
 95
        8
 96
        4
 40
0.0
 40
0.0
 40
0.0
 40
0.0
 40
13.10518327827249
 40
13.10518327827249
 40
13.10518327827249
 40
13.10518327827249
 10
-67.0
 20
-58.49999999999999
 10
-64.73333333333528
 20
-58.56666666666622
 10
-60.20000000000101
 20
-58.69999999999978
 10
-54.00000000000063
 20
-59.99999999999986
 72
     4
 94
        3
 73
     0
 74
     0
 95
        8
 96
        4
 40
0.0
 40
0.0
 40
0.0
 40
0.0
 40
18.68843115194527
 40
18.68843115194527
 40
18.68843115194527
 40
18.68843115194527
 10
-54.00000000000063
 20
-59.99999999999986
 10
-47.80000000000024
 20
-61.29999999999994
 10
-39.93333333333379
 20
-63.76666666666655
 10
-36.0
 20
-65.0
 72
     1
 10
-36.0
 20
-65.0
 11
-67.0
 21
-65.0
 72
     1
 10
-67.0
 20
-58.5
 11
-67.0
 21
-65.0
 97
        0
 75
     0
 76
     0
 52
0.0
 41
2.666666666666667
 77
     0
 78
     1
 53
45.0
 43
0.0
 44
-5.0
 45
-1.885618083164127
 46
1.885618083164127
 79
     0
 47
0.322189
 98
        1
 10
0.0
 20
0.0
  0
HATCH
  5
5F
330
20
100
AcDbEntity
  8
100
  6
CONTINUOUS
100
AcDbHatch
 10
0.0
 20
0.0
 30
0.0
210
0.0
220
0.0
230
1.0
  2
_U
 70
     0
 71
     0
 91
        1
 92
        5
 93
        4
 72
     4
 94
        3
 73
     0
 74
     0
 95
        8
 96
        4
 40
0.0
 40
0.0
 40
0.0
 40
0.0
 40
4.034061154857448
 40
4.034061154857448
 40
4.034061154857448
 40
4.034061154857448
 10
-77.0
 20
-58.49999999999999
 10
-77.46666666666647
 20
-59.23333333333292
 10
-78.39999999999992
 20
-60.6999999999998
 10
-78.99999999999994
 20
-61.99999999999989
 72
     4
 94
        3
 73
     0
 74
     0
 95
        8
 96
        4
 40
0.0
 40
0.0
 40
0.0
 40
0.0
 40
3.168098942682968
 40
3.168098942682968
 40
3.168098942682968
 40
3.168098942682968
 10
-78.99999999999994
 20
-61.99999999999989
 10
-79.59999999999997
 20
-63.29999999999996
 10
-79.86666666666662
 20
-64.43333333333322
 10
-80.0
 20
-65.0
 72
     1
 10
-77.0
 20
-65.0
 11
-80.0
 21
-65.0
 72
     1
 10
-77.0
 20
-58.5
 11
-77.0
 21
-65.0
 97
        0
 75
     0
 76
     0
 52
0.0
 41
2.666666666666667
 77
     0
 78
     1
 53
45.0
 43
0.0
 44
-5.0
 45
-1.885618083164127
 46
1.885618083164127
 79
     0
 47
0.322189
 98
        1
 10
0.0
 20
0.0
  0
LINE
  5
60
330
20
100
AcDbEntity
  8
100
  6
CONTINUOUS
100
AcDbLine
 10
-36.0
 20
-65.0
 11
-44.5
 21
-65.0
  0
LINE
  5
61
330
20
100
AcDbEntity
  8
100
  6
CONTINUOUS
100
AcDbLine
 10
-44.5
 20
-65.0
 11
-67.0
 21
-65.0
  0
LINE
  5
62
330
20
100
AcDbEntity
  8
100
  6
CONTINUOUS
100
AcDbLine
 10
-44.5
 20
-115.0
 11
-87.0
 21
-115.0
  0
LINE
  5
63
330
20
100
AcDbEntity
  8
100
  6
CONTINUOUS
100
AcDbLine
 10
87.0
 20
-115.0
 11
44.5
 21
-115.0
  0
LINE
  5
64
330
20
100
AcDbEntity
  8
100
  6
CONTINUOUS
100
AcDbLine
 10
44.5
 20
-115.0
 11
-44.5
 21
-115.0
  0
LINE
  5
65
330
20
100
AcDbEntity
  8
100
  6
CONTINUOUS
100
AcDbLine
 10
87.0
 20
-65.0
 11
44.5
 21
-65.0
  0
LINE
  5
66
330
20
100
AcDbEntity
  8
100
  6
CONTINUOUS
100
AcDbLine
 10
44.5
 20
-65.0
 11
-36.0
 21
-65.0
  0
HATCH
  5
67
330
20
100
AcDbEntity
  8
100
  6
CONTINUOUS
100
AcDbHatch
 10
0.0
 20
0.0
 30
0.0
210
0.0
220
0.0
230
1.0
  2
_U
 70
     0
 71
     0
 91
        1
 92
        5
 93
        5
 72
     1
 10
-44.5
 20
-65.0
 11
-44.5
 21
-115.0
 72
     1
 10
44.5
 20
-65.0
 11
-36.0
 21
-65.0
 72
     1
 10
-36.0
 20
-65.0
 11
-44.5
 21
-65.0
 72
     1
 10
44.5
 20
-65.0
 11
44.5
 21
-115.0
 72
     1
 10
44.5
 20
-115.0
 11
-44.5
 21
-115.0
 97
        0
 75
     0
 76
     0
 52
0.0
 41
2.666666666666667
 77
     0
 78
     1
 53
45.0
 43
0.0
 44
-5.0
 45
-1.885618083164127
 46
1.885618083164127
 79
     0
 47
0.322189
 98
        1
 10
0.0
 20
0.0
  0
LINE
  5
68
330
20
100
AcDbEntity
  8
100
  6
CONTINUOUS
100
AcDbLine
 10
-87.0
 20
65.0
 11
-87.0
 21
115.0
  0
LINE
  5
69
330
20
100
AcDbEntity
  8
100
  6
CONTINUOUS
100
AcDbLine
 10
87.0
 20
65.0
 11
87.0
 21
115.0
  0
LINE
  5
6A
330
20
100
AcDbEntity
  8
100
  6
CONTINUOUS
100
AcDbLine
 10
-44.5
 20
65.0
 11
-44.5
 21
115.0
  0
LINE
  5
6B
330
20
100
AcDbEntity
  8
100
  6
CONTINUOUS
100
AcDbLine
 10
44.5
 20
65.0
 11
44.5
 21
115.0
  0
SPLINE
  5
6C
330
20
100
AcDbEntity
  8
100
  6
CONTINUOUS
100
AcDbSpline
210
0.0
220
0.0
230
1.0
 70
     8
 71
     3
 72
     9
 73
     5
 74
     0
 42
1.000000000000000E-007
 43
1.000000000000000E-007
 40
0.0
 40
0.0
 40
0.0
 40
0.0
 40
1.593213285997077
 40
3.1864265719942
 40
3.1864265719942
 40
3.1864265719942
 40
3.1864265719942
 10
-97.0
 20
64.0
 30
0.0
 10
-97.33333333333337
 20
63.76500000000016
 30
0.0
 10
-98.66666666666664
 20
62.82499999999997
 30
0.0
 10
-97.33333333333331
 20
61.88500000000003
 30
0.0
 10
-97.0
 20
61.64999999999999
 30
0.0
  0
SPLINE
  5
6D
330
20
100
AcDbEntity
  8
100
  6
CONTINUOUS
100
AcDbSpline
210
0.0
220
0.0
230
1.0
 70
     8
 71
     3
 72
     9
 73
     5
 74
     0
 42
1.000000000000000E-007
 43
1.000000000000000E-007
 40
0.0
 40
0.0
 40
0.0
 40
0.0
 40
1.593213285997075
 40
3.186426571994189
 40
3.186426571994189
 40
3.186426571994189
 40
3.186426571994189
 10
-97.0
 20
61.64999999999999
 30
0.0
 10
-97.33333333333337
 20
61.41500000000013
 30
0.0
 10
-98.66666666666666
 20
60.47499999999997
 30
0.0
 10
-97.33333333333331
 20
59.53500000000003
 30
0.0
 10
-97.0
 20
59.3
 30
0.0
  0
SPLINE
  5
6E
330
20
100
AcDbEntity
  8
100
  6
CONTINUOUS
100
AcDbSpline
210
0.0
220
0.0
230
1.0
 70
     8
 71
     3
 72
     9
 73
     5
 74
     0
 42
1.000000000000000E-007
 43
1.000000000000000E-007
 40
0.0
 40
0.0
 40
0.0
 40
0.0
 40
1.593213285997075
 40
3.186426571994204
 40
3.186426571994204
 40
3.186426571994204
 40
3.186426571994204
 10
-97.0
 20
59.3
 30
0.0
 10
-96.66666666666663
 20
59.53499999999985
 30
0.0
 10
-95.33333333333337
 20
60.47499999999999
 30
0.0
 10
-96.66666666666663
 20
61.41499999999996
 30
0.0
 10
-97.0
 20
61.65000000000001
 30
0.0
  0
SPLINE
  5
6F
330
20
100
AcDbEntity
  8
100
  6
CONTINUOUS
100
AcDbSpline
210
0.0
220
0.0
230
1.0
 70
     8
 71
     3
 72
     9
 73
     5
 74
     0
 42
1.000000000000000E-007
 43
1.000000000000000E-007
 40
0.0
 40
0.0
 40
0.0
 40
0.0
 40
4.034061154857448
 40
7.202160097540416
 40
7.202160097540416
 40
7.202160097540416
 40
7.202160097540416
 10
-77.0
 20
58.49999999999999
 30
0.0
 10
-77.46666666666647
 20
59.23333333333292
 30
0.0
 10
-79.33333333333329
 20
62.16666666666654
 30
0.0
 10
-79.86666666666662
 20
64.43333333333322
 30
0.0
 10
-80.0
 20
65.0
 30
0.0
  0
SPLINE
  5
70
330
20
100
AcDbEntity
  8
100
  6
CONTINUOUS
100
AcDbSpline
210
0.0
220
0.0
230
1.0
 70
     8
 71
     3
 72
     9
 73
     5
 74
     0
 42
1.000000000000000E-007
 43
1.000000000000000E-007
 40
0.0
 40
0.0
 40
0.0
 40
0.0
 40
13.10518327827249
 40
31.79361443021776
 40
31.79361443021776
 40
31.79361443021776
 40
31.79361443021776
 10
-67.0
 20
58.49999999999999
 30
0.0
 10
-64.73333333333528
 20
58.56666666666622
 30
0.0
 10
-55.66666666666669
 20
58.83333333333333
 30
0.0
 10
-39.93333333333379
 20
63.76666666666655
 30
0.0
 10
-36.0
 20
65.0
 30
0.0
  0
LINE
  5
71
330
20
100
AcDbEntity
  8
100
  6
CONTINUOUS
100
AcDbLine
 10
-80.0
 20
65.0
 11
-87.0
 21
65.0
  0
LINE
  5
72
330
20
100
AcDbEntity
  8
100
  6
CONTINUOUS
100
AcDbLine
 10
-77.0
 20
65.0
 11
-80.0
 21
65.0
  0
LINE
  5
73
330
20
100
AcDbEntity
  8
100
  6
CONTINUOUS
100
AcDbLine
 10
-67.0
 20
65.0
 11
-77.0
 21
65.0
  0
HATCH
  5
74
330
20
100
AcDbEntity
  8
100
  6
CONTINUOUS
100
AcDbHatch
 10
0.0
 20
0.0
 30
0.0
210
0.0
220
0.0
230
1.0
  2
_U
 70
     0
 71
     0
 91
        1
 92
        5
 93
        4
 72
     4
 94
        3
 73
     0
 74
     0
 95
        8
 96
        4
 40
0.0
 40
0.0
 40
0.0
 40
0.0
 40
13.10518327827249
 40
13.10518327827249
 40
13.10518327827249
 40
13.10518327827249
 10
-67.0
 20
58.49999999999999
 10
-64.73333333333528
 20
58.56666666666622
 10
-60.20000000000096
 20
58.69999999999978
 10
-54.00000000000063
 20
59.99999999999986
 72
     4
 94
        3
 73
     0
 74
     0
 95
        8
 96
        4
 40
0.0
 40
0.0
 40
0.0
 40
0.0
 40
18.68843115194527
 40
18.68843115194527
 40
18.68843115194527
 40
18.68843115194527
 10
-54.00000000000063
 20
59.99999999999986
 10
-47.80000000000024
 20
61.29999999999994
 10
-39.93333333333379
 20
63.76666666666655
 10
-36.0
 20
65.0
 72
     1
 10
-36.0
 20
65.0
 11
-67.0
 21
65.0
 72
     1
 10
-67.0
 20
58.5
 11
-67.0
 21
65.0
 97
        0
 75
     0
 76
     0
 52
0.0
 41
2.666666666666667
 77
     0
 78
     1
 53
45.0
 43
0.0
 44
5.0
 45
-1.885618083164127
 46
1.885618083164127
 79
     0
 47
0.322189
 98
        1
 10
0.0
 20
0.0
  0
HATCH
  5
75
330
20
100
AcDbEntity
  8
100
  6
CONTINUOUS
100
AcDbHatch
 10
0.0
 20
0.0
 30
0.0
210
0.0
220
0.0
230
1.0
  2
_U
 70
     0
 71
     0
 91
        1
 92
        5
 93
        4
 72
     4
 94
        3
 73
     0
 74
     0
 95
        8
 96
        4
 40
0.0
 40
0.0
 40
0.0
 40
0.0
 40
4.034061154857448
 40
4.034061154857448
 40
4.034061154857448
 40
4.034061154857448
 10
-77.0
 20
58.49999999999999
 10
-77.46666666666647
 20
59.23333333333292
 10
-78.39999999999992
 20
60.6999999999998
 10
-78.99999999999994
 20
61.99999999999989
 72
     4
 94
        3
 73
     0
 74
     0
 95
        8
 96
        4
 40
0.0
 40
0.0
 40
0.0
 40
0.0
 40
3.168098942682968
 40
3.168098942682968
 40
3.168098942682968
 40
3.168098942682968
 10
-78.99999999999994
 20
61.99999999999989
 10
-79.59999999999997
 20
63.29999999999996
 10
-79.86666666666662
 20
64.43333333333322
 10
-80.0
 20
65.0
 72
     1
 10
-77.0
 20
65.0
 11
-80.0
 21
65.0
 72
     1
 10
-77.0
 20
58.5
 11
-77.0
 21
65.0
 97
        0
 75
     0
 76
     0
 52
0.0
 41
2.666666666666667
 77
     0
 78
     1
 53
45.0
 43
0.0
 44
5.0
 45
-1.885618083164127
 46
1.885618083164127
 79
     0
 47
0.322189
 98
        1
 10
0.0
 20
0.0
  0
LINE
  5
76
330
20
100
AcDbEntity
  8
100
  6
CONTINUOUS
100
AcDbLine
 10
-36.0
 20
65.0
 11
-44.5
 21
65.0
  0
LINE
  5
77
330
20
100
AcDbEntity
  8
100
  6
CONTINUOUS
100
AcDbLine
 10
-44.5
 20
65.0
 11
-67.0
 21
65.0
  0
LINE
  5
78
330
20
100
AcDbEntity
  8
100
  6
CONTINUOUS
100
AcDbLine
 10
-44.5
 20
115.0
 11
-87.0
 21
115.0
  0
LINE
  5
79
330
20
100
AcDbEntity
  8
100
  6
CONTINUOUS
100
AcDbLine
 10
87.0
 20
115.0
 11
44.5
 21
115.0
  0
LINE
  5
7A
330
20
100
AcDbEntity
  8
100
  6
CONTINUOUS
100
AcDbLine
 10
44.5
 20
115.0
 11
-44.5
 21
115.0
  0
LINE
  5
7B
330
20
100
AcDbEntity
  8
100
  6
CONTINUOUS
100
AcDbLine
 10
87.0
 20
65.0
 11
44.5
 21
65.0
  0
LINE
  5
7C
330
20
100
AcDbEntity
  8
100
  6
CONTINUOUS
100
AcDbLine
 10
44.5
 20
65.0
 11
-36.0
 21
65.0
  0
HATCH
  5
7D
330
20
100
AcDbEntity
  8
100
  6
CONTINUOUS
100
AcDbHatch
 10
0.0
 20
0.0
 30
0.0
210
0.0
220
0.0
230
1.0
  2
_U
 70
     0
 71
     0
 91
        1
 92
        5
 93
        5
 72
     1
 10
-44.5
 20
65.0
 11
-44.5
 21
115.0
 72
     1
 10
44.5
 20
65.0
 11
-36.0
 21
65.0
 72
     1
 10
-36.0
 20
65.0
 11
-44.5
 21
65.0
 72
     1
 10
44.5
 20
65.0
 11
44.5
 21
115.0
 72
     1
 10
44.5
 20
115.0
 11
-44.5
 21
115.0
 97
        0
 75
     0
 76
     0
 52
0.0
 41
2.666666666666667
 77
     0
 78
     1
 53
45.0
 43
0.0
 44
5.0
 45
-1.885618083164127
 46
1.885618083164127
 79
     0
 47
0.322189
 98
        1
 10
0.0
 20
0.0
  0
CIRCLE
  5
7E
330
20
100
AcDbEntity
  8
100
  6
CONTINUOUS
100
AcDbCircle
 10
61.0
 20
75.0
 40
4.0
  0
CIRCLE
  5
7F
330
20
100
AcDbEntity
  8
100
  6
CONTINUOUS
100
AcDbCircle
 10
61.0
 20
75.0
 40
3.0
  0
CIRCLE
  5
80
330
20
100
AcDbEntity
  8
100
  6
CONTINUOUS
100
AcDbCircle
 10
80.0
 20
75.0
 40
4.0
  0
CIRCLE
  5
81
330
20
100
AcDbEntity
  8
100
  6
CONTINUOUS
100
AcDbCircle
 10
80.0
 20
75.0
 40
3.0
  0
CIRCLE
  5
82
330
20
100
AcDbEntity
  8
100
  6
CONTINUOUS
100
AcDbCircle
 10
61.0
 20
105.0
 40
4.0
  0
CIRCLE
  5
83
330
20
100
AcDbEntity
  8
100
  6
CONTINUOUS
100
AcDbCircle
 10
61.0
 20
105.0
 40
3.0
  0
CIRCLE
  5
84
330
20
100
AcDbEntity
  8
100
  6
CONTINUOUS
100
AcDbCircle
 10
80.0
 20
105.0
 40
4.0
  0
CIRCLE
  5
85
330
20
100
AcDbEntity
  8
100
  6
CONTINUOUS
100
AcDbCircle
 10
80.0
 20
105.0
 40
3.0
  0
SPLINE
  5
86
330
20
100
AcDbEntity
  8
100
  6
CONTINUOUS
100
AcDbSpline
210
0.0
220
0.0
230
1.0
 70
     8
 71
     3
 72
     9
 73
     5
 74
     0
 42
1.000000000000000E-007
 43
1.000000000000000E-007
 40
0.0
 40
0.0
 40
0.0
 40
0.0
 40
1.593213285997075
 40
3.186426571994199
 40
3.186426571994199
 40
3.186426571994199
 40
3.186426571994199
 10
-97.0
 20
-18.69999999999997
 30
0.0
 10
-97.33333333333337
 20
-18.46500000000012
 30
0.0
 10
-98.66666666666666
 20
-17.52499999999995
 30
0.0
 10
-97.33333333333331
 20
-16.58500000000001
 30
0.0
 10
-97.0
 20
-16.34999999999997
 30
0.0
  0
SPLINE
  5
87
330
20
100
AcDbEntity
  8
100
  6
CONTINUOUS
100
AcDbSpline
210
0.0
220
0.0
230
1.0
 70
     8
 71
     3
 72
     9
 73
     5
 74
     0
 42
1.000000000000000E-007
 43
1.000000000000000E-007
 40
0.0
 40
0.0
 40
0.0
 40
0.0
 40
1.593213285997075
 40
3.186426571994188
 40
3.186426571994188
 40
3.186426571994188
 40
3.186426571994188
 10
-97.0
 20
-16.34999999999997
 30
0.0
 10
-97.33333333333337
 20
-16.11500000000012
 30
0.0
 10
-98.66666666666666
 20
-15.17499999999994
 30
0.0
 10
-97.33333333333331
 20
-14.23500000000001
 30
0.0
 10
-97.0
 20
-13.99999999999997
 30
0.0
  0
SPLINE
  5
88
330
20
100
AcDbEntity
  8
100
  6
CONTINUOUS
100
AcDbSpline
210
0.0
220
0.0
230
1.0
 70
     8
 71
     3
 72
     9
 73
     5
 74
     0
 42
1.000000000000000E-007
 43
1.000000000000000E-007
 40
0.0
 40
0.0
 40
0.0
 40
0.0
 40
1.593213285997075
 40
3.1864265719942
 40
3.1864265719942
 40
3.1864265719942
 40
3.1864265719942
 10
-97.0
 20
-13.99999999999997
 30
0.0
 10
-96.66666666666663
 20
-14.23499999999982
 30
0.0
 10
-95.33333333333337
 20
-15.17499999999997
 30
0.0
 10
-96.66666666666663
 20
-16.11499999999994
 30
0.0
 10
-97.0
 20
-16.34999999999997
 30
0.0
  0
LINE
  5
89
330
20
100
AcDbEntity
  8
100
  6
CONTINUOUS
100
AcDbLine
 10
-115.0
 20
-32.5
 11
-165.0
 21
-32.5
  0
LINE
  5
8A
330
20
100
AcDbEntity
  8
100
  6
CONTINUOUS
100
AcDbLine
 10
-115.0
 20
32.5
 11
-165.0
 21
32.5
  0
LINE
  5
8B
330
20
100
AcDbEntity
  8
100
  6
CONTINUOUS
100
AcDbLine
 10
-115.0
 20
32.5
 11
-115.0
 21
-32.5
  0
LINE
  5
8C
330
20
100
AcDbEntity
  8
100
  6
CONTINUOUS
100
AcDbLine
 10
-165.0
 20
-32.5
 11
-165.0
 21
32.5
  0
LINE
  5
8D
330
20
100
AcDbEntity
  8
100
  6
CONTINUOUS
100
AcDbLine
 10
-115.0
 20
-17.35
 11
-115.0
 21
-30.0
  0
LINE
  5
8E
330
20
100
AcDbEntity
  8
100
  6
CONTINUOUS
100
AcDbLine
 10
-87.0
 20
-18.69999999999997
 11
-87.0
 21
-32.5
  0
LINE
  5
8F
330
20
100
AcDbEntity
  8
100
  6
CONTINUOUS
100
AcDbLine
 10
-87.0
 20
32.5
 11
-87.0
 21
-13.99999999999997
  0
LINE
  5
90
330
20
100
AcDbEntity
  8
100
  6
CENTER
100
AcDbLine
 10
-50.33333333333331
 20
-105.0
 11
-90.66666666666669
 21
-105.0
  0
LINE
  5
91
330
20
100
AcDbEntity
  8
100
  6
CENTER
100
AcDbLine
 10
-61.0
 20
-94.33333333333333
 11
-61.0
 21
-115.6666666666667
  0
LINE
  5
92
330
20
100
AcDbEntity
  8
100
  6
CENTER
100
AcDbLine
 10
-80.0
 20
-94.33333333333333
 11
-80.0
 21
-115.6666666666667
  0
LINE
  5
93
330
20
100
AcDbEntity
  8
100
  6
CENTER
100
AcDbLine
 10
-50.33333333333331
 20
-75.0
 11
-90.66666666666669
 21
-75.0
  0
LINE
  5
94
330
20
100
AcDbEntity
  8
100
  6
CENTER
100
AcDbLine
 10
-61.0
 20
-64.33333333333333
 11
-61.0
 21
-85.66666666666667
  0
LINE
  5
95
330
20
100
AcDbEntity
  8
100
  6
CENTER
100
AcDbLine
 10
-80.0
 20
-64.33333333333333
 11
-80.0
 21
-85.66666666666667
  0
LINE
  5
96
330
20
100
AcDbEntity
  8
100
  6
CENTER
100
AcDbLine
 10
90.66666666666669
 20
75.0
 11
50.33333333333331
 21
75.0
  0
LINE
  5
97
330
20
100
AcDbEntity
  8
100
  6
CENTER
100
AcDbLine
 10
80.0
 20
85.66666666666667
 11
80.0
 21
64.33333333333333
  0
LINE
  5
98
330
20
100
AcDbEntity
  8
100
  6
CENTER
100
AcDbLine
 10
61.0
 20
85.66666666666667
 11
61.0
 21
64.33333333333333
  0
LINE
  5
99
330
20
100
AcDbEntity
  8
100
  6
CENTER
100
AcDbLine
 10
90.66666666666669
 20
105.0
 11
50.33333333333331
 21
105.0
  0
LINE
  5
9A
330
20
100
AcDbEntity
  8
100
  6
CENTER
100
AcDbLine
 10
80.0
 20
115.6666666666667
 11
80.0
 21
94.33333333333333
  0
LINE
  5
9B
330
20
100
AcDbEntity
  8
100
  6
CENTER
100
AcDbLine
 10
61.0
 20
115.6666666666667
 11
61.0
 21
94.33333333333333
  0
LINE
  5
9C
330
20
100
AcDbEntity
  8
100
  6
CONTINUOUS
100
AcDbLine
 10
-76.50000000000001
 20
-59.3
 11
-97.0
 21
-59.3
  0
LINE
  5
9D
330
20
100
AcDbEntity
  8
100
  6
CONTINUOUS
100
AcDbLine
 10
-76.50000000000001
 20
-64.0
 11
-97.0
 21
-64.0
  0
LINE
  5
9E
330
20
100
AcDbEntity
  8
100
  6
CONTINUOUS
100
AcDbLine
 10
-76.5
 20
-13.99999999999997
 11
-97.0
 21
-13.99999999999997
  0
LINE
  5
9F
330
20
100
AcDbEntity
  8
100
  6
CONTINUOUS
100
AcDbLine
 10
-76.5
 20
-18.69999999999997
 11
-97.0
 21
-18.69999999999997
  0
LINE
  5
A0
330
20
100
AcDbEntity
  8
100
  6
CONTINUOUS
100
AcDbLine
 10
-76.50000000000001
 20
64.0
 11
-97.0
 21
64.0
  0
LINE
  5
A1
330
20
100
AcDbEntity
  8
100
  6
CONTINUOUS
100
AcDbLine
 10
-76.50000000000001
 20
59.3
 11
-97.0
 21
59.3
  0
CIRCLE
  5
A2
330
20
100
AcDbEntity
  8
10
  6
CONTINUOUS
100
AcDbCircle
 10
-72.0
 20
-27.0
 40
3.15
  0
ARC
  5
A4
330
20
100
AcDbEntity
  8
10
  6
CONTINUOUS
100
AcDbCircle
 10
-72.0
 20
-27.0
 40
1.75
100
AcDbArc
 50
180.0
 51
188.2132107017384
  0
ARC
  5
A5
330
20
100
AcDbEntity
  8
10
  6
CONTINUOUS
100
AcDbCircle
 10
-72.0
 20
-27.0
 40
1.75
100
AcDbArc
 50
261.7867892982616
 51
278.2132107017384
  0
ARC
  5
A6
330
20
100
AcDbEntity
  8
10
  6
CONTINUOUS
100
AcDbCircle
 10
-72.0
 20
-27.0
 40
1.75
100
AcDbArc
 50
351.7867892982619
 51
8.213210701738101
  0
ARC
  5
A7
330
20
100
AcDbEntity
  8
10
  6
CONTINUOUS
100
AcDbCircle
 10
-72.0
 20
-27.0
 40
1.75
100
AcDbArc
 50
81.78678929826191
 51
98.21321070173811
  0
ARC
  5
A8
330
20
100
AcDbEntity
  8
10
  6
CONTINUOUS
100
AcDbCircle
 10
-72.0
 20
-27.0
 40
1.75
100
AcDbArc
 50
171.7867892982617
 51
180.0
  0
LINE
  5
A9
330
20
100
AcDbEntity
  8
10
  6
CONTINUOUS
100
AcDbLine
 10
-70.2679491924311
 20
-27.25
 11
-71.14999999999998
 21
-27.25
  0
LINE
  5
AA
330
20
100
AcDbEntity
  8
10
  6
CONTINUOUS
100
AcDbLine
 10
-72.84999999999997
 20
-27.25
 11
-73.73205080756884
 21
-27.25
  0
LINE
  5
AB
330
20
100
AcDbEntity
  8
10
  6
CONTINUOUS
100
AcDbLine
 10
-70.2679491924311
 20
-26.75
 11
-71.14999999999998
 21
-26.75
  0
LINE
  5
AC
330
20
100
AcDbEntity
  8
10
  6
CONTINUOUS
100
AcDbLine
 10
-72.84999999999997
 20
-26.75
 11
-73.73205080756884
 21
-26.75
  0
LINE
  5
AD
330
20
100
AcDbEntity
  8
10
  6
CONTINUOUS
100
AcDbLine
 10
-72.25
 20
-25.2679491924311
 11
-72.25
 21
-26.14999999999998
  0
LINE
  5
AE
330
20
100
AcDbEntity
  8
10
  6
CONTINUOUS
100
AcDbLine
 10
-72.25
 20
-27.84999999999997
 11
-72.25
 21
-28.73205080756884
  0
LINE
  5
AF
330
20
100
AcDbEntity
  8
10
  6
CONTINUOUS
100
AcDbLine
 10
-71.75
 20
-25.2679491924311
 11
-71.75
 21
-26.14999999999998
  0
LINE
  5
B0
330
20
100
AcDbEntity
  8
10
  6
CONTINUOUS
100
AcDbLine
 10
-71.75
 20
-27.84999999999997
 11
-71.75
 21
-28.73205080756884
  0
ARC
  5
B1
330
20
100
AcDbEntity
  8
10
  6
CONTINUOUS
100
AcDbCircle
 10
-72.84999999999997
 20
-27.84999999999997
 40
0.6
100
AcDbArc
 50
0.0
 51
90.0
  0
ARC
  5
B2
330
20
100
AcDbEntity
  8
10
  6
CONTINUOUS
100
AcDbCircle
 10
-71.14999999999998
 20
-27.84999999999997
 40
0.6
100
AcDbArc
 50
90.0
 51
180.0
  0
ARC
  5
B3
330
20
100
AcDbEntity
  8
10
  6
CONTINUOUS
100
AcDbCircle
 10
-71.14999999999998
 20
-26.14999999999998
 40
0.6
100
AcDbArc
 50
180.0
 51
270.0
  0
ARC
  5
B4
330
20
100
AcDbEntity
  8
10
  6
CONTINUOUS
100
AcDbCircle
 10
-72.84999999999997
 20
-26.14999999999998
 40
0.6
100
AcDbArc
 50
270.0
 51
0.0
  0
LINE
  5
B5
330
20
100
AcDbEntity
  8
100
  6
CONTINUOUS
100
AcDbLine
 10
-76.5
 20
-13.0
 11
-76.5
 21
-29.0
  0
ARC
  5
B6
330
20
100
AcDbEntity
  8
100
  6
CONTINUOUS
100
AcDbCircle
 10
-72.0
 20
-24.9375
 40
6.0625
100
AcDbArc
 50
222.0750220508436
 51
317.9249779491564
  0
LINE
  5
B7
330
20
100
AcDbEntity
  8
100
  6
CONTINUOUS
100
AcDbLine
 10
-67.5
 20
-13.0
 11
-76.5
 21
-13.0
  0
LINE
  5
B8
330
20
100
AcDbEntity
  8
100
  6
CONTINUOUS
100
AcDbLine
 10
-67.5
 20
-57.79999999999998
 11
-67.5
 21
-65.0
  0
LINE
  5
B9
330
20
100
AcDbEntity
  8
100
  6
CONTINUOUS
100
AcDbLine
 10
-76.50000000000001
 20
-57.79999999999998
 11
-76.50000000000001
 21
-65.0
  0
LINE
  5
BA
330
20
100
AcDbEntity
  8
10
  6
CONTINUOUS
100
AcDbLine
 10
-75.14999999999999
 20
-63.0
 11
-68.84999999999997
 21
-63.0
  0
LINE
  5
BB
330
20
100
AcDbEntity
  8
10
  6
CONTINUOUS
100
AcDbLine
 10
-68.96373526258367
 20
-61.69999999999999
 11
-68.84999999999997
 21
-63.0
  0
LINE
  5
BC
330
20
100
AcDbEntity
  8
10
  6
CONTINUOUS
100
AcDbLine
 10
-75.03626473741629
 20
-61.69999999999999
 11
-68.96373526258367
 21
-61.69999999999999
  0
LINE
  5
BD
330
20
100
AcDbEntity
  8
10
  6
CONTINUOUS
100
AcDbLine
 10
-75.03626473741629
 20
-61.69999999999999
 11
-75.14999999999999
 21
-63.0
  0
ARC
  5
BE
330
20
100
AcDbEntity
  8
10
  6
CONTINUOUS
100
AcDbCircle
 10
-72.00000000000001
 20
-69.08241962973136
 40
7.98241962973139
100
AcDbArc
 50
67.64346058572963
 51
112.3565394142699
  0
LINE
  5
BF
330
20
100
AcDbEntity
  8
100
  6
CONTINUOUS
100
AcDbLine
 10
-76.50000000000001
 20
-63.0
 11
-67.5
 21
-63.0
  0
LINE
  5
C0
330
20
100
AcDbEntity
  8
100
  6
CONTINUOUS
100
AcDbLine
 10
-76.50000000000001
 20
-64.0
 11
-67.5
 21
-64.0
  0
LINE
  5
C1
330
20
100
AcDbEntity
  8
100
  6
CONTINUOUS
100
AcDbLine
 10
-67.5
 20
-57.79999999999998
 11
-76.50000000000001
 21
-57.79999999999998
  0
LINE
  5
C2
330
20
100
AcDbEntity
  8
100
  6
CONTINUOUS
100
AcDbLine
 10
-67.5
 20
-13.0
 11
-67.5
 21
-29.0
  0
LINE
  5
C3
330
20
100
AcDbEntity
  8
10
  6
CONTINUOUS
100
AcDbLine
 10
-113.0
 20
-23.84999999999997
 11
-113.0
 21
-30.14999999999998
  0
LINE
  5
C4
330
20
100
AcDbEntity
  8
10
  6
CONTINUOUS
100
AcDbLine
 10
-111.7
 20
-30.03626473741628
 11
-113.0
 21
-30.14999999999998
  0
LINE
  5
C5
330
20
100
AcDbEntity
  8
10
  6
CONTINUOUS
100
AcDbLine
 10
-111.7
 20
-23.96373526258367
 11
-111.7
 21
-30.03626473741628
  0
LINE
  5
C6
330
20
100
AcDbEntity
  8
10
  6
CONTINUOUS
100
AcDbLine
 10
-111.7
 20
-23.96373526258367
 11
-113.0
 21
-23.84999999999997
  0
ARC
  5
C7
330
20
100
AcDbEntity
  8
10
  6
CONTINUOUS
100
AcDbCircle
 10
-119.0824196297314
 20
-27.0
 40
7.98241962973139
100
AcDbArc
 50
337.6434605857301
 51
22.35653941427028
  0
LINE
  5
C8
330
20
100
AcDbEntity
  8
100
  6
CONTINUOUS
100
AcDbLine
 10
-113.0
 20
-23.68025612106914
 11
-113.0
 21
-31.0
  0
LINE
  5
C9
330
20
100
AcDbEntity
  8
100
  6
CONTINUOUS
100
AcDbLine
 10
-115.0
 20
-16.34999999999997
 11
-115.0
 21
-31.0
  0
LINE
  5
CA
330
20
100
AcDbEntity
  8
100
  6
CONTINUOUS
100
AcDbLine
 10
-113.0
 20
-31.0
 11
-115.0
 21
-31.0
  0
LINE
  5
CB
330
20
100
AcDbEntity
  8
100
  6
CONTINUOUS
100
AcDbLine
 10
-114.0
 20
-23.0
 11
-114.0
 21
-31.0
  0
LINE
  5
CC
330
20
100
AcDbEntity
  8
100
  6
CONTINUOUS
100
AcDbLine
 10
-113.0
 20
-23.84999999999997
 11
-113.0
 21
-23.24851463212104
  0
ARC
  5
CD
330
20
100
AcDbEntity
  8
100
  6
CONTINUOUS
100
AcDbCircle
 10
-112.0
 20
-23.24851463212104
 40
0.9999999999999883
100
AcDbArc
 50
152.0877671997691
 51
180.0
  0
LINE
  5
CE
330
20
100
AcDbEntity
  8
100
  6
CONTINUOUS
100
AcDbLine
 10
-114.0
 20
-16.34999999999997
 11
-114.0
 21
-23.0
  0
LINE
  5
CF
330
20
100
AcDbEntity
  8
100
  6
CONTINUOUS
100
AcDbLine
 10
-115.0
 20
2.000000000000028
 11
-115.0
 21
-16.34999999999997
  0
CIRCLE
  5
D0
330
20
100
AcDbEntity
  8
100
  6
CONTINUOUS
100
AcDbCircle
 10
-111.65
 20
-16.34999999999997
 40
2.35
  0
ARC
  5
D1
330
20
100
AcDbEntity
  8
100
  6
CONTINUOUS
100
AcDbCircle
 10
-111.65
 20
-16.34999999999997
 40
3.349999999999994
100
AcDbArc
 50
0.0
 51
180.0
  0
ARC
  5
D2
330
20
100
AcDbEntity
  8
100
  6
CONTINUOUS
100
AcDbCircle
 10
-111.65
 20
-16.34999999999997
 40
3.350000000000531
100
AcDbArc
 50
318.3671676910481
 51
0.0
  0
LINE
  5
D3
330
20
100
AcDbEntity
  8
100
  6
CONTINUOUS
100
AcDbLine
 10
-112.8836657056959
 20
-22.78039614223098
 11
-109.1461513185527
 21
-18.57558796285782
  0
LINE
  5
D4
330
20
100
AcDbEntity
  8
100
  6
CONTINUOUS
100
AcDbLine
 10
-114.0
 20
-22.5310832153044
 11
-109.8935688354025
 21
-17.91123334707946
  0
LINE
  5
D5
330
20
100
AcDbEntity
  8
100
  6
CONTINUOUS
100
AcDbLine
 10
-67.5
 20
57.8
 11
-67.5
 21
65.0
  0
LINE
  5
D6
330
20
100
AcDbEntity
  8
100
  6
CONTINUOUS
100
AcDbLine
 10
-76.50000000000001
 20
57.8
 11
-76.50000000000001
 21
65.0
  0
LINE
  5
D7
330
20
100
AcDbEntity
  8
100
  6
CONTINUOUS
100
AcDbLine
 10
-67.5
 20
57.8
 11
-76.50000000000001
 21
57.8
  0
LWPOLYLINE
  5
D8
330
20
100
AcDbEntity
  8
100
  6
CENTER
100
AcDbPolyline
 90
       94
 70
     0
 43
0.0
 10
-34.0
 20
12.00000000000022
 10
-33.9856312524426
 20
11.00530909319991
 10
-34.01163893949551
 20
10.00046185842827
 10
-34.18587174145562
 20
7.93122537808711
 10
-34.51896796955911
 20
5.758435862756811
 10
-35.09354482881265
 20
2.943586329711708
 10
-35.51271451385939
 20
0.9376498588133888
 10
-35.76670654125564
 20
-0.5071169929512269
 10
-35.92889284559158
 20
-1.808202020854779
 10
-36.0
 20
-2.999999999999821
 10
-35.96879809088826
 20
-4.469320641935743
 10
-35.80779080056707
 20
-6.081853884391384
 10
-35.51857000593765
 20
-7.873517872775659
 10
-35.02116056402709
 20
-10.33981295777287
 10
-34.57403192761679
 20
-12.53525498248871
 10
-34.2922454852262
 20
-14.15717786102794
 10
-34.1010388651129
 20
-15.63586567051041
 10
-34.0
 20
-16.99999999999965
 10
-33.98232455761118
 20
-18.31537906961805
 10
-34.0404268379779
 20
-19.69741934251695
 10
-34.17426621903645
 20
-21.14528629605238
 10
-34.38382333332915
 20
-22.65878723317393
 10
-34.66464356871189
 20
-24.21595253584451
 10
-35.02029789746251
 20
-25.84388145311536
 10
-35.44664546512266
 20
-27.53112289866135
 10
-36.0
 20
-29.50000000000053
 10
-41.5
 20
-29.5
 10
-41.5
 20
-29.5
 42
0.3178372451957831
 10
-44.32842712474619
 20
-31.5
 42
0.08516423317473769
 10
-44.49999999999999
 20
-32.5
 10
-78.0000000000002
 20
-32.5
 10
-78.76168641748929
 20
-30.16071311277962
 10
-79.32809324063641
 20
-28.04205257398991
 10
-79.74352534575266
 20
-25.97979315544972
 10
-80.0
 20
-23.9999999999996
 10
-80.00727452143811
 20
-23.91883364914582
 10
-80.01429509527667
 20
-23.83752175165727
 10
-80.02106009245566
 20
-23.75606516795295
 10
-80.02756788391508
 20
-23.6744647584519
 10
-80.03381684059492
 20
-23.59272138357313
 10
-80.03980533343517
 20
-23.51083590373566
 10
-80.04553173337581
 20
-23.42880917935853
 10
-80.05099441135681
 20
-23.34664207086073
 10
-80.05619173831818
 20
-23.26433543866131
 10
-80.06112208519988
 20
-23.18189014317927
 10
-80.06578382294194
 20
-23.09930704483365
 10
-80.0701753224843
 20
-23.01658700404346
 10
-80.07429495476698
 20
-22.93373088122772
 10
-80.07814109072994
 20
-22.85073953680545
 10
-80.08171210131319
 20
-22.76761383119568
 10
-80.08500635745671
 20
-22.68435462481743
 10
-80.08802223010046
 20
-22.60096277808972
 10
-80.09075809018447
 20
-22.51743915143156
 10
-80.0932123086487
 20
-22.43378460526199
 10
-80.09538325643314
 20
-22.35
 10
-80.09509695587862
 20
-21.16287800063504
 10
-80.03666003873818
 20
-19.98288126583986
 10
-79.92014851035832
 20
-18.81151726299586
 10
-79.74568480493491
 20
-17.65
 10
-79.44487284431749
 20
-16.20743042848978
 10
-79.05336277081079
 20
-14.78390329584831
 10
-78.57159206383778
 20
-13.38100239743433
 10
-78.0
 20
-11.99999999999979
 10
-77.41502351333381
 20
-10.77592520493008
 10
-76.53326074853393
 20
-9.072729077133149
 10
-75.4366775041924
 20
-6.945300035231011
 10
-74.64459166394872
 20
-5.266201712591727
 10
-73.96663346695301
 20
-3.631994387204015
 10
-73.39658045351048
 20
-2.017787224368483
 10
-72.90739906222876
 20
-0.3332724836912764
 10
-72.51342007407169
 20
1.389347036330864
 10
-72.21140140066702
 20
3.164373825920043
 10
-72.0
 20
5.000000000000252
 10
-71.85631915711612
 20
7.38649641958966
 10
-71.82437902170827
 20
10.06444581961298
 10
-71.90419028362049
 20
13.03221884819764
 10
-72.09573990729443
 20
16.2894170660587
 10
-72.39405438547257
 20
19.78561807792726
 10
-72.80228221241413
 20
23.5787392017973
 10
-73.31500739028061
 20
27.63845391782874
 10
-74.0
 20
32.5
 10
-44.5
 20
32.5
 10
-44.5
 20
32.5
 42
0.08516423317475128
 10
-44.32842712474619
 20
31.5
 42
0.3178372451957824
 10
-41.5
 20
29.50000000000001
 10
-38.0
 20
29.5
 10
-37.04571396427576
 20
26.55997158532493
 10
-36.2930350091934
 20
24.07735952627264
 10
-35.64260092854413
 20
21.72493284724776
 10
-35.10121694943586
 20
19.52050155855655
 10
-34.66125194223899
 20
17.42671595718561
 10
-34.33101430532069
 20
15.47505723051832
 10
-34.11055010526923
 20
13.66578632309205
 10
-34.0
 20
12.00000000000022
  0
HATCH
  5
D9
330
20
100
AcDbEntity
  8
100
  6
CONTINUOUS
100
AcDbHatch
 10
0.0
 20
0.0
 30
0.0
210
0.0
220
0.0
230
1.0
  2
_U
 70
     0
 71
     0
 91
        1
 92
        5
 93
       22
 72
     4
 94
        3
 73
     0
 74
     0
 95
        8
 96
        4
 40
0.0
 40
0.0
 40
0.0
 40
0.0
 40
15.17051830199674
 40
15.17051830199674
 40
15.17051830199674
 40
15.17051830199674
 10
-34.0
 20
12.00000000000022
 10
-33.78947368421052
 20
5.961722488038523
 10
-35.89473684210526
 20
1.526315789473991
 10
-36.0
 20
-2.99999999999982
 72
     4
 94
        3
 73
     0
 74
     0
 95
        8
 96
        4
 40
0.0
 40
0.0
 40
0.0
 40
0.0
 40
14.1681343514825
 40
14.1681343514825
 40
14.1681343514825
 40
14.1681343514825
 10
-36.0
 20
-2.99999999999982
 10
-36.10526315789474
 20
-7.526315789473628
 10
-34.21052631578948
 20
-12.14354066985672
 10
-34.0
 20
-16.99999999999965
 72
     4
 94
        3
 73
     0
 74
     0
 95
        8
 96
        4
 40
0.0
 40
0.0
 40
0.0
 40
0.0
 40
12.71566994788935
 40
12.71566994788935
 40
12.71566994788935
 40
12.71566994788935
 10
-34.0
 20
-16.99999999999965
 10
-33.78947368421058
 20
-21.85645933014258
 10
-35.26315789473699
 20
-26.95215311004535
 10
-36.0
 20
-29.50000000000053
 72
     1
 10
-36.0
 20
-29.50000000000053
 11
-41.5
 21
-29.5
 72
     2
 10
-41.5
 20
-32.5
 40
3.0
 50
90.0
 51
160.5287793655093
 73
     1
 72
     2
 10
-41.5
 20
-32.5
 40
2.999999999999995
 50
160.5287793655093
 51
180.0000000000001
 73
     1
 72
     1
 10
-44.49999999999999
 20
-32.5
 11
-78.0000000000002
 21
-32.5
 72
     4
 94
        3
 73
     0
 74
     0
 95
        8
 96
        4
 40
0.0
 40
0.0
 40
0.0
 40
0.0
 40
8.75461600455213
 40
8.75461600455213
 40
8.75461600455213
 40
8.75461600455213
 10
-78.0000000000002
 20
-32.5
 10
-78.55502392344482
 20
-30.88995215310723
 10
-79.66507177033486
 20
-27.66985645932905
 10
-80.0
 20
-23.9999999999996
 72
     4
 94
        3
 73
     0
 74
     0
 95
        8
 96
        4
 40
0.0
 40
0.0
 40
0.0
 40
0.0
 40
1.653062216895384
 40
1.653062216895384
 40
1.653062216895384
 40
1.653062216895384
 10
-80.0
 20
-23.9999999999996
 10
-80.04933968145247
 20
-23.45937806179931
 10
-80.0818581269362
 20
-22.90899565334555
 10
-80.09538325643314
 20
-22.35
 72
     4
 94
        3
 73
     0
 74
     0
 95
        8
 96
        4
 40
0.0
 40
0.0
 40
0.0
 40
0.0
 40
4.72073935045378
 40
4.72073935045378
 40
4.72073935045378
 40
4.72073935045378
 10
-80.09538325643314
 20
-22.35
 10
-80.13194900393211
 20
-20.83873211026338
 10
-80.02969002014055
 20
-19.26450884146224
 10
-79.74568480493491
 20
-17.65
 72
     4
 94
        3
 73
     0
 74
     0
 95
        8
 96
        4
 40
0.0
 40
0.0
 40
0.0
 40
0.0
 40
5.928875917419523
 40
5.928875917419523
 40
5.928875917419523
 40
5.928875917419523
 10
-79.74568480493491
 20
-17.65
 10
-79.42164219621742
 20
-15.80788714863554
 10
-78.86099834346874
 20
-13.91332965215265
 10
-78.0
 20
-11.99999999999979
 72
     4
 94
        3
 73
     0
 74
     0
 95
        8
 96
        4
 40
0.0
 40
0.0
 40
0.0
 40
0.0
 40
18.17688245741332
 40
18.17688245741332
 40
18.17688245741332
 40
18.17688245741332
 10
-78.0
 20
-11.99999999999979
 10
-76.10526315789468
 20
-7.789473684210179
 10
-72.75598086124398
 20
-3.488038277511683
 10
-72.0
 20
5.000000000000252
 72
     4
 94
        3
 73
     0
 74
     0
 95
        8
 96
        4
 40
0.0
 40
0.0
 40
0.0
 40
0.0
 40
27.62707556109176
 40
27.62707556109176
 40
27.62707556109176
 40
27.62707556109176
 10
-72.0
 20
5.000000000000252
 10
-71.24401913875596
 20
13.48803827751219
 10
-73.08133971291863
 20
26.16267942583757
 10
-74.0
 20
32.5
 72
     1
 10
-74.0
 20
32.5
 11
-44.5
 21
32.5
 72
     2
 10
-41.5
 20
32.5
 40
3.0
 50
180.0
 51
199.4712206344907
 73
     1
 72
     2
 10
-41.5
 20
32.5
 40
2.999999999999995
 50
199.4712206344907
 51
269.9999999999999
 73
     1
 72
     1
 10
-41.5
 20
29.50000000000001
 11
-38.0
 21
29.5
 72
     4
 94
        3
 73
     0
 74
     0
 95
        8
 96
        4
 40
0.0
 40
0.0
 40
0.0
 40
0.0
 40
18.00783253269168
 40
18.00783253269168
 40
18.00783253269168
 40
18.00783253269168
 10
-38.0
 20
29.5
 10
-36.73684210526318
 20
25.67942583732079
 10
-34.21052631578948
 20
18.03827751196192
 10
-34.0
 20
12.00000000000022
 72
     1
 10
-67.5
 20
-13.0
 11
-76.5
 21
-13.0
 72
     1
 10
-67.5
 20
-13.0
 11
-67.5
 21
-29.0
 72
     2
 10
-72.0
 20
-24.9375
 40
6.0625
 50
-317.9249779491564
 51
-222.0750220508436
 73
     0
 72
     1
 10
-76.5
 20
-13.0
 11
-76.5
 21
-29.0
 97
        0
 75
     0
 76
     0
 52
0.0
 41
2.666666666666667
 77
     0
 78
     1
 53
45.0
 43
0.0
 44
0.0
 45
-1.885618083164127
 46
1.885618083164127
 79
     0
 47
0.322189
 98
        1
 10
0.0
 20
0.0
  0
LINE
  5
DA
330
20
100
AcDbEntity
  8
100
  6
CONTINUOUS
100
AcDbLine
 10
-113.0
 20
30.5
 11
-113.0
 21
-13.28405805664877
  0
ARC
  5
DB
330
20
100
AcDbEntity
  8
100
  6
CONTINUOUS
100
AcDbCircle
 10
-115.0
 20
30.5
 40
2.0
100
AcDbArc
 50
0.0
 51
90.0
  0
LWPOLYLINE
  5
DC
330
20
100
AcDbEntity
  8
100
  6
CONTINUOUS
100
AcDbPolyline
 90
        5
 70
     0
 43
0.0
 10
-113.0
 20
30.5
 10
-113.0
 20
-13.28405805664877
 42
0.2973295500968785
 10
-115.0000000000006
 20
-16.34999999999997
 10
-115.0
 20
32.5
 42
-0.414213562373094
 10
-113.0
 20
30.5
  0
HATCH
  5
DD
330
20
100
AcDbEntity
  8
100
  6
CONTINUOUS
100
AcDbHatch
 10
0.0
 20
0.0
 30
0.0
210
0.0
220
0.0
230
1.0
  2
_U
 70
     0
 71
     0
 91
        1
 92
        5
 93
        4
 72
     1
 10
-113.0
 20
30.5
 11
-113.0
 21
-13.28405805664877
 72
     2
 10
-111.65
 20
-16.34999999999997
 40
3.350000000000545
 50
113.764923033608
 51
180.0000000000041
 73
     1
 72
     1
 10
-115.0000000000006
 20
-16.34999999999997
 11
-115.0
 21
32.5
 72
     2
 10
-115.0
 20
30.5
 40
2.0
 50
-90.0
 51
0.0
 73
     0
 97
        0
 75
     0
 76
     0
 52
0.0
 41
2.666666666666667
 77
     0
 78
     1
 53
45.0
 43
0.0
 44
0.0
 45
-1.885618083164127
 46
1.885618083164127
 79
     0
 47
0.322189
 98
        1
 10
0.0
 20
0.0
  0
ENDSEC
  0
SECTION
  2
OBJECTS
  0
DICTIONARY
  5
C
100
AcDbDictionary
281
     1
  3
ACAD_GROUP
350
D
  3
ACAD_MLINESTYLE
350
E
  3
ACDBVARIABLEDICTIONARY
350
DE
  3
ACAD_PLOTSTYLENAME
350
DF
  3
ACAD_LAYOUT
350
E0
  3
ACAD_PLOTSETTINGS
350
E1
  0
DICTIONARY
  5
D
102
{ACAD_REACTORS
330
C
102
}
330
C
100
AcDbDictionary
281
     1
  0
DICTIONARY
  5
E
102
{ACAD_REACTORS
330
C
102
}
330
C
100
AcDbDictionary
281
     1
  3
STANDARD
350
13
  0
DICTIONARY
  5
DE
102
{ACAD_REACTORS
330
C
102
}
330
C
100
AcDbDictionary
281
     1
  3
SORTENTS
350
E2
  0
ACDBDICTIONARYWDFLT
  5
DF
102
{ACAD_REACTORS
330
C
102
}
330
C
100
AcDbDictionary
281
     1
  3
Normal
350
E3
100
AcDbDictionaryWithDefault
340
E3
  0
DICTIONARY
  5
E0
102
{ACAD_REACTORS
330
C
102
}
330
C
100
AcDbDictionary
281
     1
  3
Model
350
E4
  0
DICTIONARY
  5
E1
102
{ACAD_REACTORS
330
C
102
}
330
C
100
AcDbDictionary
281
     1
  0
MLINESTYLE
  5
13
102
{ACAD_REACTORS
330
E
102
}
330
E
100
AcDbMlineStyle
  2
STANDARD
 70
     0
  3

 62
   256
 51
90.0
 52
90.0
 71
     2
 49
0.5
 62
   256
  6
BYLAYER
 49
-0.5
 62
   256
  6
BYLAYER
  0
DICTIONARYVAR
  5
E2
102
{ACAD_REACTORS
330
DE
102
}
330
DE
100
DictionaryVariables
280
     0
  1
96
  0
ACDBPLACEHOLDER
  5
E3
102
{ACAD_REACTORS
330
DF
102
}
330
DF
  0
LAYOUT
  5
E4
102
{ACAD_REACTORS
330
E0
102
}
330
E0
100
AcDbPlotSettings
  1

  2

  4

  6

 40
0.0
 41
0.0
 42
0.0
 43
0.0
 44
0.0
 45
0.0
 46
0.0
 47
0.0
 48
0.0
 49
0.0
140
0.0
141
0.0
142
1.0
143
1.0
 70
  1712
 72
     0
 73
     0
 74
     0
  7

 75
     0
147
1.0
148
0.0
149
0.0
100
AcDbLayout
  1
Model
 70
     1
 71
     0
 10
0.0
 20
0.0
 11
297.0
 21
210.0
 12
0.0
 22
0.0
 32
0.0
 14
0.0
 24
0.0
 34
0.0
 15
0.0
 25
0.0
 35
0.0
146
0.0
 13
0.0
 23
0.0
 33
0.0
 16
1.0
 26
0.0
 36
0.0
 17
0.0
 27
1.0
 37
0.0
 76
     0
330
20
  0
ENDSEC
  0
EOF
