  0
SECTION
  2
HEADER
  9
$ACADVER
  1
AC1015
  9
$ACADMAINTVER
 70
     0
  9
$DWGCODEPAGE
  3
ANSI_932
  9
$INSBASE
 10
0.0
 20
0.0
 30
0.0
  9
$EXTMIN
 10
-22.5
 20
-22.5
  9
$EXTMAX
 10
177.0
 20
22.5
  9
$LIMMIN
 10
-22.5
 20
-22.5
  9
$LIMMAX
 10
177.0
 20
22.5
  9
$ORTHOMODE
 70
     0
  9
$REGENMODE
 70
     1
  9
$FILLMODE
 70
     1
  9
$QTEXTMODE
 70
     0
  9
$MIRRTEXT
 70
     1
  9
$LTSCALE
 40
1.0
  9
$OSMODE
 70
     0
  9
$ATTMODE
 70
     1
  9
$TEXTSIZE
 40
3.0
  9
$TRACEWID
 40
0.5
  9
$TEXTSTYLE
  7
STANDARD
  9
$CLAYER
  8
0
  9
$CELTYPE
  6
BYLAYER
  9
$CECOLOR
 62
   256
  9
$CELTSCALE
 40
1.0
  9
$DISPSILH
 70
     0
  9
$DIMSCALE
 40
1.0
  9
$DIMASZ
 40
3.0
  9
$DIMEXO
 40
1.0
  9
$DIMDLI
 40
5.0
  9
$DIMRND
 40
0.0
  9
$DIMDLE
 40
5.0
  9
$DIMEXE
 40
2.0
  9
$DIMTP
 40
0.0
  9
$DIMTM
 40
0.0
  9
$DIMTXT
 40
3.0
  9
$DIMCEN
 40
2.0
  9
$DIMTSZ
 40
0.0
  9
$DIMTOL
 70
     0
  9
$DIMLIM
 70
     0
  9
$DIMTIH
 70
     0
  9
$DIMTOH
 70
     0
  9
$DIMSE1
 70
     0
  9
$DIMSE2
 70
     0
  9
$DIMTAD
 70
     1
  9
$DIMZIN
 70
     8
  9
$DIMBLK
  1

  9
$DIMASO
 70
     1
  9
$DIMSHO
 70
     1
  9
$DIMPOST
  1

  9
$DIMAPOST
  1

  9
$DIMALT
 70
     0
  9
$DIMALTD
 70
     0
  9
$DIMALTF
 40
25.4
  9
$DIMLFAC
 40
1.0
  9
$DIMTOFL
 70
     1
  9
$DIMTVP
 40
1.0
  9
$DIMTIX
 70
     0
  9
$DIMSOXD
 70
     0
  9
$DIMSAH
 70
     0
  9
$DIMBLK1
  1

  9
$DIMBLK2
  1

  9
$DIMSTYLE
  2
ISO-25
  9
$DIMCLRD
 70
     0
  9
$DIMCLRE
 70
     0
  9
$DIMCLRT
 70
     0
  9
$DIMTFAC
 40
1.0
  9
$DIMGAP
 40
1.0
  9
$DIMJUST
 70
     0
  9
$DIMSD1
 70
     0
  9
$DIMSD2
 70
     0
  9
$DIMTOLJ
 70
     0
  9
$DIMTZIN
 70
     8
  9
$DIMALTZ
 70
     0
  9
$DIMALTTZ
 70
     0
  9
$DIMUPT
 70
     0
  9
$DIMDEC
 70
     2
  9
$DIMTDEC
 70
     2
  9
$DIMALTU
 70
     2
  9
$DIMALTTD
 70
     3
  9
$DIMTXSTY
  7
STANDARD
  9
$DIMAUNIT
 70
     0
  9
$DIMADEC
 70
     0
  9
$DIMALTRND
 40
0.0
  9
$DIMAZIN
 70
     0
  9
$DIMDSEP
 70
    46
  9
$DIMATFIT
 70
     3
  9
$DIMFRAC
 70
     0
  9
$DIMLDRBLK
  1

  9
$DIMLUNIT
 70
     2
  9
$DIMLWD
 70
    -2
  9
$DIMLWE
 70
    -2
  9
$DIMTMOVE
 70
     0
  9
$LUNITS
 70
     2
  9
$LUPREC
 70
     4
  9
$SKETCHINC
 40
1.0
  9
$FILLETRAD
 40
0.0
  9
$AUNITS
 70
     0
  9
$AUPREC
 70
     0
  9
$MENU
  1
.
  9
$ELEVATION
 40
0.0
  9
$PELEVATION
 40
0.0
  9
$THICKNESS
 40
0.0
  9
$LIMCHECK
 70
     0
  9
$CHAMFERA
 40
0.0
  9
$CHAMFERB
 40
0.0
  9
$CHAMFERC
 40
0.0
  9
$CHAMFERD
 40
0.0
  9
$SKPOLY
 70
     0
  9
$TDCREATE
 40
2454130.553275463
  9
$TDUCREATE
 40
2454130.553275463
  9
$TDUPDATE
 40
2454130.553275463
  9
$TDUUPDATE
 40
2454130.553275463
  9
$TDINDWG
 40
0.0
  9
$TDUSRTIMER
 40
0.0
  9
$USRTIMER
 70
     1
  9
$ANGBASE
 50
0.0
  9
$ANGDIR
 70
     0
  9
$PDMODE
 70
     0
  9
$PDSIZE
 40
0.0
  9
$PLINEWID
 40
0.0
  9
$SPLFRAME
 70
     0
  9
$SPLINETYPE
 70
     6
  9
$SPLINESEGS
 70
     8
  9
$HANDSEED
  5
E8
  9
$SURFTAB1
 70
     6
  9
$SURFTAB2
 70
     6
  9
$SURFTYPE
 70
     6
  9
$SURFU
 70
     6
  9
$SURFV
 70
     6
  9
$UCSBASE
  2

  9
$UCSNAME
  2

  9
$UCSORG
 10
0.0
 20
0.0
 30
0.0
  9
$UCSXDIR
 10
1.0
 20
0.0
 30
0.0
  9
$UCSYDIR
 10
0.0
 20
1.0
 30
0.0
  9
$UCSORTHOREF
  2

  9
$UCSORTHOVIEW
 70
     0
  9
$UCSORGTOP
 10
0.0
 20
0.0
 30
0.0
  9
$UCSORGBOTTOM
 10
0.0
 20
0.0
 30
0.0
  9
$UCSORGLEFT
 10
0.0
 20
0.0
 30
0.0
  9
$UCSORGRIGHT
 10
0.0
 20
0.0
 30
0.0
  9
$UCSORGFRONT
 10
0.0
 20
0.0
 30
0.0
  9
$UCSORGBACK
 10
0.0
 20
0.0
 30
0.0
  9
$PUCSBASE
  2

  9
$PUCSNAME
  2

  9
$PUCSORG
 10
0.0
 20
0.0
 30
0.0
  9
$PUCSXDIR
 10
1.0
 20
0.0
 30
0.0
  9
$PUCSYDIR
 10
0.0
 20
1.0
 30
0.0
  9
$PUCSORTHOREF
  2

  9
$PUCSORTHOVIEW
 70
     0
  9
$PUCSORGTOP
 10
0.0
 20
0.0
 30
0.0
  9
$PUCSORGBOTTOM
 10
0.0
 20
0.0
 30
0.0
  9
$PUCSORGLEFT
 10
0.0
 20
0.0
 30
0.0
  9
$PUCSORGRIGHT
 10
0.0
 20
0.0
 30
0.0
  9
$PUCSORGFRONT
 10
0.0
 20
0.0
 30
0.0
  9
$PUCSORGBACK
 10
0.0
 20
0.0
 30
0.0
  9
$USERI1
 70
     0
  9
$USERI2
 70
     0
  9
$USERI3
 70
     0
  9
$USERI4
 70
     0
  9
$USERI5
 70
     0
  9
$USERR1
 40
0.0
  9
$USERR2
 40
0.0
  9
$USERR3
 40
0.0
  9
$USERR4
 40
0.0
  9
$USERR5
 40
0.0
  9
$WORLDVIEW
 70
     1
  9
$SHADEDGE
 70
     3
  9
$SHADEDIF
 70
    70
  9
$MAXACTVP
 70
    16
  9
$PINSBASE
 10
0.0
 20
0.0
 30
0.0
  9
$PLIMCHECK
 70
     0
  9
$PEXTMIN
 10
1.000000E+20
 20
1.000000E+20
 30
1.000000E+20
  9
$PEXTMAX
 10
-1.000000E+20
 20
-1.000000E+20
 30
-1.000000E+20
  9
$PLIMMIN
 10
-22.5
 20
-22.5
  9
$PLIMMAX
 10
177.0
 20
22.5
  9
$UNITMODE
 70
     0
  9
$VISRETAIN
 70
     0
  9
$PLINEGEN
 70
     0
  9
$PSLTSCALE
 70
     0
  9
$TREEDEPTH
 70
  3020
  9
$CMLSTYLE
  2
STANDARD
  9
$CMLJUST
 70
     0
  9
$CMLSCALE
 40
1.0
  9
$PROXYGRAPHICS
 70
     1
  9
$MEASUREMENT
 70
     0
  9
$CELWEIGHT
370
    -3
  9
$ENDCAPS
280
     0
  9
$JOINSTYLE
280
     0
  9
$LWDISPLAY
290
     1
  9
$INSUNITS
 70
     0
  9
$HYPERLINKBASE
  1

  9
$STYLESHEET
  1

  9
$XEDIT
290
     1
  9
$CEPSNTYPE
380
     0
  9
$PSTYLEMODE
290
     1
  9
$FINGERPRINTGUID
  2
{6F25CFC2-5053-11D3-9BE9-00805F4AB38E}
  9
$VERSIONGUID
  2
{6F25CFC5-5053-11D3-9BE9-00805F4AB38E}
  9
$EXTNAMES
290
     1
  9
$PSVPSCALE
 40
0.0
  9
$OLESTARTUP
290
     0
  0
ENDSEC
  0
SECTION
  2
CLASSES
  0
CLASS
  1
LWPOLYLINE
  2
AcDbPolyline
  3
AutoCAD 2000
 90
    32768
280
     0
281
     1
  0
CLASS
  1
DICTIONARYVAR
  2
AcDbDictionaryVar
  3
AutoCAD 2000
 90
        0
280
     0
281
     1
  0
CLASS
  1
ACDBDICTIONARYWDFLT
  2
AcDbDictionaryWithDefault
  3
AutoCAD 2000
 90
        0
280
     0
281
     1
  0
CLASS
  1
ACDBPLACEHOLDER
  2
AcDbPlaceHolder
  3
AutoCAD 2000
 90
        0
280
     0
281
     1
  0
CLASS
  1
LAYOUT
  2
AcDbLayout
  3
AutoCAD 2000
 90
        0
280
     0
281
     1
  0
CLASS
  1
HATCH
  2
AcDbHatch
  3
AutoCAD 2000
 90
        0
280
     0
281
     1
  0
ENDSEC
  0
SECTION
  2
TABLES
  0
TABLE
  2
VPORT
  5
8
100
AcDbSymbolTable
 70
     1
  0
VPORT
  5
DF
330
0
100
AcDbSymbolTableRecord
100
AcDbViewportTableRecord
  2
*ACTIVE
 70
     0
 10
0.0
 20
0.0
 11
1.0
 21
1.0
 12
77.25
 22
0.0
 13
0.0
 23
0.0
 14
0.0
 24
0.0
 15
0.0
 25
0.0
 16
0.0
 26
0.0
 36
1.0
 17
0.0
 27
0.0
 37
0.0
 40
199.5
 41
1.5
 42
50.0
 43
0.0
 44
0.0
 50
0.0
 51
0.0
 71
     0
 72
   100
 73
     1
 74
     1
 75
     0
 76
     0
 77
     0
 78
     0
281
     0
 65
     1
110
0.0
120
0.0
130
0.0
111
1.0
121
0.0
131
0.0
112
0.0
122
1.0
132
0.0
 79
     0
146
0.0
  0
ENDTAB
  0
TABLE
  2
LTYPE
  5
5
330
0
100
AcDbSymbolTable
 70
    20
  0
LTYPE
  5
E0
330
5
100
AcDbSymbolTableRecord
100
AcDbLinetypeTableRecord
  2
BYBLOCK
 70
     0
  3

 72
    65
 73
     0
 40
0.0
  0
LTYPE
  5
E1
330
5
100
AcDbSymbolTableRecord
100
AcDbLinetypeTableRecord
  2
BYLAYER
 70
     0
  3

 72
    65
 73
     0
 40
0.0
  0
LTYPE
  5
E2
330
5
100
AcDbSymbolTableRecord
100
AcDbLinetypeTableRecord
  2
CONTINUOUS
 70
    64
  3
solid line
 72
    65
 73
     0
 40
0.0
  0
LTYPE
  5
E3
330
0
100
AcDbSymbolTableRecord
100
AcDbLinetypeTableRecord
  2
CENTER
 70
    64
  3
--- - --- - --- - --- - --- - 
 72
    65
 73
     4
 40
6.0
 49
3.0
 74
     0
 49
-1.0
 74
     0
 49
1.0
 74
     0
 49
-1.0
 74
     0
  0
ENDTAB
  0
TABLE
  2
LAYER
  5
2
330
0
100
AcDbSymbolTable
 70
    20
  0
LAYER
  5
E4
330
2
100
AcDbSymbolTableRecord
100
AcDbLayerTableRecord
  2
0
 70
    64
 62
     7
  6
CONTINUOUS
370
    -3
390
DB
  0
LAYER
  5
25
330
2
100
AcDbSymbolTableRecord
100
AcDbLayerTableRecord
  2
100
 70
    64
 62
     7
  6
CONTINUOUS
370
    -3
390
DB
  0
LAYER
  5
8E
330
2
100
AcDbSymbolTableRecord
100
AcDbLayerTableRecord
  2
10
 70
    64
 62
     7
  6
CONTINUOUS
370
    -3
390
DB
  0
ENDTAB
  0
TABLE
  2
STYLE
  5
3
330
0
100
AcDbSymbolTable
 70
     4
  0
STYLE
  5
E5
330
3
100
AcDbSymbolTableRecord
100
AcDbTextStyleTableRecord
  2
STANDARD
 70
    64
 40
0.0
 41
1.052631578947368
 50
0.0
 71
     0
 42
3.0
  3
monotxt
  4

  0
ENDTAB
  0
TABLE
  2
VIEW
  5
6
330
0
100
AcDbSymbolTable
 70
     0
  0
ENDTAB
  0
TABLE
  2
UCS
  5
7
330
0
100
AcDbSymbolTable
 70
     0
  0
ENDTAB
  0
TABLE
  2
APPID
  5
9
330
0
100
AcDbSymbolTable
 70
     1
  0
APPID
  5
E6
330
9
100
AcDbSymbolTableRecord
100
AcDbRegAppTableRecord
  2
ACAD
 70
     0
  0
ENDTAB
  0
TABLE
  2
DIMSTYLE
  5
A
330
0
100
AcDbSymbolTable
 70
     8
100
AcDbDimStyleTable
 71
     0
  0
DIMSTYLE
105
E7
330
A
100
AcDbSymbolTableRecord
100
AcDbDimStyleTableRecord
  2
ISO-25
 70
     0
  3

  4

  5

  6

  7

 40
1.0
 41
3.0
 42
1.0
 43
5.0
 44
2.0
 45
0.0
 46
5.0
 47
0.0
 48
0.0
140
3.0
141
2.0
142
0.0
143
25.4
144
1.0
145
1.0
146
1.0
147
1.0
 71
     0
 72
     0
 73
     0
 74
     0
 75
     0
 76
     0
 77
     1
 78
     8
170
     0
171
     0
172
     1
173
     0
174
     0
175
     0
176
     0
177
     0
178
     0
270
     0
271
     2
272
     2
273
     2
274
     3
340
E5
275
     0
277
     2
280
     0
281
     0
282
     0
283
     0
284
     8
285
     0
286
     0
287
     3
288
     0
  0
ENDTAB
  0
TABLE
  2
BLOCK_RECORD
  5
1
330
0
100
AcDbSymbolTable
 70
     2
  0
BLOCK_RECORD
  5
20
330
1
100
AcDbSymbolTableRecord
100
AcDbBlockTableRecord
  2
*MODEL_SPACE
340
DC
  0
BLOCK_RECORD
  5
22
330
1
100
AcDbSymbolTableRecord
100
AcDbBlockTableRecord
  2
*PAPER_SPACE
340
0
  0
ENDTAB
  0
ENDSEC
  0
SECTION
  2
BLOCKS
  0
BLOCK
  5
21
330
20
100
AcDbEntity
  8
0
100
AcDbBlockBegin
  2
*MODEL_SPACE
 70
     0
 10
0.0
 20
0.0
 30
0.0
  3
*MODEL_SPACE
  1

  0
ENDBLK
  5
DD
330
20
100
AcDbEntity
  8
0
100
AcDbBlockEnd
  0
BLOCK
  5
23
330
22
100
AcDbEntity
 67
     1
  8
0
100
AcDbBlockBegin
  2
*PAPER_SPACE
 70
     0
 10
0.0
 20
0.0
 30
0.0
  3
*PAPER_SPACE
  1

  0
ENDBLK
  5
DE
330
22
100
AcDbEntity
 67
     1
  8
0
100
AcDbBlockEnd
  0
ENDSEC
  0
SECTION
  2
ENTITIES
  0
LINE
  5
24
330
20
100
AcDbEntity
  8
100
  6
CONTINUOUS
100
AcDbLine
 10
55.0
 20
-13.88119784648275
 11
55.0
 21
13.85640646054865
  0
LINE
  5
26
330
20
100
AcDbEntity
  8
100
  6
CONTINUOUS
100
AcDbLine
 10
63.0
 20
-18.5
 11
63.0
 21
18.5
  0
LINE
  5
27
330
20
100
AcDbEntity
  8
100
  6
CONTINUOUS
100
AcDbLine
 10
56.73205080756888
 20
18.5
 11
63.0
 21
18.5
  0
LINE
  5
28
330
20
100
AcDbEntity
  8
100
  6
CONTINUOUS
100
AcDbLine
 10
56.73205080756888
 20
-18.5
 11
63.0
 21
-18.5
  0
CIRCLE
  5
29
330
20
100
AcDbEntity
  8
100
  6
CONTINUOUS
100
AcDbCircle
 10
0.0
 20
0.0
 40
16.0
  0
LINE
  5
2A
330
20
100
AcDbEntity
  8
100
  6
CONTINUOUS
100
AcDbLine
 10
62.99999999999999
 20
-9.23760430703404
 11
56.73205080756887
 21
-9.237604307034037
  0
LINE
  5
2B
330
20
100
AcDbEntity
  8
100
  6
CONTINUOUS
100
AcDbLine
 10
62.99999999999999
 20
9.237604307033996
 11
56.73205080756888
 21
9.237604307033998
  0
ARC
  5
2C
330
20
100
AcDbEntity
  8
100
  6
CONTINUOUS
100
AcDbCircle
 10
62.05748345638305
 20
-13.86880215351702
 40
7.057494342209881
100
AcDbArc
 50
138.9885431882669
 51
221.0114568117331
  0
ARC
  5
2D
330
20
100
AcDbEntity
  8
100
  6
CONTINUOUS
100
AcDbCircle
 10
80.4996368892085
 20
-2.131628207280301E-014
 40
25.49963688920851
100
AcDbArc
 50
158.7606894476897
 51
201.2393105523102
  0
ARC
  5
2E
330
20
100
AcDbEntity
  8
100
  6
CONTINUOUS
100
AcDbCircle
 10
62.0574834563831
 20
13.868802153517
 40
7.057494342209938
100
AcDbArc
 50
138.9885431882671
 51
221.0114568117329
  0
ARC
  5
2F
330
20
100
AcDbEntity
  8
100
  6
CONTINUOUS
100
AcDbCircle
 10
0.0
 20
0.0
 40
17.5
100
AcDbArc
 50
83.89550818616149
 51
96.10449181383852
  0
LINE
  5
30
330
20
100
AcDbEntity
  8
100
  6
CONTINUOUS
100
AcDbLine
 10
-14.13901457890432
 20
10.31204474086158
 11
-1.860985421095663
 21
17.40076818024048
  0
LINE
  5
31
330
20
100
AcDbEntity
  8
100
  6
CONTINUOUS
100
AcDbLine
 10
-16.0
 20
7.088723439378914
 11
-16.0
 21
-7.088723439378914
  0
LINE
  5
32
330
20
100
AcDbEntity
  8
100
  6
CONTINUOUS
100
AcDbLine
 10
-14.13901457890434
 20
-10.31204474086157
 11
-1.860985421095677
 21
-17.40076818024048
  0
LINE
  5
33
330
20
100
AcDbEntity
  8
100
  6
CONTINUOUS
100
AcDbLine
 10
1.860985421095677
 20
-17.40076818024047
 11
14.13901457890432
 21
-10.31204474086158
  0
LINE
  5
34
330
20
100
AcDbEntity
  8
100
  6
CONTINUOUS
100
AcDbLine
 10
16.0
 20
7.088723439378914
 11
16.0
 21
-7.088723439378914
  0
LINE
  5
35
330
20
100
AcDbEntity
  8
100
  6
CONTINUOUS
100
AcDbLine
 10
1.860985421095663
 20
17.40076818024047
 11
14.13901457890434
 21
10.31204474086156
  0
ARC
  5
36
330
20
100
AcDbEntity
  8
100
  6
CONTINUOUS
100
AcDbCircle
 10
0.0
 20
0.0
 40
17.5
100
AcDbArc
 50
23.89550818616149
 51
36.10449181383852
  0
ARC
  5
37
330
20
100
AcDbEntity
  8
100
  6
CONTINUOUS
100
AcDbCircle
 10
0.0
 20
0.0
 40
17.5
100
AcDbArc
 50
323.8955081861614
 51
336.1044918138385
  0
ARC
  5
38
330
20
100
AcDbEntity
  8
100
  6
CONTINUOUS
100
AcDbCircle
 10
0.0
 20
0.0
 40
17.5
100
AcDbArc
 50
263.8955081861615
 51
276.1044918138385
  0
ARC
  5
39
330
20
100
AcDbEntity
  8
100
  6
CONTINUOUS
100
AcDbCircle
 10
0.0
 20
0.0
 40
17.5
100
AcDbArc
 50
203.8955081861615
 51
216.1044918138385
  0
ARC
  5
3A
330
20
100
AcDbEntity
  8
100
  6
CONTINUOUS
100
AcDbCircle
 10
0.0
 20
0.0
 40
17.5
100
AcDbArc
 50
143.8955081861614
 51
156.1044918138385
  0
LINE
  5
3B
330
20
100
AcDbEntity
  8
100
  6
CENTER
100
AcDbLine
 10
-22.5
 20
0.0
 11
22.5
 21
0.0
  0
LINE
  5
3C
330
20
100
AcDbEntity
  8
100
  6
CENTER
100
AcDbLine
 10
0.0
 20
-22.5
 11
0.0
 21
22.5
  0
LINE
  5
3D
330
20
100
AcDbEntity
  8
100
  6
CONTINUOUS
100
AcDbLine
 10
63.0
 20
15.8
 11
110.0
 21
15.8
  0
LINE
  5
3E
330
20
100
AcDbEntity
  8
100
  6
CONTINUOUS
100
AcDbLine
 10
63.0
 20
-15.8
 11
110.0
 21
-15.8
  0
ARC
  5
3F
330
20
100
AcDbEntity
  8
100
  6
CONTINUOUS
100
AcDbCircle
 10
110.0
 20
14.8
 40
1.0
100
AcDbArc
 50
0.0
 51
90.0
  0
ARC
  5
40
330
20
100
AcDbEntity
  8
100
  6
CONTINUOUS
100
AcDbCircle
 10
110.0
 20
-14.8
 40
1.0
100
AcDbArc
 50
270.0
 51
0.0
  0
LINE
  5
41
330
20
100
AcDbEntity
  8
100
  6
CONTINUOUS
100
AcDbLine
 10
111.0
 20
-14.8
 11
111.0
 21
14.8
  0
LINE
  5
42
330
20
100
AcDbEntity
  8
100
  6
CENTER
100
AcDbLine
 10
29.0
 20
0.0
 11
125.5
 21
0.0
  0
CIRCLE
  5
43
330
20
100
AcDbEntity
  8
100
  6
CONTINUOUS
100
AcDbCircle
 10
154.5
 20
0.0
 40
15.8
  0
ARC
  5
44
330
20
100
AcDbEntity
  8
100
  6
CONTINUOUS
100
AcDbCircle
 10
154.5
 20
0.0
 40
17.5
100
AcDbArc
 50
83.89550818616145
 51
96.10449181383856
  0
LINE
  5
45
330
20
100
AcDbEntity
  8
100
  6
CONTINUOUS
100
AcDbLine
 10
140.3609854210957
 20
10.31204474086158
 11
152.6390145789043
 21
17.40076818024048
  0
LINE
  5
46
330
20
100
AcDbEntity
  8
100
  6
CONTINUOUS
100
AcDbLine
 10
138.5
 20
7.088723439378914
 11
138.5
 21
-7.088723439378914
  0
LINE
  5
47
330
20
100
AcDbEntity
  8
100
  6
CONTINUOUS
100
AcDbLine
 10
140.3609854210957
 20
-10.31204474086157
 11
152.6390145789043
 21
-17.40076818024048
  0
LINE
  5
48
330
20
100
AcDbEntity
  8
100
  6
CONTINUOUS
100
AcDbLine
 10
156.3609854210957
 20
-17.40076818024047
 11
168.6390145789043
 21
-10.31204474086158
  0
LINE
  5
49
330
20
100
AcDbEntity
  8
100
  6
CONTINUOUS
100
AcDbLine
 10
170.5
 20
7.088723439378914
 11
170.5
 21
-7.088723439378914
  0
LINE
  5
4A
330
20
100
AcDbEntity
  8
100
  6
CONTINUOUS
100
AcDbLine
 10
156.3609854210957
 20
17.40076818024047
 11
168.6390145789043
 21
10.31204474086156
  0
ARC
  5
4B
330
20
100
AcDbEntity
  8
100
  6
CONTINUOUS
100
AcDbCircle
 10
154.5
 20
0.0
 40
17.5
100
AcDbArc
 50
23.89550818616149
 51
36.10449181383855
  0
ARC
  5
4C
330
20
100
AcDbEntity
  8
100
  6
CONTINUOUS
100
AcDbCircle
 10
154.5
 20
0.0
 40
17.5
100
AcDbArc
 50
323.8955081861614
 51
336.1044918138385
  0
ARC
  5
4D
330
20
100
AcDbEntity
  8
100
  6
CONTINUOUS
100
AcDbCircle
 10
154.5
 20
0.0
 40
17.5
100
AcDbArc
 50
263.8955081861615
 51
276.1044918138385
  0
ARC
  5
4E
330
20
100
AcDbEntity
  8
100
  6
CONTINUOUS
100
AcDbCircle
 10
154.5
 20
0.0
 40
17.5
100
AcDbArc
 50
203.8955081861615
 51
216.1044918138385
  0
ARC
  5
4F
330
20
100
AcDbEntity
  8
100
  6
CONTINUOUS
100
AcDbCircle
 10
154.5
 20
0.0
 40
17.5
100
AcDbArc
 50
143.8955081861614
 51
156.1044918138385
  0
LINE
  5
50
330
20
100
AcDbEntity
  8
100
  6
CENTER
100
AcDbLine
 10
132.0
 20
0.0
 11
177.0
 21
0.0
  0
LINE
  5
51
330
20
100
AcDbEntity
  8
100
  6
CENTER
100
AcDbLine
 10
154.5
 20
-22.5
 11
154.5
 21
22.5
  0
LINE
  5
52
330
20
100
AcDbEntity
  8
100
  6
CONTINUOUS
100
AcDbLine
 10
162.0
 20
-5.5
 11
162.0
 21
5.5
  0
LINE
  5
53
330
20
100
AcDbEntity
  8
100
  6
CONTINUOUS
100
AcDbLine
 10
147.0
 20
-5.5
 11
147.0
 21
5.5
  0
CIRCLE
  5
54
330
20
100
AcDbEntity
  8
100
  6
CONTINUOUS
100
AcDbCircle
 10
154.5
 20
0.0
 40
5.25
  0
ARC
  5
55
330
20
100
AcDbEntity
  8
100
  6
CONTINUOUS
100
AcDbCircle
 10
160.0
 20
5.5
 40
2.0
100
AcDbArc
 50
0.0
 51
90.0
  0
ARC
  5
56
330
20
100
AcDbEntity
  8
100
  6
CONTINUOUS
100
AcDbCircle
 10
149.0
 20
5.5
 40
2.0
100
AcDbArc
 50
90.0
 51
180.0
  0
ARC
  5
57
330
20
100
AcDbEntity
  8
100
  6
CONTINUOUS
100
AcDbCircle
 10
149.0
 20
-5.5
 40
2.0
100
AcDbArc
 50
180.0
 51
270.0
  0
ARC
  5
58
330
20
100
AcDbEntity
  8
100
  6
CONTINUOUS
100
AcDbCircle
 10
160.0
 20
-5.5
 40
2.0
100
AcDbArc
 50
270.0
 51
0.0
  0
CIRCLE
  5
59
330
20
100
AcDbEntity
  8
100
  6
CONTINUOUS
100
AcDbCircle
 10
154.5
 20
0.0
 40
4.7
  0
CIRCLE
  5
5A
330
20
100
AcDbEntity
  8
100
  6
CONTINUOUS
100
AcDbCircle
 10
154.5
 20
0.0
 40
4.1
  0
CIRCLE
  5
5B
330
20
100
AcDbEntity
  8
100
  6
CONTINUOUS
100
AcDbCircle
 10
154.5
 20
0.0
 40
3.2
  0
CIRCLE
  5
5C
330
20
100
AcDbEntity
  8
100
  6
CONTINUOUS
100
AcDbCircle
 10
154.5
 20
-2.0
 40
0.3
  0
CIRCLE
  5
5D
330
20
100
AcDbEntity
  8
100
  6
CONTINUOUS
100
AcDbCircle
 10
156.4021130325903
 20
-0.6180339887498949
 40
0.3
  0
CIRCLE
  5
5E
330
20
100
AcDbEntity
  8
100
  6
CONTINUOUS
100
AcDbCircle
 10
155.6755705045849
 20
1.618033988749895
 40
0.3
  0
CIRCLE
  5
5F
330
20
100
AcDbEntity
  8
100
  6
CONTINUOUS
100
AcDbCircle
 10
153.3244294954151
 20
1.618033988749895
 40
0.3
  0
CIRCLE
  5
60
330
20
100
AcDbEntity
  8
100
  6
CONTINUOUS
100
AcDbCircle
 10
152.5978869674097
 20
-0.6180339887498949
 40
0.3
  0
LINE
  5
61
330
20
100
AcDbEntity
  8
100
  6
CONTINUOUS
100
AcDbLine
 10
149.0
 20
7.5
 11
160.0
 21
7.5
  0
LINE
  5
62
330
20
100
AcDbEntity
  8
100
  6
CONTINUOUS
100
AcDbLine
 10
149.0
 20
-7.5
 11
160.0
 21
-7.5
  0
LINE
  5
63
330
20
100
AcDbEntity
  8
100
  6
CONTINUOUS
100
AcDbLine
 10
112.4
 20
-7.5
 11
112.4
 21
7.5
  0
LINE
  5
64
330
20
100
AcDbEntity
  8
100
  6
CONTINUOUS
100
AcDbLine
 10
111.0
 20
7.5
 11
112.4
 21
7.5
  0
LINE
  5
65
330
20
100
AcDbEntity
  8
100
  6
CONTINUOUS
100
AcDbLine
 10
113.44
 20
4.7
 11
120.5
 21
4.7
  0
LINE
  5
66
330
20
100
AcDbEntity
  8
100
  6
CONTINUOUS
100
AcDbLine
 10
118.95
 20
-5.25
 11
118.95
 21
5.25
  0
LINE
  5
67
330
20
100
AcDbEntity
  8
100
  6
CONTINUOUS
100
AcDbLine
 10
113.44
 20
5.25
 11
118.95
 21
5.25
  0
LINE
  5
68
330
20
100
AcDbEntity
  8
100
  6
CONTINUOUS
100
AcDbLine
 10
119.5
 20
-4.699999999999999
 11
119.5
 21
4.699999999999999
  0
LINE
  5
69
330
20
100
AcDbEntity
  8
100
  6
CONTINUOUS
100
AcDbLine
 10
120.5
 20
-4.699999999999999
 11
120.5
 21
4.7
  0
LINE
  5
6A
330
20
100
AcDbEntity
  8
100
  6
CONTINUOUS
100
AcDbLine
 10
119.5
 20
4.7
 11
118.95
 21
5.25
  0
LINE
  5
6B
330
20
100
AcDbEntity
  8
100
  6
CONTINUOUS
100
AcDbLine
 10
112.95
 20
-3.812242559008139
 11
112.95
 21
3.812242559008132
  0
LINE
  5
6C
330
20
100
AcDbEntity
  8
100
  6
CONTINUOUS
100
AcDbLine
 10
111.0
 20
-7.5
 11
112.4
 21
-7.5
  0
LINE
  5
6D
330
20
100
AcDbEntity
  8
100
  6
CONTINUOUS
100
AcDbLine
 10
113.4045299090334
 20
-4.699999999999999
 11
120.5
 21
-4.699999999999999
  0
LINE
  5
6E
330
20
100
AcDbEntity
  8
100
  6
CONTINUOUS
100
AcDbLine
 10
113.44
 20
-5.25
 11
118.95
 21
-5.25
  0
LINE
  5
6F
330
20
100
AcDbEntity
  8
100
  6
CONTINUOUS
100
AcDbLine
 10
119.5
 20
-4.699999999999999
 11
118.95
 21
-5.25
  0
LINE
  5
70
330
20
100
AcDbEntity
  8
100
  6
CONTINUOUS
100
AcDbLine
 10
37.856
 20
8.331
 11
37.0
 21
7.475
  0
LINE
  5
71
330
20
100
AcDbEntity
  8
100
  6
CONTINUOUS
100
AcDbLine
 10
37.856
 20
-8.331
 11
37.856
 21
8.331
  0
LINE
  5
72
330
20
100
AcDbEntity
  8
100
  6
CONTINUOUS
100
AcDbLine
 10
37.0
 20
-7.474999999999998
 11
37.0
 21
7.475000000000001
  0
LINE
  5
73
330
20
100
AcDbEntity
  8
100
  6
CONTINUOUS
100
AcDbLine
 10
37.0
 20
7.475000000000001
 11
55.0
 21
7.475000000000001
  0
LINE
  5
74
330
20
100
AcDbEntity
  8
100
  6
CONTINUOUS
100
AcDbLine
 10
37.856
 20
8.331
 11
52.144
 21
8.331
  0
LINE
  5
75
330
20
100
AcDbEntity
  8
100
  6
CONTINUOUS
100
AcDbLine
 10
53.0
 20
7.475000000000001
 11
52.144
 21
8.331
  0
LINE
  5
76
330
20
100
AcDbEntity
  8
100
  6
CONTINUOUS
100
AcDbLine
 10
53.0
 20
-7.474999999999998
 11
53.0
 21
7.475000000000001
  0
LINE
  5
77
330
20
100
AcDbEntity
  8
100
  6
CONTINUOUS
100
AcDbLine
 10
52.144
 20
8.331
 11
52.144
 21
-8.331
  0
LINE
  5
78
330
20
100
AcDbEntity
  8
100
  6
CONTINUOUS
100
AcDbLine
 10
34.0
 20
-2.5
 11
34.0
 21
2.5
  0
LINE
  5
79
330
20
100
AcDbEntity
  8
100
  6
CONTINUOUS
100
AcDbLine
 10
34.0
 20
2.5
 11
37.0
 21
2.5
  0
LINE
  5
7A
330
20
100
AcDbEntity
  8
100
  6
CONTINUOUS
100
AcDbLine
 10
37.0
 20
-7.474999999999998
 11
37.856
 21
-8.331
  0
LINE
  5
7B
330
20
100
AcDbEntity
  8
100
  6
CONTINUOUS
100
AcDbLine
 10
37.0
 20
-7.474999999999998
 11
55.0
 21
-7.474999999999998
  0
LINE
  5
7C
330
20
100
AcDbEntity
  8
100
  6
CONTINUOUS
100
AcDbLine
 10
52.144
 20
-8.331
 11
53.0
 21
-7.474999999999998
  0
LINE
  5
7D
330
20
100
AcDbEntity
  8
100
  6
CONTINUOUS
100
AcDbLine
 10
37.856
 20
-8.331
 11
52.144
 21
-8.331
  0
LINE
  5
7E
330
20
100
AcDbEntity
  8
100
  6
CONTINUOUS
100
AcDbLine
 10
34.0
 20
-2.5
 11
37.0
 21
-2.5
  0
CIRCLE
  5
7F
330
20
100
AcDbEntity
  8
100
  6
CONTINUOUS
100
AcDbCircle
 10
0.0
 20
0.0
 40
8.331
  0
CIRCLE
  5
80
330
20
100
AcDbEntity
  8
100
  6
CONTINUOUS
100
AcDbCircle
 10
0.0
 20
0.0
 40
7.475
  0
CIRCLE
  5
81
330
20
100
AcDbEntity
  8
100
  6
CONTINUOUS
100
AcDbCircle
 10
0.0
 20
0.0
 40
2.5
  0
CIRCLE
  5
82
330
20
100
AcDbEntity
  8
100
  6
CONTINUOUS
100
AcDbCircle
 10
0.0
 20
0.0
 40
1.5
  0
LINE
  5
83
330
20
100
AcDbEntity
  8
100
  6
CONTINUOUS
100
AcDbLine
 10
113.44
 20
4.48
 11
113.44
 21
6.219999999999999
  0
LINE
  5
84
330
20
100
AcDbEntity
  8
100
  6
CONTINUOUS
100
AcDbLine
 10
112.4
 20
6.92
 11
112.74
 21
6.92
  0
LINE
  5
85
330
20
100
AcDbEntity
  8
100
  6
CONTINUOUS
100
AcDbLine
 10
112.4
 20
3.779999999999998
 11
112.74
 21
3.779999999999998
  0
ARC
  5
86
330
20
100
AcDbEntity
  8
100
  6
CONTINUOUS
100
AcDbCircle
 10
112.74
 20
6.22
 40
0.7000000000000002
100
AcDbArc
 50
359.9999999999999
 51
90.0
  0
ARC
  5
87
330
20
100
AcDbEntity
  8
100
  6
CONTINUOUS
100
AcDbCircle
 10
112.74
 20
4.48
 40
0.7000000000000028
100
AcDbArc
 50
270.0
 51
0.0
  0
LINE
  5
88
330
20
100
AcDbEntity
  8
100
  6
CONTINUOUS
100
AcDbLine
 10
112.4
 20
-6.919999999999998
 11
112.74
 21
-6.919999999999998
  0
ARC
  5
89
330
20
100
AcDbEntity
  8
100
  6
CONTINUOUS
100
AcDbCircle
 10
112.74
 20
-6.219999999999999
 40
0.7000000000000002
100
AcDbArc
 50
270.0
 51
0.0
  0
LINE
  5
8A
330
20
100
AcDbEntity
  8
100
  6
CONTINUOUS
100
AcDbLine
 10
113.44
 20
-4.48
 11
113.44
 21
-6.219999999999999
  0
ARC
  5
8B
330
20
100
AcDbEntity
  8
100
  6
CONTINUOUS
100
AcDbCircle
 10
112.74
 20
-4.48
 40
0.7000000000000028
100
AcDbArc
 50
0.0
 51
90.0
  0
LINE
  5
8C
330
20
100
AcDbEntity
  8
100
  6
CONTINUOUS
100
AcDbLine
 10
112.4
 20
-3.779999999999998
 11
112.74
 21
-3.779999999999998
  0
CIRCLE
  5
8D
330
20
100
AcDbEntity
  8
10
  6
CONTINUOUS
100
AcDbCircle
 10
149.15
 20
5.349999999999991
 40
1.56999999996
  0
ARC
  5
8F
330
20
100
AcDbEntity
  8
10
  6
CONTINUOUS
100
AcDbCircle
 10
149.15
 20
5.349999999999991
 40
0.8722222222
100
AcDbArc
 50
0.0
 51
8.213210701738163
  0
ARC
  5
90
330
20
100
AcDbEntity
  8
10
  6
CONTINUOUS
100
AcDbCircle
 10
149.15
 20
5.349999999999991
 40
0.8722222222000001
100
AcDbArc
 50
81.78678929826198
 51
98.21321070173804
  0
ARC
  5
91
330
20
100
AcDbEntity
  8
10
  6
CONTINUOUS
100
AcDbCircle
 10
149.15
 20
5.349999999999991
 40
0.8722222222000001
100
AcDbArc
 50
171.7867892982619
 51
188.2132107017382
  0
ARC
  5
92
330
20
100
AcDbEntity
  8
10
  6
CONTINUOUS
100
AcDbCircle
 10
149.15
 20
5.349999999999991
 40
0.8722222222000001
100
AcDbArc
 50
261.786789298262
 51
278.213210701738
  0
ARC
  5
93
330
20
100
AcDbEntity
  8
10
  6
CONTINUOUS
100
AcDbCircle
 10
149.15
 20
5.349999999999991
 40
0.8722222222000001
100
AcDbArc
 50
351.7867892982619
 51
0.0
  0
LINE
  5
94
330
20
100
AcDbEntity
  8
10
  6
CONTINUOUS
100
AcDbLine
 10
148.2867238832337
 20
5.474603174599988
 11
148.72634920636
 21
5.474603174599988
  0
LINE
  5
95
330
20
100
AcDbEntity
  8
10
  6
CONTINUOUS
100
AcDbLine
 10
149.57365079364
 20
5.474603174599988
 11
150.0132761167663
 21
5.474603174599988
  0
LINE
  5
96
330
20
100
AcDbEntity
  8
10
  6
CONTINUOUS
100
AcDbLine
 10
148.2867238832337
 20
5.225396825399994
 11
148.72634920636
 21
5.225396825399994
  0
LINE
  5
97
330
20
100
AcDbEntity
  8
10
  6
CONTINUOUS
100
AcDbLine
 10
149.57365079364
 20
5.225396825399994
 11
150.0132761167663
 21
5.225396825399994
  0
LINE
  5
98
330
20
100
AcDbEntity
  8
10
  6
CONTINUOUS
100
AcDbLine
 10
149.2746031746
 20
4.48672388323369
 11
149.2746031746
 21
4.926349206359991
  0
LINE
  5
99
330
20
100
AcDbEntity
  8
10
  6
CONTINUOUS
100
AcDbLine
 10
149.2746031746
 20
5.773650793639991
 11
149.2746031746
 21
6.213276116766291
  0
LINE
  5
9A
330
20
100
AcDbEntity
  8
10
  6
CONTINUOUS
100
AcDbLine
 10
149.0253968254
 20
4.48672388323369
 11
149.0253968254
 21
4.926349206359991
  0
LINE
  5
9B
330
20
100
AcDbEntity
  8
10
  6
CONTINUOUS
100
AcDbLine
 10
149.0253968254
 20
5.773650793639991
 11
149.0253968254
 21
6.213276116766291
  0
ARC
  5
9C
330
20
100
AcDbEntity
  8
10
  6
CONTINUOUS
100
AcDbCircle
 10
149.57365079364
 20
5.773650793639991
 40
0.29904761904
100
AcDbArc
 50
180.0
 51
270.0
  0
ARC
  5
9D
330
20
100
AcDbEntity
  8
10
  6
CONTINUOUS
100
AcDbCircle
 10
148.72634920636
 20
5.773650793639991
 40
0.29904761904
100
AcDbArc
 50
270.0
 51
0.0
  0
ARC
  5
9E
330
20
100
AcDbEntity
  8
10
  6
CONTINUOUS
100
AcDbCircle
 10
148.72634920636
 20
4.926349206359991
 40
0.29904761904
100
AcDbArc
 50
0.0
 51
90.0
  0
ARC
  5
9F
330
20
100
AcDbEntity
  8
10
  6
CONTINUOUS
100
AcDbCircle
 10
149.57365079364
 20
4.926349206359991
 40
0.29904761904
100
AcDbArc
 50
90.0
 51
180.0
  0
CIRCLE
  5
A0
330
20
100
AcDbEntity
  8
10
  6
CONTINUOUS
100
AcDbCircle
 10
149.15
 20
-5.349999999999991
 40
1.56999999996
  0
ARC
  5
A1
330
20
100
AcDbEntity
  8
10
  6
CONTINUOUS
100
AcDbCircle
 10
149.15
 20
-5.349999999999991
 40
0.8722222222
100
AcDbArc
 50
351.7867892982619
 51
0.0
  0
ARC
  5
A2
330
20
100
AcDbEntity
  8
10
  6
CONTINUOUS
100
AcDbCircle
 10
149.15
 20
-5.349999999999991
 40
0.8722222222000001
100
AcDbArc
 50
261.786789298262
 51
278.213210701738
  0
ARC
  5
A3
330
20
100
AcDbEntity
  8
10
  6
CONTINUOUS
100
AcDbCircle
 10
149.15
 20
-5.349999999999991
 40
0.8722222222000001
100
AcDbArc
 50
171.7867892982619
 51
188.2132107017382
  0
ARC
  5
A4
330
20
100
AcDbEntity
  8
10
  6
CONTINUOUS
100
AcDbCircle
 10
149.15
 20
-5.349999999999991
 40
0.8722222222000001
100
AcDbArc
 50
81.78678929826198
 51
98.21321070173804
  0
ARC
  5
A5
330
20
100
AcDbEntity
  8
10
  6
CONTINUOUS
100
AcDbCircle
 10
149.15
 20
-5.349999999999991
 40
0.8722222222000001
100
AcDbArc
 50
0.0
 51
8.213210701738163
  0
LINE
  5
A6
330
20
100
AcDbEntity
  8
10
  6
CONTINUOUS
100
AcDbLine
 10
148.2867238832337
 20
-5.474603174599988
 11
148.72634920636
 21
-5.474603174599988
  0
LINE
  5
A7
330
20
100
AcDbEntity
  8
10
  6
CONTINUOUS
100
AcDbLine
 10
149.57365079364
 20
-5.474603174599988
 11
150.0132761167663
 21
-5.474603174599988
  0
LINE
  5
A8
330
20
100
AcDbEntity
  8
10
  6
CONTINUOUS
100
AcDbLine
 10
148.2867238832337
 20
-5.225396825399994
 11
148.72634920636
 21
-5.225396825399994
  0
LINE
  5
A9
330
20
100
AcDbEntity
  8
10
  6
CONTINUOUS
100
AcDbLine
 10
149.57365079364
 20
-5.225396825399994
 11
150.0132761167663
 21
-5.225396825399994
  0
LINE
  5
AA
330
20
100
AcDbEntity
  8
10
  6
CONTINUOUS
100
AcDbLine
 10
149.2746031746
 20
-4.48672388323369
 11
149.2746031746
 21
-4.926349206359991
  0
LINE
  5
AB
330
20
100
AcDbEntity
  8
10
  6
CONTINUOUS
100
AcDbLine
 10
149.2746031746
 20
-5.773650793639991
 11
149.2746031746
 21
-6.213276116766291
  0
LINE
  5
AC
330
20
100
AcDbEntity
  8
10
  6
CONTINUOUS
100
AcDbLine
 10
149.0253968254
 20
-4.48672388323369
 11
149.0253968254
 21
-4.926349206359991
  0
LINE
  5
AD
330
20
100
AcDbEntity
  8
10
  6
CONTINUOUS
100
AcDbLine
 10
149.0253968254
 20
-5.773650793639991
 11
149.0253968254
 21
-6.213276116766291
  0
ARC
  5
AE
330
20
100
AcDbEntity
  8
10
  6
CONTINUOUS
100
AcDbCircle
 10
149.57365079364
 20
-5.773650793639991
 40
0.29904761904
100
AcDbArc
 50
90.0
 51
180.0
  0
ARC
  5
AF
330
20
100
AcDbEntity
  8
10
  6
CONTINUOUS
100
AcDbCircle
 10
148.72634920636
 20
-5.773650793639991
 40
0.29904761904
100
AcDbArc
 50
0.0
 51
90.0
  0
ARC
  5
B0
330
20
100
AcDbEntity
  8
10
  6
CONTINUOUS
100
AcDbCircle
 10
148.72634920636
 20
-4.926349206359991
 40
0.29904761904
100
AcDbArc
 50
270.0
 51
0.0
  0
ARC
  5
B1
330
20
100
AcDbEntity
  8
10
  6
CONTINUOUS
100
AcDbCircle
 10
149.57365079364
 20
-4.926349206359991
 40
0.29904761904
100
AcDbArc
 50
180.0
 51
270.0
  0
CIRCLE
  5
B2
330
20
100
AcDbEntity
  8
10
  6
CONTINUOUS
100
AcDbCircle
 10
159.85
 20
5.349999999999991
 40
1.56999999996
  0
ARC
  5
B3
330
20
100
AcDbEntity
  8
10
  6
CONTINUOUS
100
AcDbCircle
 10
159.85
 20
5.349999999999991
 40
0.8722222222000001
100
AcDbArc
 50
81.78678929826198
 51
98.21321070173804
  0
ARC
  5
B4
330
20
100
AcDbEntity
  8
10
  6
CONTINUOUS
100
AcDbCircle
 10
159.85
 20
5.349999999999991
 40
0.8722222222000001
100
AcDbArc
 50
351.7867892982619
 51
8.213210701738163
  0
ARC
  5
B5
330
20
100
AcDbEntity
  8
10
  6
CONTINUOUS
100
AcDbCircle
 10
159.85
 20
5.349999999999991
 40
0.8722222222000001
100
AcDbArc
 50
261.786789298262
 51
278.213210701738
  0
LINE
  5
B6
330
20
100
AcDbEntity
  8
10
  6
CONTINUOUS
100
AcDbLine
 10
160.7132761167663
 20
5.474603174599988
 11
160.27365079364
 21
5.474603174599988
  0
LINE
  5
B7
330
20
100
AcDbEntity
  8
10
  6
CONTINUOUS
100
AcDbLine
 10
160.7132761167663
 20
5.225396825399994
 11
160.27365079364
 21
5.225396825399994
  0
LINE
  5
B8
330
20
100
AcDbEntity
  8
10
  6
CONTINUOUS
100
AcDbLine
 10
159.7253968254
 20
4.48672388323369
 11
159.7253968254
 21
4.926349206359991
  0
LINE
  5
B9
330
20
100
AcDbEntity
  8
10
  6
CONTINUOUS
100
AcDbLine
 10
159.7253968254
 20
5.773650793639991
 11
159.7253968254
 21
6.213276116766291
  0
LINE
  5
BA
330
20
100
AcDbEntity
  8
10
  6
CONTINUOUS
100
AcDbLine
 10
159.9746031746
 20
4.48672388323369
 11
159.9746031746
 21
4.926349206359991
  0
LINE
  5
BB
330
20
100
AcDbEntity
  8
10
  6
CONTINUOUS
100
AcDbLine
 10
159.9746031746
 20
5.773650793639991
 11
159.9746031746
 21
6.213276116766291
  0
ARC
  5
BC
330
20
100
AcDbEntity
  8
10
  6
CONTINUOUS
100
AcDbCircle
 10
159.42634920636
 20
5.773650793639991
 40
0.29904761904
100
AcDbArc
 50
270.0
 51
0.0
  0
ARC
  5
BD
330
20
100
AcDbEntity
  8
10
  6
CONTINUOUS
100
AcDbCircle
 10
160.27365079364
 20
5.773650793639991
 40
0.29904761904
100
AcDbArc
 50
180.0
 51
270.0
  0
ARC
  5
BE
330
20
100
AcDbEntity
  8
10
  6
CONTINUOUS
100
AcDbCircle
 10
160.27365079364
 20
4.926349206359991
 40
0.29904761904
100
AcDbArc
 50
90.0
 51
180.0
  0
ARC
  5
BF
330
20
100
AcDbEntity
  8
10
  6
CONTINUOUS
100
AcDbCircle
 10
159.42634920636
 20
4.926349206359991
 40
0.29904761904
100
AcDbArc
 50
0.0
 51
90.0
  0
ARC
  5
C0
330
20
100
AcDbEntity
  8
10
  6
CONTINUOUS
100
AcDbCircle
 10
159.85
 20
5.349999999999991
 40
0.8722222222
100
AcDbArc
 50
171.7867892982619
 51
180.0
  0
ARC
  5
C1
330
20
100
AcDbEntity
  8
10
  6
CONTINUOUS
100
AcDbCircle
 10
159.85
 20
5.349999999999991
 40
0.8722222222000001
100
AcDbArc
 50
180.0
 51
188.2132107017382
  0
LINE
  5
C2
330
20
100
AcDbEntity
  8
10
  6
CONTINUOUS
100
AcDbLine
 10
159.42634920636
 20
5.474603174599988
 11
158.9867238832337
 21
5.474603174599988
  0
LINE
  5
C3
330
20
100
AcDbEntity
  8
10
  6
CONTINUOUS
100
AcDbLine
 10
159.42634920636
 20
5.225396825399994
 11
158.9867238832337
 21
5.225396825399994
  0
CIRCLE
  5
C4
330
20
100
AcDbEntity
  8
10
  6
CONTINUOUS
100
AcDbCircle
 10
159.85
 20
-5.349999999999991
 40
1.56999999996
  0
ARC
  5
C5
330
20
100
AcDbEntity
  8
10
  6
CONTINUOUS
100
AcDbCircle
 10
159.85
 20
-5.349999999999991
 40
0.8722222222000001
100
AcDbArc
 50
261.786789298262
 51
278.213210701738
  0
ARC
  5
C6
330
20
100
AcDbEntity
  8
10
  6
CONTINUOUS
100
AcDbCircle
 10
159.85
 20
-5.349999999999991
 40
0.8722222222000001
100
AcDbArc
 50
351.7867892982619
 51
8.213210701738163
  0
ARC
  5
C7
330
20
100
AcDbEntity
  8
10
  6
CONTINUOUS
100
AcDbCircle
 10
159.85
 20
-5.349999999999991
 40
0.8722222222000001
100
AcDbArc
 50
81.78678929826198
 51
98.21321070173804
  0
LINE
  5
C8
330
20
100
AcDbEntity
  8
10
  6
CONTINUOUS
100
AcDbLine
 10
160.7132761167663
 20
-5.474603174599988
 11
160.27365079364
 21
-5.474603174599988
  0
LINE
  5
C9
330
20
100
AcDbEntity
  8
10
  6
CONTINUOUS
100
AcDbLine
 10
159.42634920636
 20
-5.474603174599988
 11
158.9867238832337
 21
-5.474603174599988
  0
LINE
  5
CA
330
20
100
AcDbEntity
  8
10
  6
CONTINUOUS
100
AcDbLine
 10
160.7132761167663
 20
-5.225396825399994
 11
160.27365079364
 21
-5.225396825399994
  0
LINE
  5
CB
330
20
100
AcDbEntity
  8
10
  6
CONTINUOUS
100
AcDbLine
 10
159.42634920636
 20
-5.225396825399994
 11
158.9867238832337
 21
-5.225396825399994
  0
LINE
  5
CC
330
20
100
AcDbEntity
  8
10
  6
CONTINUOUS
100
AcDbLine
 10
159.7253968254
 20
-4.48672388323369
 11
159.7253968254
 21
-4.926349206359991
  0
LINE
  5
CD
330
20
100
AcDbEntity
  8
10
  6
CONTINUOUS
100
AcDbLine
 10
159.7253968254
 20
-5.773650793639991
 11
159.7253968254
 21
-6.213276116766291
  0
LINE
  5
CE
330
20
100
AcDbEntity
  8
10
  6
CONTINUOUS
100
AcDbLine
 10
159.9746031746
 20
-4.48672388323369
 11
159.9746031746
 21
-4.926349206359991
  0
LINE
  5
CF
330
20
100
AcDbEntity
  8
10
  6
CONTINUOUS
100
AcDbLine
 10
159.9746031746
 20
-5.773650793639991
 11
159.9746031746
 21
-6.213276116766291
  0
ARC
  5
D0
330
20
100
AcDbEntity
  8
10
  6
CONTINUOUS
100
AcDbCircle
 10
159.42634920636
 20
-5.773650793639991
 40
0.29904761904
100
AcDbArc
 50
0.0
 51
90.0
  0
ARC
  5
D1
330
20
100
AcDbEntity
  8
10
  6
CONTINUOUS
100
AcDbCircle
 10
160.27365079364
 20
-5.773650793639991
 40
0.29904761904
100
AcDbArc
 50
90.0
 51
180.0
  0
ARC
  5
D2
330
20
100
AcDbEntity
  8
10
  6
CONTINUOUS
100
AcDbCircle
 10
160.27365079364
 20
-4.926349206359991
 40
0.29904761904
100
AcDbArc
 50
180.0
 51
270.0
  0
ARC
  5
D3
330
20
100
AcDbEntity
  8
10
  6
CONTINUOUS
100
AcDbCircle
 10
159.42634920636
 20
-4.926349206359991
 40
0.29904761904
100
AcDbArc
 50
270.0
 51
0.0
  0
ARC
  5
D4
330
20
100
AcDbEntity
  8
10
  6
CONTINUOUS
100
AcDbCircle
 10
159.85
 20
-5.349999999999991
 40
0.8722222222
100
AcDbArc
 50
180.0
 51
188.2132107017382
  0
ARC
  5
D5
330
20
100
AcDbEntity
  8
10
  6
CONTINUOUS
100
AcDbCircle
 10
159.85
 20
-5.349999999999991
 40
0.8722222222000001
100
AcDbArc
 50
171.7867892982619
 51
180.0
  0
ENDSEC
  0
SECTION
  2
OBJECTS
  0
DICTIONARY
  5
C
100
AcDbDictionary
281
     1
  3
ACAD_GROUP
350
D
  3
ACAD_MLINESTYLE
350
E
  3
ACDBVARIABLEDICTIONARY
350
D6
  3
ACAD_PLOTSTYLENAME
350
D7
  3
ACAD_LAYOUT
350
D8
  3
ACAD_PLOTSETTINGS
350
D9
  0
DICTIONARY
  5
D
102
{ACAD_REACTORS
330
C
102
}
330
C
100
AcDbDictionary
281
     1
  0
DICTIONARY
  5
E
102
{ACAD_REACTORS
330
C
102
}
330
C
100
AcDbDictionary
281
     1
  3
STANDARD
350
13
  0
DICTIONARY
  5
D6
102
{ACAD_REACTORS
330
C
102
}
330
C
100
AcDbDictionary
281
     1
  3
SORTENTS
350
DA
  0
ACDBDICTIONARYWDFLT
  5
D7
102
{ACAD_REACTORS
330
C
102
}
330
C
100
AcDbDictionary
281
     1
  3
Normal
350
DB
100
AcDbDictionaryWithDefault
340
DB
  0
DICTIONARY
  5
D8
102
{ACAD_REACTORS
330
C
102
}
330
C
100
AcDbDictionary
281
     1
  3
Model
350
DC
  0
DICTIONARY
  5
D9
102
{ACAD_REACTORS
330
C
102
}
330
C
100
AcDbDictionary
281
     1
  0
MLINESTYLE
  5
13
102
{ACAD_REACTORS
330
E
102
}
330
E
100
AcDbMlineStyle
  2
STANDARD
 70
     0
  3

 62
   256
 51
90.0
 52
90.0
 71
     2
 49
0.5
 62
   256
  6
BYLAYER
 49
-0.5
 62
   256
  6
BYLAYER
  0
DICTIONARYVAR
  5
DA
102
{ACAD_REACTORS
330
D6
102
}
330
D6
100
DictionaryVariables
280
     0
  1
96
  0
ACDBPLACEHOLDER
  5
DB
102
{ACAD_REACTORS
330
D7
102
}
330
D7
  0
LAYOUT
  5
DC
102
{ACAD_REACTORS
330
D8
102
}
330
D8
100
AcDbPlotSettings
  1

  2

  4

  6

 40
0.0
 41
0.0
 42
0.0
 43
0.0
 44
0.0
 45
0.0
 46
0.0
 47
0.0
 48
0.0
 49
0.0
140
0.0
141
0.0
142
1.0
143
1.0
 70
  1712
 72
     0
 73
     0
 74
     0
  7

 75
     0
147
1.0
148
0.0
149
0.0
100
AcDbLayout
  1
Model
 70
     1
 71
     0
 10
0.0
 20
0.0
 11
297.0
 21
210.0
 12
0.0
 22
0.0
 32
0.0
 14
0.0
 24
0.0
 34
0.0
 15
0.0
 25
0.0
 35
0.0
146
0.0
 13
0.0
 23
0.0
 33
0.0
 16
1.0
 26
0.0
 36
0.0
 17
0.0
 27
1.0
 37
0.0
 76
     0
330
20
  0
ENDSEC
  0
EOF
