  0
SECTION
  2
HEADER
  9
$ACADVER
  1
AC1006
  9
$INSBASE
 10
0.0
 20
0.0
 30
0.0
  9
$EXTMIN
 10
-58.0
 20
-14.0
  9
$EXTMAX
 10
62.04576873779297
 20
14.0
  9
$LIMMIN
 10
-58.0
 20
-14.0
  9
$LIMMAX
 10
62.04576873779297
 20
14.0
  9
$ORTHOMODE
 70
     0
  9
$REGENMODE
 70
     1
  9
$FILLMODE
 70
     1
  9
$QTEXTMODE
 70
     0
  9
$MIRRTEXT
 70
     1
  9
$DRAGMODE
 70
     2
  9
$LTSCALE
 40
1.0
  9
$OSMODE
 70
     0
  9
$ATTMODE
 70
     1
  9
$TEXTSIZE
 40
3.0
  9
$TRACEWID
 40
0.5
  9
$TEXTSTYLE
  7
STANDARD
  9
$CLAYER
  8
0
  9
$CELTYPE
  6
BYLAYER
  9
$CECOLOR
 62
   256
  9
$DIMSCALE
 40
1.0
  9
$DIMASZ
 40
3.0
  9
$DIMEXO
 40
1.0
  9
$DIMDLI
 40
5.0
  9
$DIMRND
 40
0.0
  9
$DIMDLE
 40
5.0
  9
$DIMEXE
 40
2.0
  9
$DIMTP
 40
0.0
  9
$DIMTM
 40
0.0
  9
$DIMTXT
 40
4.0
  9
$DIMCEN
 40
2.0
  9
$DIMTSZ
 40
0.0
  9
$DIMTOL
 70
     0
  9
$DIMLIM
 70
     0
  9
$DIMTIH
 70
     0
  9
$DIMTOH
 70
     0
  9
$DIMSE1
 70
     0
  9
$DIMSE2
 70
     0
  9
$DIMTAD
 70
     1
  9
$DIMZIN
 70
     8
  9
$DIMBLK
  1

  9
$DIMASO
 70
     1
  9
$DIMSHO
 70
     0
  9
$DIMPOST
  1

  9
$DIMAPOST
  1

  9
$DIMALT
 70
     0
  9
$DIMALTD
 70
     4
  9
$DIMALTF
 40
25.4
  9
$DIMLFAC
 40
1.0
  9
$DIMTOFL
 70
     1
  9
$DIMTVP
 40
1.0
  9
$DIMTIX
 70
     0
  9
$DIMSOXD
 70
     0
  9
$DIMSAH
 70
     0
  9
$DIMBLK1
  1

  9
$DIMBLK2
  1

  9
$LUNITS
 70
     2
  9
$LUPREC
 70
     4
  9
$AXISMODE
 70
     0
  9
$AXISUNIT
 10
0.0
 20
0.0
  9
$SKETCHINC
 40
1.0
  9
$FILLETRAD
 40
0.0
  9
$AUNITS
 70
     0
  9
$AUPREC
 70
     0
  9
$MENU
  1
acad
  9
$ELEVATION
 40
0.0
  9
$THICKNESS
 40
0.0
  9
$LIMCHECK
 70
     0
  9
$BLIPMODE
 70
     1
  9
$CHAMFERA
 40
0.0
  9
$CHAMFERB
 40
0.0
  9
$SKPOLY
 70
     0
  9
$TDCREATE
 40
2454125.363518518
  9
$TDUPDATE
 40
2454125.363518518
  9
$TDINDWG
 40
0.0
  9
$TDUSRTIMER
 40
0.0
  9
$USRTIMER
 70
     1
  9
$ANGBASE
 50
0.0
  9
$ANGDIR
 70
     0
  9
$PDMODE
 70
     0
  9
$PDSIZE
 40
0.0
  9
$PLINEWID
 40
0.0
  9
$COORDS
 70
     0
  9
$SPLFRAME
 70
     0
  9
$SPLINETYPE
 70
     6
  9
$SPLINESEGS
 70
     8
  9
$ATTDIA
 70
     0
  9
$ATTREQ
 70
     1
  9
$HANDLING
 70
     0
  9
$HANDSEED
  5
0
  9
$SURFTAB1
 70
     6
  9
$SURFTAB2
 70
     6
  9
$SURFTYPE
 70
     6
  9
$SURFU
 70
     6
  9
$SURFV
 70
     6
  9
$FLATLAND
 70
     0
  9
$UCSNAME
  2

  9
$UCSORG
 10
0.0
 20
0.0
 30
0.0
  9
$UCSXDIR
 10
1.0
 20
0.0
 30
0.0
  9
$UCSYDIR
 10
0.0
 20
1.0
 30
0.0
  9
$USERI1
 70
     0
  9
$USERI2
 70
     0
  9
$USERI3
 70
     0
  9
$USERI4
 70
     0
  9
$USERI5
 70
     0
  9
$USERR1
 40
0.0
  9
$USERR2
 40
0.0
  9
$USERR3
 40
0.0
  9
$USERR4
 40
0.0
  9
$USERR5
 40
0.0
  9
$WORLDVIEW
 70
     1
  0
ENDSEC
  0
SECTION
  2
TABLES
  0
TABLE
  2
VPORT
 70
     1
  0
VPORT
  2
*ACTIVE
 70
     0
 10
0.0
 20
0.0
 11
1.0
 21
1.0
 12
2.022884368896484
 22
0.0
 13
0.0
 23
0.0
 14
0.0
 24
0.0
 15
0.0
 25
0.0
 16
0.0
 26
0.0
 36
1.0
 17
0.0
 27
0.0
 37
0.0
 40
120.045768737793
 41
1.5
 42
50.0
 43
0.0
 44
0.0
 50
0.0
 51
0.0
 71
     0
 72
   100
 73
     1
 74
     1
 75
     0
 76
     0
 77
     0
 78
     0
  0
ENDTAB
  0
TABLE
  2
LTYPE
 70
    20
  0
LTYPE
  2
CONTINUOUS
 70
    64
  3
solid line
 72
    65
 73
     0
 40
0.0
  0
LTYPE
  2
CENTER
 70
    64
  3
--- - --- - --- - --- - --- - 
 72
    65
 73
     4
 40
6.0
 49
3.0
 49
-1.0
 49
1.0
 49
-1.0
  0
ENDTAB
  0
TABLE
  2
LAYER
 70
    20
  0
LAYER
  2
0
 70
    64
 62
     7
  6
CONTINUOUS
  0
LAYER
  2
1
 70
    64
 62
     7
  6
CONTINUOUS
  0
LAYER
  2
3
 70
    64
 62
     7
  6
CONTINUOUS
  0
ENDTAB
  0
TABLE
  2
STYLE
 70
     4
  0
ENDTAB
  0
TABLE
  2
VIEW
 70
     0
  0
ENDTAB
  0
TABLE
  2
UCS
 70
     0
  0
ENDTAB
  0
TABLE
  2
DWGMGR
 70
     0
  0
ENDTAB
  0
ENDSEC
  0
SECTION
  2
BLOCKS
  0
ENDSEC
  0
SECTION
  2
ENTITIES
  0
LINE
  8
1
  6
CENTER
 10
-3.36029863357544
 20
0.0
 11
62.04576873779297
 21
0.0
  0
LINE
  8
3
  6
CONTINUOUS
 10
0.0
 20
7.0
 11
0.0
 21
-7.0
  0
LINE
  8
3
  6
CONTINUOUS
 10
5.0
 20
7.475000000000001
 11
5.0
 21
-7.475000000000001
  0
LINE
  8
3
  6
CONTINUOUS
 10
13.0
 20
10.5
 11
13.0
 21
-10.5
  0
LINE
  8
3
  6
CONTINUOUS
 10
14.0
 20
12.0
 11
14.0
 21
-12.0
  0
LINE
  8
3
  6
CONTINUOUS
 10
25.0
 20
12.0
 11
25.0
 21
-12.0
  0
LINE
  8
3
  6
CONTINUOUS
 10
0.0
 20
7.0
 11
5.0
 21
7.0
  0
LINE
  8
3
  6
CONTINUOUS
 10
0.0
 20
-7.0
 11
5.0
 21
-7.0
  0
LINE
  8
3
  6
CONTINUOUS
 10
13.0
 20
10.5
 11
14.0
 21
10.5
  0
LINE
  8
3
  6
CONTINUOUS
 10
13.0
 20
-10.5
 11
14.0
 21
-10.5
  0
LINE
  8
3
  6
CONTINUOUS
 10
14.0
 20
-12.0
 11
25.0
 21
-12.0
  0
LINE
  8
3
  6
CONTINUOUS
 10
14.0
 20
12.0
 11
25.0
 21
12.0
  0
LINE
  8
3
  6
CONTINUOUS
 10
5.855999999999995
 20
8.330999999999996
 11
13.0
 21
8.331
  0
LINE
  8
3
  6
CONTINUOUS
 10
5.855999999999998
 20
-8.331
 11
13.0
 21
-8.331
  0
LINE
  8
3
  6
CONTINUOUS
 10
5.0
 20
7.475000000000001
 11
11.5
 21
7.475
  0
LINE
  8
3
  6
CONTINUOUS
 10
5.0
 20
-7.475000000000001
 11
11.5
 21
-7.475000000000001
  0
LINE
  8
3
  6
CONTINUOUS
 10
11.5
 20
8.331
 11
11.5
 21
-8.331
  0
LINE
  8
3
  6
CONTINUOUS
 10
5.0
 20
7.475000000000001
 11
5.855999999999985
 21
8.330999999999996
  0
LINE
  8
3
  6
CONTINUOUS
 10
5.0
 20
-7.475000000000001
 11
5.855999999999998
 21
-8.331
  0
LINE
  8
3
  6
CONTINUOUS
 10
11.50000000000001
 20
7.475
 11
12.35600000000001
 21
8.331
  0
LINE
  8
3
  6
CONTINUOUS
 10
11.5
 20
-7.475000000000001
 11
12.356
 21
-8.331
  0
LINE
  8
3
  6
CONTINUOUS
 10
41.0
 20
10.0
 11
41.0
 21
-10.0
  0
LINE
  8
3
  6
CONTINUOUS
 10
25.0
 20
10.0
 11
41.0
 21
10.0
  0
LINE
  8
3
  6
CONTINUOUS
 10
25.0
 20
-10.0
 11
41.0
 21
-10.0
  0
LINE
  8
3
  6
CONTINUOUS
 10
33.0
 20
5.267826876426369
 11
33.0
 21
-5.267826876426369
  0
LINE
  8
3
  6
CONTINUOUS
 10
33.0
 20
5.267826876426369
 11
41.0
 21
5.267826876426369
  0
LINE
  8
3
  6
CONTINUOUS
 10
33.0
 20
-5.267826876426369
 11
41.0
 21
-5.267826876426369
  0
LINE
  8
3
  6
CONTINUOUS
 10
43.5
 20
4.5
 11
43.5
 21
-4.5
  0
LINE
  8
3
  6
CONTINUOUS
 10
41.0
 20
4.5
 11
43.5
 21
4.5
  0
LINE
  8
3
  6
CONTINUOUS
 10
41.0
 20
-4.5
 11
43.5
 21
-4.5
  0
LINE
  8
3
  6
CONTINUOUS
 10
43.5
 20
3.150000000000004
 11
59.53132629394531
 21
3.150000000000006
  0
LINE
  8
3
  6
CONTINUOUS
 10
43.5
 20
-3.150000000000004
 11
59.53132629394531
 21
-3.150000000000006
  0
ARC
  8
3
  6
CONTINUOUS
 10
58.79101379394531
 20
1.575
 40
1.740312500000001
 50
295.1753867632976
 51
64.82461323670238
  0
ARC
  8
3
  6
CONTINUOUS
 10
58.79101379394531
 20
-1.575
 40
1.740312500000001
 50
295.1753867632976
 51
64.82461323670238
  0
ARC
  8
3
  6
CONTINUOUS
 10
60.27163879394531
 20
-1.575
 40
1.740312500000001
 50
115.1753867632976
 51
244.8246132367024
  0
LINE
  8
3
  6
CONTINUOUS
 10
41.0
 20
5.267826876426369
 11
33.0
 21
-5.267826876426369
  0
LINE
  8
3
  6
CONTINUOUS
 10
33.0
 20
5.267826876426369
 11
41.0
 21
-5.267826876426369
  0
LINE
  8
3
  6
CONTINUOUS
 10
14.0
 20
11.5325403837475
 11
25.0
 21
11.5325403837475
  0
LINE
  8
3
  6
CONTINUOUS
 10
14.0
 20
3.316702021170009
 11
25.0
 21
3.316702021170009
  0
LINE
  8
3
  6
CONTINUOUS
 10
14.0
 20
-3.316702021170006
 11
25.0
 21
-3.316702021170006
  0
LINE
  8
3
  6
CONTINUOUS
 10
14.0
 20
-11.53254038374749
 11
25.0
 21
-11.53254038374749
  0
LINE
  8
3
  6
CONTINUOUS
 10
25.0
 20
11.5325403837475
 11
14.0
 21
3.316702021170009
  0
LINE
  8
3
  6
CONTINUOUS
 10
14.0
 20
11.5325403837475
 11
25.0
 21
3.316702021170009
  0
LINE
  8
3
  6
CONTINUOUS
 10
25.0
 20
-3.316702021170006
 11
14.0
 21
-11.53254038374749
  0
LINE
  8
3
  6
CONTINUOUS
 10
14.0
 20
-3.316702021170006
 11
25.0
 21
-11.53254038374749
  0
LINE
  8
3
  6
CONTINUOUS
 10
5.855999999999995
 20
8.330999999999996
 11
5.855999999999998
 21
-8.331
  0
ARC
  8
3
  6
CONTINUOUS
 10
-44.0
 20
0.0
 40
12.0
 50
0.0
 51
16.04497562814018
  0
ARC
  8
3
  6
CONTINUOUS
 10
-44.0
 20
0.0
 40
12.0
 50
73.95502437185982
 51
106.0449756281402
  0
ARC
  8
3
  6
CONTINUOUS
 10
-44.0
 20
0.0
 40
12.0
 50
163.9550243718599
 51
196.0449756281402
  0
ARC
  8
3
  6
CONTINUOUS
 10
-44.0
 20
0.0
 40
12.0
 50
253.9550243718599
 51
286.0449756281402
  0
ARC
  8
3
  6
CONTINUOUS
 10
-44.0
 20
0.0
 40
12.0
 50
343.9550243718598
 51
0.0
  0
LINE
  8
1
  6
CENTER
 10
-58.0
 20
0.0
 11
-30.0
 21
0.0
  0
LINE
  8
1
  6
CENTER
 10
-44.0
 20
-14.0
 11
-44.0
 21
14.0
  0
LINE
  8
3
  6
CONTINUOUS
 10
-55.5325403837475
 20
3.316702021170007
 11
-47.31670202117
 21
11.5325403837475
  0
LINE
  8
3
  6
CONTINUOUS
 10
-40.68329797882999
 20
-11.5325403837475
 11
-32.46745961625251
 21
-3.316702021170009
  0
LINE
  8
3
  6
CONTINUOUS
 10
-40.68329797882999
 20
11.5325403837475
 11
-32.46745961625251
 21
3.316702021170009
  0
LINE
  8
3
  6
CONTINUOUS
 10
-55.5325403837475
 20
-3.316702021170007
 11
-47.31670202117
 21
-11.5325403837475
  0
CIRCLE
  8
3
  6
CONTINUOUS
 10
-44.0
 20
0.0
 40
7.0
  0
CIRCLE
  8
3
  6
CONTINUOUS
 10
-44.0
 20
0.0
 40
7.475000000000001
  0
CIRCLE
  8
3
  6
CONTINUOUS
 10
-44.0
 20
0.0
 40
8.330999999999996
  0
CIRCLE
  8
3
  6
CONTINUOUS
 10
-44.0
 20
0.0
 40
10.5
  0
ENDSEC
  0
EOF
