  0
SECTION
  2
HEADER
  9
$ACADVER
  1
AC1006
  9
$INSBASE
 10
0.0
 20
0.0
 30
0.0
  9
$EXTMIN
 10
-39.25790023803711
 20
-11.45581150054932
  9
$EXTMAX
 10
64.97261047363281
 20
13.71541118621826
  9
$LIMMIN
 10
-39.25790023803711
 20
-11.45581150054932
  9
$LIMMAX
 10
64.97261047363281
 20
13.71541118621826
  9
$ORTHOMODE
 70
     0
  9
$REGENMODE
 70
     1
  9
$FILLMODE
 70
     1
  9
$QTEXTMODE
 70
     0
  9
$MIRRTEXT
 70
     1
  9
$DRAGMODE
 70
     2
  9
$LTSCALE
 40
1.0
  9
$OSMODE
 70
     0
  9
$ATTMODE
 70
     1
  9
$TEXTSIZE
 40
3.0
  9
$TRACEWID
 40
0.5
  9
$TEXTSTYLE
  7
STANDARD
  9
$CLAYER
  8
0
  9
$CELTYPE
  6
BYLAYER
  9
$CECOLOR
 62
   256
  9
$DIMSCALE
 40
1.0
  9
$DIMASZ
 40
3.0
  9
$DIMEXO
 40
1.0
  9
$DIMDLI
 40
5.0
  9
$DIMRND
 40
0.0
  9
$DIMDLE
 40
5.0
  9
$DIMEXE
 40
2.0
  9
$DIMTP
 40
0.0
  9
$DIMTM
 40
0.0
  9
$DIMTXT
 40
4.0
  9
$DIMCEN
 40
2.0
  9
$DIMTSZ
 40
0.0
  9
$DIMTOL
 70
     0
  9
$DIMLIM
 70
     0
  9
$DIMTIH
 70
     0
  9
$DIMTOH
 70
     0
  9
$DIMSE1
 70
     0
  9
$DIMSE2
 70
     0
  9
$DIMTAD
 70
     1
  9
$DIMZIN
 70
     8
  9
$DIMBLK
  1

  9
$DIMASO
 70
     1
  9
$DIMSHO
 70
     0
  9
$DIMPOST
  1

  9
$DIMAPOST
  1

  9
$DIMALT
 70
     0
  9
$DIMALTD
 70
     4
  9
$DIMALTF
 40
25.4
  9
$DIMLFAC
 40
1.0
  9
$DIMTOFL
 70
     1
  9
$DIMTVP
 40
1.0
  9
$DIMTIX
 70
     0
  9
$DIMSOXD
 70
     0
  9
$DIMSAH
 70
     0
  9
$DIMBLK1
  1

  9
$DIMBLK2
  1

  9
$LUNITS
 70
     2
  9
$LUPREC
 70
     4
  9
$AXISMODE
 70
     0
  9
$AXISUNIT
 10
0.0
 20
0.0
  9
$SKETCHINC
 40
1.0
  9
$FILLETRAD
 40
0.0
  9
$AUNITS
 70
     0
  9
$AUPREC
 70
     0
  9
$MENU
  1
acad
  9
$ELEVATION
 40
0.0
  9
$THICKNESS
 40
0.0
  9
$LIMCHECK
 70
     0
  9
$BLIPMODE
 70
     1
  9
$CHAMFERA
 40
0.0
  9
$CHAMFERB
 40
0.0
  9
$SKPOLY
 70
     0
  9
$TDCREATE
 40
2454125.387858796
  9
$TDUPDATE
 40
2454125.387858796
  9
$TDINDWG
 40
0.0
  9
$TDUSRTIMER
 40
0.0
  9
$USRTIMER
 70
     1
  9
$ANGBASE
 50
0.0
  9
$ANGDIR
 70
     0
  9
$PDMODE
 70
     0
  9
$PDSIZE
 40
0.0
  9
$PLINEWID
 40
0.0
  9
$COORDS
 70
     0
  9
$SPLFRAME
 70
     0
  9
$SPLINETYPE
 70
     6
  9
$SPLINESEGS
 70
     8
  9
$ATTDIA
 70
     0
  9
$ATTREQ
 70
     1
  9
$HANDLING
 70
     0
  9
$HANDSEED
  5
0
  9
$SURFTAB1
 70
     6
  9
$SURFTAB2
 70
     6
  9
$SURFTYPE
 70
     6
  9
$SURFU
 70
     6
  9
$SURFV
 70
     6
  9
$FLATLAND
 70
     0
  9
$UCSNAME
  2

  9
$UCSORG
 10
0.0
 20
0.0
 30
0.0
  9
$UCSXDIR
 10
1.0
 20
0.0
 30
0.0
  9
$UCSYDIR
 10
0.0
 20
1.0
 30
0.0
  9
$USERI1
 70
     0
  9
$USERI2
 70
     0
  9
$USERI3
 70
     0
  9
$USERI4
 70
     0
  9
$USERI5
 70
     0
  9
$USERR1
 40
0.0
  9
$USERR2
 40
0.0
  9
$USERR3
 40
0.0
  9
$USERR4
 40
0.0
  9
$USERR5
 40
0.0
  9
$WORLDVIEW
 70
     1
  0
ENDSEC
  0
SECTION
  2
TABLES
  0
TABLE
  2
VPORT
 70
     1
  0
VPORT
  2
*ACTIVE
 70
     0
 10
0.0
 20
0.0
 11
1.0
 21
1.0
 12
12.85735511779785
 22
1.129799842834473
 13
0.0
 23
0.0
 14
0.0
 24
0.0
 15
0.0
 25
0.0
 16
0.0
 26
0.0
 36
1.0
 17
0.0
 27
0.0
 37
0.0
 40
104.2305107116699
 41
1.5
 42
50.0
 43
0.0
 44
0.0
 50
0.0
 51
0.0
 71
     0
 72
   100
 73
     1
 74
     1
 75
     0
 76
     0
 77
     0
 78
     0
  0
ENDTAB
  0
TABLE
  2
LTYPE
 70
    20
  0
LTYPE
  2
CONTINUOUS
 70
    64
  3
solid line
 72
    65
 73
     0
 40
0.0
  0
LTYPE
  2
CENTER
 70
    64
  3
--- - --- - --- - --- - --- - 
 72
    65
 73
     4
 40
4.0
 49
2.0
 49
-0.6666666666666666
 49
0.6666666666666666
 49
-0.6666666666666666
  0
ENDTAB
  0
TABLE
  2
LAYER
 70
    20
  0
LAYER
  2
0
 70
    64
 62
     7
  6
CONTINUOUS
  0
LAYER
  2
1
 70
    64
 62
     7
  6
CONTINUOUS
  0
LAYER
  2
3
 70
    64
 62
     7
  6
CONTINUOUS
  0
LAYER
  2
10
 70
    64
 62
     7
  6
CONTINUOUS
  0
ENDTAB
  0
TABLE
  2
STYLE
 70
     4
  0
ENDTAB
  0
TABLE
  2
VIEW
 70
     0
  0
ENDTAB
  0
TABLE
  2
UCS
 70
     0
  0
ENDTAB
  0
TABLE
  2
DWGMGR
 70
     0
  0
ENDTAB
  0
ENDSEC
  0
SECTION
  2
BLOCKS
  0
ENDSEC
  0
SECTION
  2
ENTITIES
  0
LINE
  8
1
  6
CENTER
 10
-5.0
 20
0.0
 11
64.97261047363281
 21
0.0
  0
LINE
  8
3
  6
CONTINUOUS
 10
-3.5
 20
4.1589375
 11
-3.5
 21
-4.158937499999997
  0
LINE
  8
3
  6
CONTINUOUS
 10
4.800000000000001
 20
7.0
 11
5.800000000000001
 21
7.0
  0
LINE
  8
3
  6
CONTINUOUS
 10
4.800000000000001
 20
-7.0
 11
5.800000000000001
 21
-7.0
  0
LINE
  8
3
  6
CONTINUOUS
 10
4.0
 20
6.0
 11
4.0
 21
-6.0
  0
LINE
  8
3
  6
CONTINUOUS
 10
3.0
 20
4.9430625
 11
3.0
 21
-4.943062499999999
  0
LINE
  8
3
  6
CONTINUOUS
 10
12.0
 20
-9.5
 11
12.0
 21
9.5
  0
LINE
  8
3
  6
CONTINUOUS
 10
-2.900258064516132
 20
4.758679435483871
 11
4.0
 21
4.9743125
  0
LINE
  8
3
  6
CONTINUOUS
 10
-2.900258064516128
 20
-4.758679435483868
 11
4.0
 21
-4.9743125
  0
LINE
  8
3
  6
CONTINUOUS
 10
3.0
 20
4.3620625
 11
-3.5
 21
4.1589375
  0
LINE
  8
3
  6
CONTINUOUS
 10
3.0
 20
-4.3620625
 11
-3.5
 21
-4.158937499999997
  0
LINE
  8
3
  6
CONTINUOUS
 10
-3.500000000000002
 20
4.1589375
 11
-2.900258064516131
 21
4.758679435483871
  0
LINE
  8
3
  6
CONTINUOUS
 10
3.0
 20
4.3620625
 11
3.59974193548387
 21
4.961804435483871
  0
LINE
  8
3
  6
CONTINUOUS
 10
-3.5
 20
-4.158937499999997
 11
-2.900258064516128
 21
-4.758679435483868
  0
LINE
  8
3
  6
CONTINUOUS
 10
3.0
 20
-4.3620625
 11
3.59974193548387
 21
-4.961804435483871
  0
LINE
  8
3
  6
CONTINUOUS
 10
-2.900258064516132
 20
4.758679435483871
 11
-2.900258064516128
 21
-4.758679435483868
  0
LINE
  8
3
  6
CONTINUOUS
 10
4.0
 20
6.0
 11
4.800000000000001
 21
6.0
  0
LINE
  8
3
  6
CONTINUOUS
 10
5.800000000000001
 20
6.0
 11
6.600000000000001
 21
6.0
  0
LINE
  8
3
  6
CONTINUOUS
 10
4.0
 20
-6.0
 11
4.800000000000001
 21
-6.0
  0
LINE
  8
3
  6
CONTINUOUS
 10
5.800000000000001
 20
-6.0
 11
6.600000000000001
 21
-6.0
  0
LINE
  8
3
  6
CONTINUOUS
 10
4.800000000000001
 20
7.0
 11
4.800000000000001
 21
-7.0
  0
LINE
  8
3
  6
CONTINUOUS
 10
5.300000000000001
 20
7.0
 11
5.300000000000001
 21
-7.0
  0
LINE
  8
3
  6
CONTINUOUS
 10
5.800000000000001
 20
7.0
 11
5.800000000000001
 21
-7.0
  0
LINE
  8
3
  6
CONTINUOUS
 10
6.600000000000001
 20
7.0
 11
6.600000000000001
 21
-7.0
  0
LINE
  8
3
  6
CONTINUOUS
 10
23.0
 20
-9.5
 11
23.0
 21
9.5
  0
LINE
  8
3
  6
CONTINUOUS
 10
23.0
 20
9.5
 11
41.5
 21
9.5
  0
LINE
  8
3
  6
CONTINUOUS
 10
23.0
 20
-9.5
 11
41.5
 21
-9.5
  0
LINE
  8
3
  6
CONTINUOUS
 10
41.5
 20
9.5
 11
41.5
 21
-9.5
  0
LINE
  8
3
  6
CONTINUOUS
 10
48.5
 20
8.0
 11
48.5
 21
-8.0
  0
LINE
  8
3
  6
CONTINUOUS
 10
42.5
 20
-9.0
 11
47.5
 21
-9.0
  0
LINE
  8
3
  6
CONTINUOUS
 10
42.5
 20
9.0
 11
47.5
 21
9.0
  0
LINE
  8
3
  6
CONTINUOUS
 10
47.5
 20
9.0
 11
48.5
 21
8.0
  0
LINE
  8
3
  6
CONTINUOUS
 10
48.5
 20
-8.0
 11
47.5
 21
-9.0
  0
LINE
  8
3
  6
CONTINUOUS
 10
42.5
 20
-9.0
 11
41.5
 21
-8.0
  0
LINE
  8
3
  6
CONTINUOUS
 10
42.5
 20
9.0
 11
41.5
 21
8.0
  0
LINE
  8
3
  6
CONTINUOUS
 10
6.600000000000001
 20
7.0
 11
10.0
 21
7.0
  0
LINE
  8
3
  6
CONTINUOUS
 10
6.600000000000001
 20
-7.0
 11
10.0
 21
-7.0
  0
LINE
  8
3
  6
CONTINUOUS
 10
48.5
 20
2.8
 11
62.99999999999993
 21
2.8
  0
LINE
  8
3
  6
CONTINUOUS
 10
48.5
 20
-2.8
 11
62.99999999999993
 21
-2.8
  0
ARC
  8
3
  6
CONTINUOUS
 10
61.29000000000001
 20
1.399999999999999
 40
2.209999999999994
 50
320.6923518838933
 51
39.30764811610669
  0
ARC
  8
3
  6
CONTINUOUS
 10
61.29000000000001
 20
-1.399999999999999
 40
2.209999999999994
 50
320.6923518838933
 51
39.30764811610669
  0
ARC
  8
3
  6
CONTINUOUS
 10
64.70999999999999
 20
-1.399999999999999
 40
2.209999999999994
 50
140.6923518838933
 51
219.3076481161067
  0
CIRCLE
  8
10
  6
CONTINUOUS
 10
45.0
 20
6.5
 40
2.25
  0
ARC
  8
10
  6
CONTINUOUS
 10
45.0
 20
6.5
 40
1.3
 50
0.0
 51
8.849883098429061
  0
ARC
  8
10
  6
CONTINUOUS
 10
45.0
 20
6.5
 40
1.3
 50
81.15011690157084
 51
98.84988309842916
  0
ARC
  8
10
  6
CONTINUOUS
 10
45.0
 20
6.5
 40
1.3
 50
171.150116901571
 51
188.8498830984291
  0
ARC
  8
10
  6
CONTINUOUS
 10
45.0
 20
6.5
 40
1.3
 50
261.1501169015709
 51
278.8498830984291
  0
ARC
  8
10
  6
CONTINUOUS
 10
45.0
 20
6.5
 40
1.3
 50
351.1501169015709
 51
0.0
  0
LINE
  8
10
  6
CONTINUOUS
 10
43.71547674213349
 20
6.7
 11
44.3
 21
6.7
  0
LINE
  8
10
  6
CONTINUOUS
 10
45.7
 20
6.7
 11
46.28452325786651
 21
6.7
  0
LINE
  8
10
  6
CONTINUOUS
 10
43.71547674213349
 20
6.3
 11
44.3
 21
6.3
  0
LINE
  8
10
  6
CONTINUOUS
 10
45.7
 20
6.3
 11
46.28452325786651
 21
6.3
  0
LINE
  8
10
  6
CONTINUOUS
 10
45.2
 20
5.215476742133487
 11
45.2
 21
5.8
  0
LINE
  8
10
  6
CONTINUOUS
 10
45.2
 20
7.2
 11
45.2
 21
7.784523257866513
  0
LINE
  8
10
  6
CONTINUOUS
 10
44.8
 20
5.215476742133487
 11
44.8
 21
5.8
  0
LINE
  8
10
  6
CONTINUOUS
 10
44.8
 20
7.2
 11
44.8
 21
7.784523257866513
  0
ARC
  8
10
  6
CONTINUOUS
 10
45.7
 20
7.2
 40
0.5
 50
180.0
 51
270.0
  0
ARC
  8
10
  6
CONTINUOUS
 10
44.3
 20
7.2
 40
0.5
 50
270.0
 51
0.0
  0
ARC
  8
10
  6
CONTINUOUS
 10
44.3
 20
5.8
 40
0.5
 50
0.0
 51
90.0
  0
ARC
  8
10
  6
CONTINUOUS
 10
45.7
 20
5.8
 40
0.5
 50
90.0
 51
180.0
  0
CIRCLE
  8
10
  6
CONTINUOUS
 10
45.0
 20
-6.5
 40
2.25
  0
ARC
  8
10
  6
CONTINUOUS
 10
45.0
 20
-6.5
 40
1.3
 50
0.0
 51
8.849883098429061
  0
ARC
  8
10
  6
CONTINUOUS
 10
45.0
 20
-6.5
 40
1.3
 50
81.15011690157084
 51
98.84988309842916
  0
ARC
  8
10
  6
CONTINUOUS
 10
45.0
 20
-6.5
 40
1.3
 50
171.150116901571
 51
188.8498830984291
  0
ARC
  8
10
  6
CONTINUOUS
 10
45.0
 20
-6.5
 40
1.3
 50
261.1501169015709
 51
278.8498830984291
  0
ARC
  8
10
  6
CONTINUOUS
 10
45.0
 20
-6.5
 40
1.3
 50
351.1501169015709
 51
0.0
  0
LINE
  8
10
  6
CONTINUOUS
 10
43.71547674213349
 20
-6.3
 11
44.3
 21
-6.3
  0
LINE
  8
10
  6
CONTINUOUS
 10
45.7
 20
-6.3
 11
46.28452325786651
 21
-6.3
  0
LINE
  8
10
  6
CONTINUOUS
 10
43.71547674213349
 20
-6.7
 11
44.3
 21
-6.7
  0
LINE
  8
10
  6
CONTINUOUS
 10
45.7
 20
-6.7
 11
46.28452325786651
 21
-6.7
  0
LINE
  8
10
  6
CONTINUOUS
 10
45.2
 20
-7.784523257866513
 11
45.2
 21
-7.2
  0
LINE
  8
10
  6
CONTINUOUS
 10
45.2
 20
-5.8
 11
45.2
 21
-5.215476742133487
  0
LINE
  8
10
  6
CONTINUOUS
 10
44.8
 20
-7.784523257866513
 11
44.8
 21
-7.2
  0
LINE
  8
10
  6
CONTINUOUS
 10
44.8
 20
-5.8
 11
44.8
 21
-5.215476742133487
  0
ARC
  8
10
  6
CONTINUOUS
 10
45.7
 20
-5.8
 40
0.5
 50
180.0
 51
270.0
  0
ARC
  8
10
  6
CONTINUOUS
 10
44.3
 20
-5.8
 40
0.5
 50
270.0
 51
0.0
  0
ARC
  8
10
  6
CONTINUOUS
 10
44.3
 20
-7.2
 40
0.5
 50
0.0
 51
90.0
  0
ARC
  8
10
  6
CONTINUOUS
 10
45.7
 20
-7.2
 40
0.5
 50
90.0
 51
180.0
  0
LINE
  8
3
  6
CONTINUOUS
 10
41.5
 20
3.8
 11
48.5
 21
3.8
  0
LINE
  8
3
  6
CONTINUOUS
 10
41.5
 20
-3.800000000000001
 11
48.5
 21
-3.800000000000001
  0
LINE
  8
3
  6
CONTINUOUS
 10
14.5
 20
12.1
 11
17.0
 21
12.1
  0
LINE
  8
3
  6
CONTINUOUS
 10
18.0
 20
12.1
 11
20.5
 21
12.1
  0
LINE
  8
3
  6
CONTINUOUS
 10
14.0
 20
11.6
 11
14.0
 21
9.5
  0
LINE
  8
3
  6
CONTINUOUS
 10
21.0
 20
11.6
 11
21.0
 21
9.5
  0
LINE
  8
3
  6
CONTINUOUS
 10
21.0
 20
11.6
 11
20.5
 21
12.1
  0
LINE
  8
3
  6
CONTINUOUS
 10
14.5
 20
12.1
 11
14.0
 21
11.6
  0
LINE
  8
3
  6
CONTINUOUS
 10
14.0
 20
11.6
 11
17.0
 21
11.6
  0
LINE
  8
3
  6
CONTINUOUS
 10
18.0
 20
11.6
 11
21.0
 21
11.6
  0
LINE
  8
3
  6
CONTINUOUS
 10
17.0
 20
10.7
 11
18.0
 21
10.7
  0
LINE
  8
3
  6
CONTINUOUS
 10
17.0
 20
12.1
 11
17.0
 21
10.7
  0
LINE
  8
3
  6
CONTINUOUS
 10
18.0
 20
12.1
 11
18.0
 21
10.7
  0
LINE
  8
1
  6
CENTER
 10
-39.25790023803711
 20
0.0
 11
-16.79974365234375
 21
0.0
  0
LINE
  8
1
  6
CENTER
 10
-28.0
 20
-11.45581150054932
 11
-28.0
 21
13.71541118621826
  0
CIRCLE
  8
3
  6
CONTINUOUS
 10
-28.0
 20
0.0
 40
7.0
  0
CIRCLE
  8
3
  6
CONTINUOUS
 10
-28.0
 20
0.0
 40
6.0
  0
CIRCLE
  8
3
  6
CONTINUOUS
 10
-28.0
 20
0.0
 40
4.758679435483871
  0
CIRCLE
  8
3
  6
CONTINUOUS
 10
-28.0
 20
0.0
 40
4.1589375
  0
CIRCLE
  8
3
  6
CONTINUOUS
 10
-28.0
 20
0.0
 40
2.0
  0
LINE
  8
3
  6
CONTINUOUS
 10
-31.30604458467332
 20
-9.5
 11
-24.69395541532668
 21
-9.5
  0
LINE
  8
3
  6
CONTINUOUS
 10
-37.5
 20
-3.306044584673316
 11
-37.5
 21
3.306044584673316
  0
LINE
  8
3
  6
CONTINUOUS
 10
-18.5
 20
-3.306044584673316
 11
-18.5
 21
3.306044584673316
  0
LINE
  8
3
  6
CONTINUOUS
 10
-37.05524096599977
 20
4.379787876544635
 11
-32.37978787654463
 21
9.055240965999769
  0
LINE
  8
3
  6
CONTINUOUS
 10
-23.62021212345536
 20
-9.055240965999763
 11
-18.94475903400024
 21
-4.379787876544643
  0
LINE
  8
3
  6
CONTINUOUS
 10
-23.62021212345536
 20
9.055240965999763
 11
-18.94475903400024
 21
4.379787876544643
  0
LINE
  8
3
  6
CONTINUOUS
 10
-37.05524096599977
 20
-4.379787876544635
 11
-32.37978787654463
 21
-9.055240965999769
  0
ARC
  8
3
  6
CONTINUOUS
 10
-28.0
 20
0.0
 40
10.05882352941176
 50
19.18813645372093
 51
25.81186354627907
  0
ARC
  8
3
  6
CONTINUOUS
 10
-28.0
 20
0.0
 40
10.05882352941176
 50
64.1881364537209
 51
70.81186354627907
  0
ARC
  8
3
  6
CONTINUOUS
 10
-28.0
 20
0.0
 40
10.05882352941176
 50
109.1881364537209
 51
115.8118635462791
  0
ARC
  8
3
  6
CONTINUOUS
 10
-28.0
 20
0.0
 40
10.05882352941176
 50
154.1881364537209
 51
160.8118635462791
  0
ARC
  8
3
  6
CONTINUOUS
 10
-28.0
 20
0.0
 40
10.05882352941176
 50
199.1881364537209
 51
205.8118635462791
  0
ARC
  8
3
  6
CONTINUOUS
 10
-28.0
 20
0.0
 40
10.05882352941176
 50
244.1881364537209
 51
250.8118635462791
  0
ARC
  8
3
  6
CONTINUOUS
 10
-28.0
 20
0.0
 40
10.05882352941176
 50
289.1881364537209
 51
295.8118635462791
  0
ARC
  8
3
  6
CONTINUOUS
 10
-28.0
 20
0.0
 40
10.05882352941176
 50
334.1881364537209
 51
340.8118635462791
  0
LINE
  8
3
  6
CONTINUOUS
 10
-31.5
 20
11.6
 11
-31.5
 21
9.5
  0
LINE
  8
3
  6
CONTINUOUS
 10
-31.0
 20
12.1
 11
-31.5
 21
11.6
  0
LINE
  8
3
  6
CONTINUOUS
 10
-31.5
 20
11.6
 11
-24.5
 21
11.6
  0
LINE
  8
3
  6
CONTINUOUS
 10
-31.0
 20
12.1
 11
-25.0
 21
12.1
  0
LINE
  8
3
  6
CONTINUOUS
 10
-24.5
 20
11.6
 11
-24.5
 21
9.5
  0
LINE
  8
3
  6
CONTINUOUS
 10
-24.5
 20
11.6
 11
-25.0
 21
12.1
  0
LINE
  8
3
  6
CONTINUOUS
 10
-31.5
 20
9.5
 11
-24.5
 21
9.5
  0
LINE
  8
3
  6
CONTINUOUS
 10
12.0
 20
9.5
 11
23.0
 21
9.5
  0
LINE
  8
3
  6
CONTINUOUS
 10
12.0
 20
9.055240965999765
 11
23.0
 21
9.055240965999765
  0
LINE
  8
3
  6
CONTINUOUS
 10
12.0
 20
4.379787876544643
 11
23.0
 21
4.379787876544643
  0
LINE
  8
3
  6
CONTINUOUS
 10
12.0
 20
3.306044584673316
 11
23.0
 21
3.306044584673316
  0
LINE
  8
3
  6
CONTINUOUS
 10
12.0
 20
-3.306044584673316
 11
23.0
 21
-3.306044584673316
  0
LINE
  8
3
  6
CONTINUOUS
 10
12.0
 20
-4.379787876544643
 11
23.0
 21
-4.379787876544643
  0
LINE
  8
3
  6
CONTINUOUS
 10
12.0
 20
-9.055240965999763
 11
23.0
 21
-9.055240965999763
  0
LINE
  8
3
  6
CONTINUOUS
 10
12.0
 20
-9.5
 11
23.0
 21
-9.5
  0
LINE
  8
3
  6
CONTINUOUS
 10
12.0
 20
4.379787876544643
 11
23.0
 21
9.055240965999765
  0
LINE
  8
3
  6
CONTINUOUS
 10
12.0
 20
9.055240965999765
 11
23.0
 21
4.379787876544643
  0
LINE
  8
3
  6
CONTINUOUS
 10
12.0
 20
3.306044584673316
 11
23.0
 21
-3.306044584673316
  0
LINE
  8
3
  6
CONTINUOUS
 10
12.0
 20
-3.306044584673316
 11
23.0
 21
3.306044584673316
  0
LINE
  8
3
  6
CONTINUOUS
 10
12.0
 20
-4.379787876544643
 11
23.0
 21
-9.055240965999763
  0
LINE
  8
3
  6
CONTINUOUS
 10
23.0
 20
-4.379787876544643
 11
12.0
 21
-9.055240965999763
  0
ARC
  8
3
  6
CONTINUOUS
 10
10.0
 20
9.0
 40
2.0
 50
270.0
 51
0.0
  0
ARC
  8
3
  6
CONTINUOUS
 10
10.0
 20
-9.0
 40
2.0
 50
0.0
 51
90.0
  0
ENDSEC
  0
EOF
