  0
SECTION
  2
HEADER
  9
$ACADVER
  1
AC1015
  9
$ACADMAINTVER
 70
     0
  9
$DWGCODEPAGE
  3
ANSI_932
  9
$INSBASE
 10
0.0
 20
0.0
 30
0.0
  9
$EXTMIN
 10
-140.0
 20
-114.0
  9
$EXTMAX
 10
140.0
 20
109.0
  9
$LIMMIN
 10
-140.0
 20
-114.0
  9
$LIMMAX
 10
140.0
 20
109.0
  9
$ORTHOMODE
 70
     0
  9
$REGENMODE
 70
     1
  9
$FILLMODE
 70
     1
  9
$QTEXTMODE
 70
     0
  9
$MIRRTEXT
 70
     1
  9
$LTSCALE
 40
1.0
  9
$OSMODE
 70
     0
  9
$ATTMODE
 70
     1
  9
$TEXTSIZE
 40
3.0
  9
$TRACEWID
 40
0.5
  9
$TEXTSTYLE
  7
STANDARD
  9
$CLAYER
  8
0
  9
$CELTYPE
  6
BYLAYER
  9
$CECOLOR
 62
   256
  9
$CELTSCALE
 40
1.0
  9
$DISPSILH
 70
     0
  9
$DIMSCALE
 40
1.0
  9
$DIMASZ
 40
3.0
  9
$DIMEXO
 40
1.0
  9
$DIMDLI
 40
5.0
  9
$DIMRND
 40
0.0
  9
$DIMDLE
 40
5.0
  9
$DIMEXE
 40
2.0
  9
$DIMTP
 40
0.0
  9
$DIMTM
 40
0.0
  9
$DIMTXT
 40
3.0
  9
$DIMCEN
 40
2.0
  9
$DIMTSZ
 40
0.0
  9
$DIMTOL
 70
     0
  9
$DIMLIM
 70
     0
  9
$DIMTIH
 70
     0
  9
$DIMTOH
 70
     0
  9
$DIMSE1
 70
     0
  9
$DIMSE2
 70
     0
  9
$DIMTAD
 70
     1
  9
$DIMZIN
 70
     8
  9
$DIMBLK
  1

  9
$DIMASO
 70
     1
  9
$DIMSHO
 70
     1
  9
$DIMPOST
  1

  9
$DIMAPOST
  1

  9
$DIMALT
 70
     0
  9
$DIMALTD
 70
     4
  9
$DIMALTF
 40
25.4
  9
$DIMLFAC
 40
1.0
  9
$DIMTOFL
 70
     1
  9
$DIMTVP
 40
1.0
  9
$DIMTIX
 70
     0
  9
$DIMSOXD
 70
     0
  9
$DIMSAH
 70
     0
  9
$DIMBLK1
  1

  9
$DIMBLK2
  1

  9
$DIMSTYLE
  2
ISO-25
  9
$DIMCLRD
 70
     0
  9
$DIMCLRE
 70
     0
  9
$DIMCLRT
 70
     0
  9
$DIMTFAC
 40
1.0
  9
$DIMGAP
 40
0.5
  9
$DIMJUST
 70
     0
  9
$DIMSD1
 70
     0
  9
$DIMSD2
 70
     0
  9
$DIMTOLJ
 70
     1
  9
$DIMTZIN
 70
     1
  9
$DIMALTZ
 70
     0
  9
$DIMALTTZ
 70
     0
  9
$DIMUPT
 70
     0
  9
$DIMDEC
 70
     3
  9
$DIMTDEC
 70
     3
  9
$DIMALTU
 70
     8
  9
$DIMALTTD
 70
     4
  9
$DIMTXSTY
  7
STANDARD
  9
$DIMAUNIT
 70
     0
  9
$DIMADEC
 70
     0
  9
$DIMALTRND
 40
0.0
  9
$DIMAZIN
 70
     0
  9
$DIMDSEP
 70
    46
  9
$DIMATFIT
 70
     3
  9
$DIMFRAC
 70
     0
  9
$DIMLDRBLK
  1

  9
$DIMLUNIT
 70
     2
  9
$DIMLWD
 70
    -2
  9
$DIMLWE
 70
    -2
  9
$DIMTMOVE
 70
     0
  9
$LUNITS
 70
     2
  9
$LUPREC
 70
     4
  9
$SKETCHINC
 40
1.0
  9
$FILLETRAD
 40
0.0
  9
$AUNITS
 70
     0
  9
$AUPREC
 70
     0
  9
$MENU
  1
.
  9
$ELEVATION
 40
0.0
  9
$PELEVATION
 40
0.0
  9
$THICKNESS
 40
0.0
  9
$LIMCHECK
 70
     0
  9
$CHAMFERA
 40
0.0
  9
$CHAMFERB
 40
0.0
  9
$CHAMFERC
 40
0.0
  9
$CHAMFERD
 40
0.0
  9
$SKPOLY
 70
     0
  9
$TDCREATE
 40
2455070.488761574
  9
$TDUCREATE
 40
2455070.488761574
  9
$TDUPDATE
 40
2455070.488761574
  9
$TDUUPDATE
 40
2455070.488761574
  9
$TDINDWG
 40
0.0
  9
$TDUSRTIMER
 40
0.0
  9
$USRTIMER
 70
     1
  9
$ANGBASE
 50
0.0
  9
$ANGDIR
 70
     0
  9
$PDMODE
 70
     0
  9
$PDSIZE
 40
0.0
  9
$PLINEWID
 40
0.0
  9
$SPLFRAME
 70
     0
  9
$SPLINETYPE
 70
     6
  9
$SPLINESEGS
 70
     8
  9
$HANDSEED
  5
A1
  9
$SURFTAB1
 70
     6
  9
$SURFTAB2
 70
     6
  9
$SURFTYPE
 70
     6
  9
$SURFU
 70
     6
  9
$SURFV
 70
     6
  9
$UCSBASE
  2

  9
$UCSNAME
  2

  9
$UCSORG
 10
0.0
 20
0.0
 30
0.0
  9
$UCSXDIR
 10
1.0
 20
0.0
 30
0.0
  9
$UCSYDIR
 10
0.0
 20
1.0
 30
0.0
  9
$UCSORTHOREF
  2

  9
$UCSORTHOVIEW
 70
     0
  9
$UCSORGTOP
 10
0.0
 20
0.0
 30
0.0
  9
$UCSORGBOTTOM
 10
0.0
 20
0.0
 30
0.0
  9
$UCSORGLEFT
 10
0.0
 20
0.0
 30
0.0
  9
$UCSORGRIGHT
 10
0.0
 20
0.0
 30
0.0
  9
$UCSORGFRONT
 10
0.0
 20
0.0
 30
0.0
  9
$UCSORGBACK
 10
0.0
 20
0.0
 30
0.0
  9
$PUCSBASE
  2

  9
$PUCSNAME
  2

  9
$PUCSORG
 10
0.0
 20
0.0
 30
0.0
  9
$PUCSXDIR
 10
1.0
 20
0.0
 30
0.0
  9
$PUCSYDIR
 10
0.0
 20
1.0
 30
0.0
  9
$PUCSORTHOREF
  2

  9
$PUCSORTHOVIEW
 70
     0
  9
$PUCSORGTOP
 10
0.0
 20
0.0
 30
0.0
  9
$PUCSORGBOTTOM
 10
0.0
 20
0.0
 30
0.0
  9
$PUCSORGLEFT
 10
0.0
 20
0.0
 30
0.0
  9
$PUCSORGRIGHT
 10
0.0
 20
0.0
 30
0.0
  9
$PUCSORGFRONT
 10
0.0
 20
0.0
 30
0.0
  9
$PUCSORGBACK
 10
0.0
 20
0.0
 30
0.0
  9
$USERI1
 70
     0
  9
$USERI2
 70
     0
  9
$USERI3
 70
     0
  9
$USERI4
 70
     0
  9
$USERI5
 70
     0
  9
$USERR1
 40
0.0
  9
$USERR2
 40
0.0
  9
$USERR3
 40
0.0
  9
$USERR4
 40
0.0
  9
$USERR5
 40
0.0
  9
$WORLDVIEW
 70
     1
  9
$SHADEDGE
 70
     3
  9
$SHADEDIF
 70
    70
  9
$MAXACTVP
 70
    16
  9
$PINSBASE
 10
0.0
 20
0.0
 30
0.0
  9
$PLIMCHECK
 70
     0
  9
$PEXTMIN
 10
1.000000000000000E+020
 20
1.000000000000000E+020
 30
1.000000000000000E+020
  9
$PEXTMAX
 10
-1.000000000000000E+020
 20
-1.000000000000000E+020
 30
-1.000000000000000E+020
  9
$PLIMMIN
 10
-140.0
 20
-114.0
  9
$PLIMMAX
 10
140.0
 20
109.0
  9
$UNITMODE
 70
     0
  9
$VISRETAIN
 70
     0
  9
$PLINEGEN
 70
     0
  9
$PSLTSCALE
 70
     0
  9
$TREEDEPTH
 70
  3020
  9
$CMLSTYLE
  2
STANDARD
  9
$CMLJUST
 70
     0
  9
$CMLSCALE
 40
1.0
  9
$PROXYGRAPHICS
 70
     1
  9
$MEASUREMENT
 70
     0
  9
$CELWEIGHT
370
    -3
  9
$ENDCAPS
280
     0
  9
$JOINSTYLE
280
     0
  9
$LWDISPLAY
290
     1
  9
$INSUNITS
 70
     0
  9
$HYPERLINKBASE
  1

  9
$STYLESHEET
  1

  9
$XEDIT
290
     1
  9
$CEPSNTYPE
380
     0
  9
$PSTYLEMODE
290
     1
  9
$FINGERPRINTGUID
  2
{6F25CFC2-5053-11D3-9BE9-00805F4AB38E}
  9
$VERSIONGUID
  2
{6F25CFC5-5053-11D3-9BE9-00805F4AB38E}
  9
$EXTNAMES
290
     1
  9
$PSVPSCALE
 40
0.0
  9
$OLESTARTUP
290
     0
  0
ENDSEC
  0
SECTION
  2
CLASSES
  0
CLASS
  1
LWPOLYLINE
  2
AcDbPolyline
  3
AutoCAD 2000
 90
    32768
280
     0
281
     1
  0
CLASS
  1
DICTIONARYVAR
  2
AcDbDictionaryVar
  3
AutoCAD 2000
 90
        0
280
     0
281
     1
  0
CLASS
  1
ACDBDICTIONARYWDFLT
  2
AcDbDictionaryWithDefault
  3
AutoCAD 2000
 90
        0
280
     0
281
     1
  0
CLASS
  1
ACDBPLACEHOLDER
  2
AcDbPlaceHolder
  3
AutoCAD 2000
 90
        0
280
     0
281
     1
  0
CLASS
  1
LAYOUT
  2
AcDbLayout
  3
AutoCAD 2000
 90
        0
280
     0
281
     1
  0
CLASS
  1
HATCH
  2
AcDbHatch
  3
AutoCAD 2000
 90
        0
280
     0
281
     1
  0
ENDSEC
  0
SECTION
  2
TABLES
  0
TABLE
  2
VPORT
  5
8
100
AcDbSymbolTable
 70
     1
  0
VPORT
  5
98
330
0
100
AcDbSymbolTableRecord
100
AcDbViewportTableRecord
  2
*ACTIVE
 70
     0
 10
0.0
 20
0.0
 11
1.0
 21
1.0
 12
0.0
 22
-2.5
 13
0.0
 23
0.0
 14
0.0
 24
0.0
 15
0.0
 25
0.0
 16
0.0
 26
0.0
 36
1.0
 17
0.0
 27
0.0
 37
0.0
 40
223.0
 41
1.5
 42
50.0
 43
0.0
 44
0.0
 50
0.0
 51
0.0
 71
     0
 72
   100
 73
     1
 74
     1
 75
     0
 76
     0
 77
     0
 78
     0
281
     0
 65
     1
110
0.0
120
0.0
130
0.0
111
1.0
121
0.0
131
0.0
112
0.0
122
1.0
132
0.0
 79
     0
146
0.0
  0
ENDTAB
  0
TABLE
  2
LTYPE
  5
5
330
0
100
AcDbSymbolTable
 70
    20
  0
LTYPE
  5
99
330
5
100
AcDbSymbolTableRecord
100
AcDbLinetypeTableRecord
  2
BYBLOCK
 70
     0
  3

 72
    65
 73
     0
 40
0.0
  0
LTYPE
  5
9A
330
5
100
AcDbSymbolTableRecord
100
AcDbLinetypeTableRecord
  2
BYLAYER
 70
     0
  3

 72
    65
 73
     0
 40
0.0
  0
LTYPE
  5
9B
330
5
100
AcDbSymbolTableRecord
100
AcDbLinetypeTableRecord
  2
CONTINUOUS
 70
    64
  3
solid line
 72
    65
 73
     0
 40
0.0
  0
ENDTAB
  0
TABLE
  2
LAYER
  5
2
330
0
100
AcDbSymbolTable
 70
    20
  0
LAYER
  5
9C
330
2
100
AcDbSymbolTableRecord
100
AcDbLayerTableRecord
  2
0
 70
    64
 62
     7
  6
CONTINUOUS
370
    -3
390
94
  0
ENDTAB
  0
TABLE
  2
STYLE
  5
3
330
0
100
AcDbSymbolTable
 70
     4
  0
STYLE
  5
9D
330
3
100
AcDbSymbolTableRecord
100
AcDbTextStyleTableRecord
  2
STANDARD
 70
    64
 40
0.0
 41
1.052631578947368
 50
0.0
 71
     0
 42
3.75
  3
monotxt
  4

  0
ENDTAB
  0
TABLE
  2
VIEW
  5
6
330
0
100
AcDbSymbolTable
 70
     0
  0
ENDTAB
  0
TABLE
  2
UCS
  5
7
330
0
100
AcDbSymbolTable
 70
     0
  0
ENDTAB
  0
TABLE
  2
APPID
  5
9
330
0
100
AcDbSymbolTable
 70
     1
  0
APPID
  5
9E
330
9
100
AcDbSymbolTableRecord
100
AcDbRegAppTableRecord
  2
ACAD
 70
     0
  0
ENDTAB
  0
TABLE
  2
DIMSTYLE
  5
A
330
0
100
AcDbSymbolTable
 70
     8
100
AcDbDimStyleTable
 71
     0
  0
DIMSTYLE
105
9F
330
A
100
AcDbSymbolTableRecord
100
AcDbDimStyleTableRecord
  2
ISO-25
 70
     0
  3

  4

  5

  6

  7

 40
1.0
 41
3.0
 42
1.0
 43
5.0
 44
2.0
 45
0.0
 46
5.0
 47
0.0
 48
0.0
140
3.0
141
2.0
142
0.0
143
25.4
144
1.0
145
1.0
146
1.0
147
0.5
 71
     0
 72
     0
 73
     0
 74
     0
 75
     0
 76
     0
 77
     1
 78
     8
170
     0
171
     0
172
     1
173
     0
174
     0
175
     0
176
     0
177
     0
178
     0
270
     2
271
     3
272
     3
273
     8
274
     4
340
9D
275
     0
280
     0
281
     0
282
     0
283
     1
284
     1
285
     0
286
     0
287
     3
288
     0
  0
DIMSTYLE
105
A0
330
A
100
AcDbSymbolTableRecord
100
AcDbDimStyleTableRecord
  2
ISO-25 0.8
 70
     0
  3

  4

  5

  6

  7

 40
1.0
 41
3.75
 42
1.25
 43
6.25
 44
2.5
 45
0.0
 46
6.25
 47
0.0
 48
0.0
140
3.75
141
2.5
142
0.0
143
25.4
144
1.0
145
1.0
146
1.0
147
0.625
 71
     0
 72
     0
 73
     0
 74
     0
 75
     0
 76
     0
 77
     1
 78
     8
170
     0
171
     0
172
     1
173
     0
174
     0
175
     0
176
     0
177
     0
178
     0
270
     2
271
     3
272
     3
273
     8
274
     4
340
9D
275
     0
280
     0
281
     0
282
     0
283
     1
284
     1
285
     0
286
     0
287
     3
288
     0
  0
ENDTAB
  0
TABLE
  2
BLOCK_RECORD
  5
1
330
0
100
AcDbSymbolTable
 70
     2
  0
BLOCK_RECORD
  5
20
330
1
100
AcDbSymbolTableRecord
100
AcDbBlockTableRecord
  2
*MODEL_SPACE
340
95
  0
BLOCK_RECORD
  5
22
330
1
100
AcDbSymbolTableRecord
100
AcDbBlockTableRecord
  2
*PAPER_SPACE
340
0
  0
ENDTAB
  0
ENDSEC
  0
SECTION
  2
BLOCKS
  0
BLOCK
  5
21
330
20
100
AcDbEntity
  8
0
100
AcDbBlockBegin
  2
*MODEL_SPACE
 70
     0
 10
0.0
 20
0.0
 30
0.0
  3
*MODEL_SPACE
  1

  0
ENDBLK
  5
96
330
20
100
AcDbEntity
  8
0
100
AcDbBlockEnd
  0
BLOCK
  5
23
330
22
100
AcDbEntity
 67
     1
  8
0
100
AcDbBlockBegin
  2
*PAPER_SPACE
 70
     0
 10
0.0
 20
0.0
 30
0.0
  3
*PAPER_SPACE
  1

  0
ENDBLK
  5
97
330
22
100
AcDbEntity
 67
     1
  8
0
100
AcDbBlockEnd
  0
ENDSEC
  0
SECTION
  2
ENTITIES
  0
LINE
  5
24
330
20
100
AcDbEntity
  8
0
  6
CONTINUOUS
 62
     1
100
AcDbLine
 10
70.0
 20
-35.0
 11
70.0
 21
35.0
  0
LINE
  5
25
330
20
100
AcDbEntity
  8
0
  6
CONTINUOUS
 62
     1
100
AcDbLine
 10
-60.0
 20
-35.0
 11
-60.0
 21
35.0
  0
LINE
  5
26
330
20
100
AcDbEntity
  8
0
  6
CONTINUOUS
 62
     1
100
AcDbLine
 10
-60.0
 20
35.0
 11
-30.0
 21
35.0
  0
LINE
  5
27
330
20
100
AcDbEntity
  8
0
  6
CONTINUOUS
 62
     1
100
AcDbLine
 10
40.0
 20
35.0
 11
70.0
 21
35.0
  0
LINE
  5
28
330
20
100
AcDbEntity
  8
0
  6
CONTINUOUS
 62
     1
100
AcDbLine
 10
40.0
 20
-35.0
 11
70.0
 21
-35.0
  0
LINE
  5
29
330
20
100
AcDbEntity
  8
0
  6
CONTINUOUS
 62
     1
100
AcDbLine
 10
-60.0
 20
-35.0
 11
-30.0
 21
-35.0
  0
CIRCLE
  5
2A
330
20
100
AcDbEntity
  8
0
  6
CONTINUOUS
 62
     1
100
AcDbCircle
 10
56.0
 20
20.0
 40
2.5
  0
CIRCLE
  5
2B
330
20
100
AcDbEntity
  8
0
  6
CONTINUOUS
 62
     1
100
AcDbCircle
 10
56.0
 20
-20.0
 40
2.5
  0
CIRCLE
  5
2C
330
20
100
AcDbEntity
  8
0
  6
CONTINUOUS
 62
     1
100
AcDbCircle
 10
56.0
 20
0.0
 40
2.0
  0
LINE
  5
2D
330
20
100
AcDbEntity
  8
0
  6
CONTINUOUS
 62
     1
100
AcDbLine
 10
-59.0
 20
33.0
 11
69.0
 21
33.0
  0
LINE
  5
2E
330
20
100
AcDbEntity
  8
0
  6
CONTINUOUS
 62
     1
100
AcDbLine
 10
-59.0
 20
-33.0
 11
69.0
 21
-33.0
  0
LINE
  5
2F
330
20
100
AcDbEntity
  8
0
  6
CONTINUOUS
 62
     1
100
AcDbLine
 10
-59.0
 20
-33.0
 11
-59.0
 21
33.0
  0
LINE
  5
30
330
20
100
AcDbEntity
  8
0
  6
CONTINUOUS
 62
     1
100
AcDbLine
 10
56.0
 20
2.5
 11
69.0
 21
2.5
  0
LINE
  5
31
330
20
100
AcDbEntity
  8
0
  6
CONTINUOUS
 62
     1
100
AcDbLine
 10
56.0
 20
-2.5
 11
69.0
 21
-2.5
  0
LINE
  5
32
330
20
100
AcDbEntity
  8
0
  6
CONTINUOUS
 62
     1
100
AcDbLine
 10
69.0
 20
2.5
 11
69.0
 21
33.0
  0
LINE
  5
33
330
20
100
AcDbEntity
  8
0
  6
CONTINUOUS
 62
     1
100
AcDbLine
 10
69.0
 20
-33.0
 11
69.0
 21
-2.5
  0
ARC
  5
34
330
20
100
AcDbEntity
  8
0
  6
CONTINUOUS
 62
     1
100
AcDbCircle
 10
30.0
 20
35.0
 40
10.0
100
AcDbArc
 50
348.4630409671845
 51
0.0
  0
ARC
  5
35
330
20
100
AcDbEntity
  8
0
  6
CONTINUOUS
 62
     1
100
AcDbCircle
 10
-20.0
 20
35.0
 40
10.0
100
AcDbArc
 50
180.0
 51
191.5369590328155
  0
ARC
  5
36
330
20
100
AcDbEntity
  8
0
  6
CONTINUOUS
 62
     1
100
AcDbCircle
 10
-20.0
 20
-35.0
 40
10.0
100
AcDbArc
 50
168.4630409671845
 51
180.0
  0
ARC
  5
37
330
20
100
AcDbEntity
  8
0
  6
CONTINUOUS
 62
     1
100
AcDbCircle
 10
30.0
 20
-35.0
 40
10.0
100
AcDbArc
 50
0.0
 51
11.53695903281549
  0
LINE
  5
38
330
20
100
AcDbEntity
  8
0
  6
CONTINUOUS
 62
     1
100
AcDbLine
 10
32.5
 20
-15.0
 11
32.5
 21
15.0
  0
LINE
  5
39
330
20
100
AcDbEntity
  8
0
  6
CONTINUOUS
 62
     1
100
AcDbLine
 10
-22.5
 20
-15.0
 11
-22.5
 21
15.0
  0
LINE
  5
3A
330
20
100
AcDbEntity
  8
0
  6
CONTINUOUS
 62
     1
100
AcDbLine
 10
-22.5
 20
15.0
 11
32.5
 21
15.0
  0
LINE
  5
3B
330
20
100
AcDbEntity
  8
0
  6
CONTINUOUS
 62
     1
100
AcDbLine
 10
-22.5
 20
-15.0
 11
32.5
 21
-15.0
  0
LINE
  5
3C
330
20
100
AcDbEntity
  8
0
  6
CONTINUOUS
 62
     1
100
AcDbLine
 10
70.0
 20
75.0
 11
70.0
 21
105.0
  0
LINE
  5
3D
330
20
100
AcDbEntity
  8
0
  6
CONTINUOUS
 62
     1
100
AcDbLine
 10
-60.0
 20
75.0
 11
-60.0
 21
105.0
  0
LINE
  5
3E
330
20
100
AcDbEntity
  8
0
  6
CONTINUOUS
 62
     1
100
AcDbLine
 10
-60.0
 20
75.0
 11
70.0
 21
75.0
  0
LINE
  5
3F
330
20
100
AcDbEntity
  8
0
  6
CONTINUOUS
 62
     1
100
AcDbLine
 10
-59.0
 20
71.0
 11
69.0
 21
71.0
  0
LINE
  5
40
330
20
100
AcDbEntity
  8
0
  6
CONTINUOUS
 62
     1
100
AcDbLine
 10
-59.0
 20
107.0
 11
45.0
 21
107.0
  0
LINE
  5
41
330
20
100
AcDbEntity
  8
0
  6
CONTINUOUS
 62
     1
100
AcDbLine
 10
-59.0
 20
73.0
 11
45.0
 21
73.0
  0
LINE
  5
42
330
20
100
AcDbEntity
  8
0
  6
CONTINUOUS
 62
     1
100
AcDbLine
 10
-59.0
 20
107.0
 11
-59.0
 21
109.0
  0
LINE
  5
43
330
20
100
AcDbEntity
  8
0
  6
CONTINUOUS
 62
     1
100
AcDbLine
 10
-59.0
 20
71.0
 11
-59.0
 21
73.0
  0
LINE
  5
44
330
20
100
AcDbEntity
  8
0
  6
CONTINUOUS
 62
     1
100
AcDbLine
 10
45.0
 20
105.0
 11
45.0
 21
107.0
  0
LINE
  5
45
330
20
100
AcDbEntity
  8
0
  6
CONTINUOUS
 62
     1
100
AcDbLine
 10
45.0
 20
73.0
 11
45.0
 21
75.0
  0
LINE
  5
46
330
20
100
AcDbEntity
  8
0
  6
CONTINUOUS
 62
     1
100
AcDbLine
 10
69.0
 20
105.0
 11
69.0
 21
109.0
  0
LINE
  5
47
330
20
100
AcDbEntity
  8
0
  6
CONTINUOUS
 62
     1
100
AcDbLine
 10
69.0
 20
71.0
 11
69.0
 21
75.0
  0
LINE
  5
48
330
20
100
AcDbEntity
  8
0
  6
CONTINUOUS
 62
     1
100
AcDbLine
 10
-30.0
 20
75.0
 11
-30.0
 21
105.0
  0
LINE
  5
49
330
20
100
AcDbEntity
  8
0
  6
CONTINUOUS
 62
     1
100
AcDbLine
 10
40.0
 20
75.0
 11
40.0
 21
105.0
  0
LINE
  5
4A
330
20
100
AcDbEntity
  8
0
  6
CONTINUOUS
 62
     1
100
AcDbLine
 10
-10.0
 20
75.0
 11
-10.0
 21
105.0
  0
LINE
  5
4B
330
20
100
AcDbEntity
  8
0
  6
CONTINUOUS
 62
     1
100
AcDbLine
 10
20.0
 20
75.0
 11
20.0
 21
105.0
  0
LINE
  5
4C
330
20
100
AcDbEntity
  8
0
  6
CONTINUOUS
 62
     1
100
AcDbLine
 10
70.0
 20
-80.0
 11
70.0
 21
-110.0
  0
LINE
  5
4D
330
20
100
AcDbEntity
  8
0
  6
CONTINUOUS
 62
     1
100
AcDbLine
 10
-60.0
 20
-80.0
 11
70.0
 21
-80.0
  0
LINE
  5
4E
330
20
100
AcDbEntity
  8
0
  6
CONTINUOUS
 62
     1
100
AcDbLine
 10
-59.0
 20
-76.0
 11
69.0
 21
-76.0
  0
LINE
  5
4F
330
20
100
AcDbEntity
  8
0
  6
CONTINUOUS
 62
     1
100
AcDbLine
 10
-59.0
 20
-112.0
 11
45.0
 21
-112.0
  0
LINE
  5
50
330
20
100
AcDbEntity
  8
0
  6
CONTINUOUS
 62
     1
100
AcDbLine
 10
-59.0
 20
-78.0
 11
45.0
 21
-78.0
  0
LINE
  5
51
330
20
100
AcDbEntity
  8
0
  6
CONTINUOUS
 62
     1
100
AcDbLine
 10
45.0
 20
-110.0
 11
45.0
 21
-112.0
  0
LINE
  5
52
330
20
100
AcDbEntity
  8
0
  6
CONTINUOUS
 62
     1
100
AcDbLine
 10
45.0
 20
-78.0
 11
45.0
 21
-80.0
  0
LINE
  5
53
330
20
100
AcDbEntity
  8
0
  6
CONTINUOUS
 62
     1
100
AcDbLine
 10
69.0
 20
-110.0
 11
69.0
 21
-114.0
  0
LINE
  5
54
330
20
100
AcDbEntity
  8
0
  6
CONTINUOUS
 62
     1
100
AcDbLine
 10
69.0
 20
-76.0
 11
69.0
 21
-80.0
  0
LINE
  5
55
330
20
100
AcDbEntity
  8
0
  6
CONTINUOUS
 62
     1
100
AcDbLine
 10
40.0
 20
-80.0
 11
40.0
 21
-110.0
  0
LINE
  5
56
330
20
100
AcDbEntity
  8
0
  6
CONTINUOUS
 62
     1
100
AcDbLine
 10
20.0
 20
-80.0
 11
20.0
 21
-110.0
  0
LINE
  5
57
330
20
100
AcDbEntity
  8
0
  6
CONTINUOUS
 62
     1
100
AcDbLine
 10
-60.0
 20
-80.0
 11
-60.0
 21
-110.0
  0
LINE
  5
58
330
20
100
AcDbEntity
  8
0
  6
CONTINUOUS
 62
     1
100
AcDbLine
 10
-59.0
 20
-112.0
 11
-59.0
 21
-114.0
  0
LINE
  5
59
330
20
100
AcDbEntity
  8
0
  6
CONTINUOUS
 62
     1
100
AcDbLine
 10
-59.0
 20
-76.0
 11
-59.0
 21
-78.0
  0
LINE
  5
5A
330
20
100
AcDbEntity
  8
0
  6
CONTINUOUS
 62
     1
100
AcDbLine
 10
-30.0
 20
-80.0
 11
-30.0
 21
-110.0
  0
LINE
  5
5B
330
20
100
AcDbEntity
  8
0
  6
CONTINUOUS
 62
     1
100
AcDbLine
 10
-10.0
 20
-80.0
 11
-10.0
 21
-110.0
  0
ARC
  5
5C
330
20
100
AcDbEntity
  8
0
  6
CONTINUOUS
 62
     1
100
AcDbCircle
 10
56.0
 20
0.0
 40
2.5
100
AcDbArc
 50
90.0
 51
270.0
  0
SPLINE
  5
5D
330
20
100
AcDbEntity
  8
0
  6
CONTINUOUS
 62
     1
100
AcDbSpline
210
0.0
220
0.0
230
1.0
 70
     8
 71
     3
 72
    13
 73
     9
 74
     0
 42
1.000000000000000E-007
 43
1.000000000000000E-007
 40
0.0
 40
0.0
 40
0.0
 40
0.0
 40
1.132774094318674
 40
2.279843233177379
 40
3.425691886875202
 40
4.613817892022963
 40
5.816164881379931
 40
6.956352164384159
 40
6.956352164384159
 40
6.956352164384159
 40
6.956352164384159
 10
58.5999999999999
 20
61.0
 30
0.0
 10
58.39079354173852
 20
60.84146341463412
 30
0.0
 10
57.55396770869115
 20
60.20731707317075
 30
0.0
 10
56.57492270697379
 20
61.012195121951
 30
0.0
 10
55.74634146341467
 20
61.7439024390244
 30
0.0
 10
54.03971143936794
 20
61.01219512195121
 30
0.0
 10
55.69481277911375
 20
60.20731707317072
 30
0.0
 10
56.41896255582277
 20
60.84146341463415
 30
0.0
 10
56.6
 20
61.0
 30
0.0
  0
LINE
  5
5E
330
20
100
AcDbEntity
  8
0
  6
CONTINUOUS
 62
     1
100
AcDbLine
 10
58.6
 20
61.0
 11
58.6
 21
71.0
  0
LINE
  5
5F
330
20
100
AcDbEntity
  8
0
  6
CONTINUOUS
 62
     1
100
AcDbLine
 10
54.6
 20
61.0
 11
54.6
 21
71.0
  0
SPLINE
  5
60
330
20
100
AcDbEntity
  8
0
  6
CONTINUOUS
 62
     1
100
AcDbSpline
210
0.0
220
0.0
230
1.0
 70
     8
 71
     3
 72
    13
 73
     9
 74
     0
 42
1.000000000000000E-007
 43
1.000000000000000E-007
 40
0.0
 40
0.0
 40
0.0
 40
0.0
 40
1.132774094318661
 40
2.279843233177365
 40
3.425691886875189
 40
4.613817892022958
 40
5.816164881379933
 40
6.956352164384162
 40
6.956352164384162
 40
6.956352164384162
 40
6.956352164384162
 10
58.59999999999989
 20
-66.0
 30
0.0
 10
58.39079354173851
 20
-65.84146341463412
 30
0.0
 10
57.55396770869116
 20
-65.20731707317077
 30
0.0
 10
56.57492270697377
 20
-66.012195121951
 30
0.0
 10
55.74634146341468
 20
-66.74390243902441
 30
0.0
 10
54.03971143936796
 20
-66.01219512195121
 30
0.0
 10
55.69481277911376
 20
-65.2073170731707
 30
0.0
 10
56.41896255582277
 20
-65.84146341463415
 30
0.0
 10
56.6
 20
-66.0
 30
0.0
  0
LINE
  5
61
330
20
100
AcDbEntity
  8
0
  6
CONTINUOUS
 62
     1
100
AcDbLine
 10
58.6
 20
-66.0
 11
58.6
 21
-76.0
  0
LINE
  5
62
330
20
100
AcDbEntity
  8
0
  6
CONTINUOUS
 62
     1
100
AcDbLine
 10
54.6
 20
-66.0
 11
54.6
 21
-76.0
  0
LINE
  5
63
330
20
100
AcDbEntity
  8
0
  6
CONTINUOUS
 62
     1
100
AcDbLine
 10
106.0
 20
-35.0
 11
106.0
 21
35.0
  0
LINE
  5
64
330
20
100
AcDbEntity
  8
0
  6
CONTINUOUS
 62
     1
100
AcDbLine
 10
106.0
 20
35.0
 11
136.0
 21
35.0
  0
LINE
  5
65
330
20
100
AcDbEntity
  8
0
  6
CONTINUOUS
 62
     1
100
AcDbLine
 10
106.0
 20
-35.0
 11
136.0
 21
-35.0
  0
LINE
  5
66
330
20
100
AcDbEntity
  8
0
  6
CONTINUOUS
 62
     1
100
AcDbLine
 10
102.0
 20
-33.0
 11
102.0
 21
33.0
  0
LINE
  5
67
330
20
100
AcDbEntity
  8
0
  6
CONTINUOUS
 62
     1
100
AcDbLine
 10
102.0
 20
33.0
 11
106.0
 21
33.0
  0
LINE
  5
68
330
20
100
AcDbEntity
  8
0
  6
CONTINUOUS
 62
     1
100
AcDbLine
 10
102.0
 20
-33.0
 11
106.0
 21
-33.0
  0
LINE
  5
69
330
20
100
AcDbEntity
  8
0
  6
CONTINUOUS
 62
     1
100
AcDbLine
 10
136.0
 20
-33.0
 11
140.0
 21
-33.0
  0
LINE
  5
6A
330
20
100
AcDbEntity
  8
0
  6
CONTINUOUS
 62
     1
100
AcDbLine
 10
136.0
 20
33.0
 11
140.0
 21
33.0
  0
SPLINE
  5
6B
330
20
100
AcDbEntity
  8
0
  6
CONTINUOUS
 62
     1
100
AcDbSpline
210
0.0
220
0.0
230
1.0
 70
     8
 71
     3
 72
    13
 73
     9
 74
     0
 42
1.000000000000000E-007
 43
1.000000000000000E-007
 40
0.0
 40
0.0
 40
0.0
 40
0.0
 40
1.132774094318661
 40
2.279843233177365
 40
3.425691886875189
 40
4.613817892022958
 40
5.816164881379933
 40
6.956352164384162
 40
6.956352164384162
 40
6.956352164384162
 40
6.956352164384162
 10
92.0
 20
1.999999999999886
 30
0.0
 10
91.84146341463412
 20
1.790793541738509
 30
0.0
 10
91.20731707317077
 20
0.9539677086911628
 30
0.0
 10
92.012195121951
 20
-0.02507729302623418
 30
0.0
 10
92.74390243902441
 20
-0.8536585365853185
 30
0.0
 10
92.01219512195121
 20
-2.560288560632046
 30
0.0
 10
91.2073170731707
 20
-0.9051872208862433
 30
0.0
 10
91.84146341463415
 20
-0.1810374441772353
 30
0.0
 10
92.0
 20
0.0
 30
0.0
  0
LINE
  5
6C
330
20
100
AcDbEntity
  8
0
  6
CONTINUOUS
 62
     1
100
AcDbLine
 10
92.0
 20
2.0
 11
102.0
 21
2.0
  0
LINE
  5
6D
330
20
100
AcDbEntity
  8
0
  6
CONTINUOUS
 62
     1
100
AcDbLine
 10
92.0
 20
-2.0
 11
102.0
 21
-2.0
  0
LINE
  5
6E
330
20
100
AcDbEntity
  8
0
  6
CONTINUOUS
 62
     1
100
AcDbLine
 10
-106.0
 20
-35.0
 11
-136.0
 21
-35.0
  0
LINE
  5
6F
330
20
100
AcDbEntity
  8
0
  6
CONTINUOUS
 62
     1
100
AcDbLine
 10
-106.0
 20
-35.0
 11
-106.0
 21
35.0
  0
LINE
  5
70
330
20
100
AcDbEntity
  8
0
  6
CONTINUOUS
 62
     1
100
AcDbLine
 10
-102.0
 20
-33.0
 11
-102.0
 21
33.0
  0
LINE
  5
71
330
20
100
AcDbEntity
  8
0
  6
CONTINUOUS
 62
     1
100
AcDbLine
 10
-102.0
 20
-33.0
 11
-106.0
 21
-33.0
  0
LINE
  5
72
330
20
100
AcDbEntity
  8
0
  6
CONTINUOUS
 62
     1
100
AcDbLine
 10
-136.0
 20
-33.0
 11
-140.0
 21
-33.0
  0
LINE
  5
73
330
20
100
AcDbEntity
  8
0
  6
CONTINUOUS
 62
     1
100
AcDbLine
 10
-106.0
 20
35.0
 11
-136.0
 21
35.0
  0
LINE
  5
74
330
20
100
AcDbEntity
  8
0
  6
CONTINUOUS
 62
     1
100
AcDbLine
 10
-102.0
 20
33.0
 11
-106.0
 21
33.0
  0
LINE
  5
75
330
20
100
AcDbEntity
  8
0
  6
CONTINUOUS
 62
     1
100
AcDbLine
 10
-136.0
 20
33.0
 11
-140.0
 21
33.0
  0
SPLINE
  5
76
330
20
100
AcDbEntity
  8
0
  6
CONTINUOUS
 62
     1
100
AcDbSpline
210
0.0
220
0.0
230
1.0
 70
     8
 71
     3
 72
    13
 73
     9
 74
     0
 42
1.000000000000000E-007
 43
1.000000000000000E-007
 40
0.0
 40
0.0
 40
0.0
 40
0.0
 40
1.132774094318661
 40
2.279843233177365
 40
3.425691886875189
 40
4.613817892022958
 40
5.816164881379933
 40
6.956352164384162
 40
6.956352164384162
 40
6.956352164384162
 40
6.956352164384162
 10
-92.0
 20
1.999999999999886
 30
0.0
 10
-91.84146341463412
 20
1.790793541738509
 30
0.0
 10
-91.20731707317077
 20
0.9539677086911628
 30
0.0
 10
-92.012195121951
 20
-0.02507729302623418
 30
0.0
 10
-92.74390243902441
 20
-0.8536585365853185
 30
0.0
 10
-92.01219512195121
 20
-2.560288560632046
 30
0.0
 10
-91.2073170731707
 20
-0.9051872208862433
 30
0.0
 10
-91.84146341463415
 20
-0.1810374441772353
 30
0.0
 10
-92.0
 20
0.0
 30
0.0
  0
LINE
  5
77
330
20
100
AcDbEntity
  8
0
  6
CONTINUOUS
 62
     1
100
AcDbLine
 10
-92.0
 20
2.0
 11
-102.0
 21
2.0
  0
LINE
  5
78
330
20
100
AcDbEntity
  8
0
  6
CONTINUOUS
 62
     1
100
AcDbLine
 10
-92.0
 20
-2.0
 11
-102.0
 21
-2.0
  0
LINE
  5
79
330
20
100
AcDbEntity
  8
0
  6
CONTINUOUS
 62
     1
100
AcDbLine
 10
-104.0
 20
-33.0
 11
-104.0
 21
33.0
  0
LINE
  5
7A
330
20
100
AcDbEntity
  8
0
  6
CONTINUOUS
 62
     1
100
AcDbLine
 10
54.23223304703363
 20
-21.76776695296637
 11
57.76776695296637
 21
-18.23223304703363
  0
LINE
  5
7B
330
20
100
AcDbEntity
  8
0
  6
CONTINUOUS
 62
     1
100
AcDbLine
 10
57.76776695296637
 20
-21.76776695296637
 11
54.23223304703363
 21
-18.23223304703363
  0
LINE
  5
7C
330
20
100
AcDbEntity
  8
0
  6
CONTINUOUS
 62
     1
100
AcDbLine
 10
54.23223304703363
 20
21.76776695296637
 11
57.76776695296637
 21
18.23223304703363
  0
LINE
  5
7D
330
20
100
AcDbEntity
  8
0
  6
CONTINUOUS
 62
     1
100
AcDbLine
 10
57.76776695296637
 20
21.76776695296637
 11
54.23223304703363
 21
18.23223304703363
  0
LINE
  5
7E
330
20
100
AcDbEntity
  8
0
  6
CONTINUOUS
 62
     1
100
AcDbLine
 10
140.0
 20
-33.0
 11
140.0
 21
33.0
  0
LINE
  5
7F
330
20
100
AcDbEntity
  8
0
  6
CONTINUOUS
 62
     1
100
AcDbLine
 10
136.0
 20
-35.0
 11
136.0
 21
35.0
  0
LINE
  5
80
330
20
100
AcDbEntity
  8
0
  6
CONTINUOUS
 62
     1
100
AcDbLine
 10
-140.0
 20
-33.0
 11
-140.0
 21
33.0
  0
LINE
  5
81
330
20
100
AcDbEntity
  8
0
  6
CONTINUOUS
 62
     1
100
AcDbLine
 10
-136.0
 20
-35.0
 11
-136.0
 21
35.0
  0
LINE
  5
82
330
20
100
AcDbEntity
  8
0
  6
CONTINUOUS
 62
     1
100
AcDbLine
 10
-138.0
 20
-33.0
 11
-138.0
 21
33.0
  0
LINE
  5
83
330
20
100
AcDbEntity
  8
0
  6
CONTINUOUS
 62
     1
100
AcDbLine
 10
-59.0
 20
-114.0
 11
69.0
 21
-114.0
  0
LINE
  5
84
330
20
100
AcDbEntity
  8
0
  6
CONTINUOUS
 62
     1
100
AcDbLine
 10
-60.0
 20
-110.0
 11
70.0
 21
-110.0
  0
LINE
  5
85
330
20
100
AcDbEntity
  8
0
  6
CONTINUOUS
 62
     1
100
AcDbLine
 10
-59.0
 20
109.0
 11
69.0
 21
109.0
  0
LINE
  5
86
330
20
100
AcDbEntity
  8
0
  6
CONTINUOUS
 62
     1
100
AcDbLine
 10
-60.0
 20
105.0
 11
70.0
 21
105.0
  0
CIRCLE
  5
87
330
20
100
AcDbEntity
  8
0
  6
CONTINUOUS
 62
     1
100
AcDbCircle
 10
-121.0
 20
12.0
 40
3.0
  0
CIRCLE
  5
88
330
20
100
AcDbEntity
  8
0
  6
CONTINUOUS
 62
     1
100
AcDbCircle
 10
-121.0
 20
-12.0
 40
3.0
  0
CIRCLE
  5
89
330
20
100
AcDbEntity
  8
0
  6
CONTINUOUS
 62
     1
100
AcDbCircle
 10
-121.0
 20
12.0
 40
2.4585
  0
CIRCLE
  5
8A
330
20
100
AcDbEntity
  8
0
  6
CONTINUOUS
 62
     1
100
AcDbCircle
 10
-121.0
 20
-12.0
 40
2.4585
  0
CIRCLE
  5
8B
330
20
100
AcDbEntity
  8
0
  6
CONTINUOUS
 62
     1
100
AcDbCircle
 10
121.0
 20
12.0
 40
2.4585
  0
CIRCLE
  5
8C
330
20
100
AcDbEntity
  8
0
  6
CONTINUOUS
 62
     1
100
AcDbCircle
 10
121.0
 20
12.0
 40
3.0
  0
CIRCLE
  5
8D
330
20
100
AcDbEntity
  8
0
  6
CONTINUOUS
 62
     1
100
AcDbCircle
 10
121.0
 20
-12.0
 40
2.4585
  0
CIRCLE
  5
8E
330
20
100
AcDbEntity
  8
0
  6
CONTINUOUS
 62
     1
100
AcDbCircle
 10
121.0
 20
-12.0
 40
3.0
  0
ENDSEC
  0
SECTION
  2
OBJECTS
  0
DICTIONARY
  5
C
100
AcDbDictionary
281
     1
  3
ACAD_GROUP
350
D
  3
ACAD_MLINESTYLE
350
E
  3
ACDBVARIABLEDICTIONARY
350
8F
  3
ACAD_PLOTSTYLENAME
350
90
  3
ACAD_LAYOUT
350
91
  3
ACAD_PLOTSETTINGS
350
92
  0
DICTIONARY
  5
D
102
{ACAD_REACTORS
330
C
102
}
330
C
100
AcDbDictionary
281
     1
  0
DICTIONARY
  5
E
102
{ACAD_REACTORS
330
C
102
}
330
C
100
AcDbDictionary
281
     1
  3
STANDARD
350
13
  0
DICTIONARY
  5
8F
102
{ACAD_REACTORS
330
C
102
}
330
C
100
AcDbDictionary
281
     1
  3
SORTENTS
350
93
  0
ACDBDICTIONARYWDFLT
  5
90
102
{ACAD_REACTORS
330
C
102
}
330
C
100
AcDbDictionary
281
     1
  3
Normal
350
94
100
AcDbDictionaryWithDefault
340
94
  0
DICTIONARY
  5
91
102
{ACAD_REACTORS
330
C
102
}
330
C
100
AcDbDictionary
281
     1
  3
Model
350
95
  0
DICTIONARY
  5
92
102
{ACAD_REACTORS
330
C
102
}
330
C
100
AcDbDictionary
281
     1
  0
MLINESTYLE
  5
13
102
{ACAD_REACTORS
330
E
102
}
330
E
100
AcDbMlineStyle
  2
STANDARD
 70
     0
  3

 62
   256
 51
90.0
 52
90.0
 71
     2
 49
0.5
 62
   256
  6
BYLAYER
 49
-0.5
 62
   256
  6
BYLAYER
  0
DICTIONARYVAR
  5
93
102
{ACAD_REACTORS
330
8F
102
}
330
8F
100
DictionaryVariables
280
     0
  1
96
  0
ACDBPLACEHOLDER
  5
94
102
{ACAD_REACTORS
330
90
102
}
330
90
  0
LAYOUT
  5
95
102
{ACAD_REACTORS
330
91
102
}
330
91
100
AcDbPlotSettings
  1

  2

  4

  6

 40
0.0
 41
0.0
 42
0.0
 43
0.0
 44
0.0
 45
0.0
 46
0.0
 47
0.0
 48
0.0
 49
0.0
140
0.0
141
0.0
142
1.0
143
1.0
 70
  1712
 72
     0
 73
     0
 74
     0
  7

 75
     0
147
1.0
148
0.0
149
0.0
100
AcDbLayout
  1
Model
 70
     1
 71
     0
 10
0.0
 20
0.0
 11
297.0
 21
210.0
 12
0.0
 22
0.0
 32
0.0
 14
0.0
 24
0.0
 34
0.0
 15
0.0
 25
0.0
 35
0.0
146
0.0
 13
0.0
 23
0.0
 33
0.0
 16
1.0
 26
0.0
 36
0.0
 17
0.0
 27
1.0
 37
0.0
 76
     0
330
20
  0
ENDSEC
  0
EOF
