  0
SECTION
  2
HEADER
  9
$ACADVER
  1
AC1015
  9
$ACADMAINTVER
 70
     0
  9
$DWGCODEPAGE
  3
ANSI_932
  9
$INSBASE
 10
0.0
 20
0.0
 30
0.0
  9
$EXTMIN
 10
-128.0
 20
-93.0
  9
$EXTMAX
 10
128.0
 20
93.0
  9
$LIMMIN
 10
-128.0
 20
-93.0
  9
$LIMMAX
 10
128.0
 20
93.0
  9
$ORTHOMODE
 70
     0
  9
$REGENMODE
 70
     1
  9
$FILLMODE
 70
     1
  9
$QTEXTMODE
 70
     0
  9
$MIRRTEXT
 70
     1
  9
$LTSCALE
 40
1.0
  9
$OSMODE
 70
     0
  9
$ATTMODE
 70
     1
  9
$TEXTSIZE
 40
3.0
  9
$TRACEWID
 40
0.5
  9
$TEXTSTYLE
  7
STANDARD
  9
$CLAYER
  8
0
  9
$CELTYPE
  6
BYLAYER
  9
$CECOLOR
 62
   256
  9
$CELTSCALE
 40
1.0
  9
$DISPSILH
 70
     0
  9
$DIMSCALE
 40
1.0
  9
$DIMASZ
 40
3.0
  9
$DIMEXO
 40
1.0
  9
$DIMDLI
 40
5.0
  9
$DIMRND
 40
0.0
  9
$DIMDLE
 40
5.0
  9
$DIMEXE
 40
2.0
  9
$DIMTP
 40
0.0
  9
$DIMTM
 40
0.0
  9
$DIMTXT
 40
3.0
  9
$DIMCEN
 40
2.0
  9
$DIMTSZ
 40
0.0
  9
$DIMTOL
 70
     0
  9
$DIMLIM
 70
     0
  9
$DIMTIH
 70
     0
  9
$DIMTOH
 70
     0
  9
$DIMSE1
 70
     0
  9
$DIMSE2
 70
     0
  9
$DIMTAD
 70
     1
  9
$DIMZIN
 70
     8
  9
$DIMBLK
  1

  9
$DIMASO
 70
     1
  9
$DIMSHO
 70
     1
  9
$DIMPOST
  1

  9
$DIMAPOST
  1

  9
$DIMALT
 70
     0
  9
$DIMALTD
 70
     0
  9
$DIMALTF
 40
25.4
  9
$DIMLFAC
 40
1.0
  9
$DIMTOFL
 70
     1
  9
$DIMTVP
 40
1.0
  9
$DIMTIX
 70
     0
  9
$DIMSOXD
 70
     0
  9
$DIMSAH
 70
     0
  9
$DIMBLK1
  1

  9
$DIMBLK2
  1

  9
$DIMSTYLE
  2
ISO-25
  9
$DIMCLRD
 70
     0
  9
$DIMCLRE
 70
     0
  9
$DIMCLRT
 70
     0
  9
$DIMTFAC
 40
1.0
  9
$DIMGAP
 40
1.0
  9
$DIMJUST
 70
     0
  9
$DIMSD1
 70
     0
  9
$DIMSD2
 70
     0
  9
$DIMTOLJ
 70
     0
  9
$DIMTZIN
 70
     8
  9
$DIMALTZ
 70
     0
  9
$DIMALTTZ
 70
     0
  9
$DIMUPT
 70
     0
  9
$DIMDEC
 70
     2
  9
$DIMTDEC
 70
     2
  9
$DIMALTU
 70
     2
  9
$DIMALTTD
 70
     3
  9
$DIMTXSTY
  7
STANDARD
  9
$DIMAUNIT
 70
     0
  9
$DIMADEC
 70
     0
  9
$DIMALTRND
 40
0.0
  9
$DIMAZIN
 70
     0
  9
$DIMDSEP
 70
    46
  9
$DIMATFIT
 70
     3
  9
$DIMFRAC
 70
     0
  9
$DIMLDRBLK
  1

  9
$DIMLUNIT
 70
     2
  9
$DIMLWD
 70
    -2
  9
$DIMLWE
 70
    -2
  9
$DIMTMOVE
 70
     0
  9
$LUNITS
 70
     2
  9
$LUPREC
 70
     4
  9
$SKETCHINC
 40
1.0
  9
$FILLETRAD
 40
0.0
  9
$AUNITS
 70
     0
  9
$AUPREC
 70
     0
  9
$MENU
  1
.
  9
$ELEVATION
 40
0.0
  9
$PELEVATION
 40
0.0
  9
$THICKNESS
 40
0.0
  9
$LIMCHECK
 70
     0
  9
$CHAMFERA
 40
0.0
  9
$CHAMFERB
 40
0.0
  9
$CHAMFERC
 40
0.0
  9
$CHAMFERD
 40
0.0
  9
$SKPOLY
 70
     0
  9
$TDCREATE
 40
2454333.493148148
  9
$TDUCREATE
 40
2454333.493148148
  9
$TDUPDATE
 40
2454333.493148148
  9
$TDUUPDATE
 40
2454333.493148148
  9
$TDINDWG
 40
0.0
  9
$TDUSRTIMER
 40
0.0
  9
$USRTIMER
 70
     1
  9
$ANGBASE
 50
0.0
  9
$ANGDIR
 70
     0
  9
$PDMODE
 70
     0
  9
$PDSIZE
 40
0.0
  9
$PLINEWID
 40
0.0
  9
$SPLFRAME
 70
     0
  9
$SPLINETYPE
 70
     6
  9
$SPLINESEGS
 70
     8
  9
$HANDSEED
  5
13D
  9
$SURFTAB1
 70
     6
  9
$SURFTAB2
 70
     6
  9
$SURFTYPE
 70
     6
  9
$SURFU
 70
     6
  9
$SURFV
 70
     6
  9
$UCSBASE
  2

  9
$UCSNAME
  2

  9
$UCSORG
 10
0.0
 20
0.0
 30
0.0
  9
$UCSXDIR
 10
1.0
 20
0.0
 30
0.0
  9
$UCSYDIR
 10
0.0
 20
1.0
 30
0.0
  9
$UCSORTHOREF
  2

  9
$UCSORTHOVIEW
 70
     0
  9
$UCSORGTOP
 10
0.0
 20
0.0
 30
0.0
  9
$UCSORGBOTTOM
 10
0.0
 20
0.0
 30
0.0
  9
$UCSORGLEFT
 10
0.0
 20
0.0
 30
0.0
  9
$UCSORGRIGHT
 10
0.0
 20
0.0
 30
0.0
  9
$UCSORGFRONT
 10
0.0
 20
0.0
 30
0.0
  9
$UCSORGBACK
 10
0.0
 20
0.0
 30
0.0
  9
$PUCSBASE
  2

  9
$PUCSNAME
  2

  9
$PUCSORG
 10
0.0
 20
0.0
 30
0.0
  9
$PUCSXDIR
 10
1.0
 20
0.0
 30
0.0
  9
$PUCSYDIR
 10
0.0
 20
1.0
 30
0.0
  9
$PUCSORTHOREF
  2

  9
$PUCSORTHOVIEW
 70
     0
  9
$PUCSORGTOP
 10
0.0
 20
0.0
 30
0.0
  9
$PUCSORGBOTTOM
 10
0.0
 20
0.0
 30
0.0
  9
$PUCSORGLEFT
 10
0.0
 20
0.0
 30
0.0
  9
$PUCSORGRIGHT
 10
0.0
 20
0.0
 30
0.0
  9
$PUCSORGFRONT
 10
0.0
 20
0.0
 30
0.0
  9
$PUCSORGBACK
 10
0.0
 20
0.0
 30
0.0
  9
$USERI1
 70
     0
  9
$USERI2
 70
     0
  9
$USERI3
 70
     0
  9
$USERI4
 70
     0
  9
$USERI5
 70
     0
  9
$USERR1
 40
0.0
  9
$USERR2
 40
0.0
  9
$USERR3
 40
0.0
  9
$USERR4
 40
0.0
  9
$USERR5
 40
0.0
  9
$WORLDVIEW
 70
     1
  9
$SHADEDGE
 70
     3
  9
$SHADEDIF
 70
    70
  9
$MAXACTVP
 70
    16
  9
$PINSBASE
 10
0.0
 20
0.0
 30
0.0
  9
$PLIMCHECK
 70
     0
  9
$PEXTMIN
 10
1.000000E+20
 20
1.000000E+20
 30
1.000000E+20
  9
$PEXTMAX
 10
-1.000000E+20
 20
-1.000000E+20
 30
-1.000000E+20
  9
$PLIMMIN
 10
-128.0
 20
-93.0
  9
$PLIMMAX
 10
128.0
 20
93.0
  9
$UNITMODE
 70
     0
  9
$VISRETAIN
 70
     0
  9
$PLINEGEN
 70
     0
  9
$PSLTSCALE
 70
     0
  9
$TREEDEPTH
 70
  3020
  9
$CMLSTYLE
  2
STANDARD
  9
$CMLJUST
 70
     0
  9
$CMLSCALE
 40
1.0
  9
$PROXYGRAPHICS
 70
     1
  9
$MEASUREMENT
 70
     0
  9
$CELWEIGHT
370
    -3
  9
$ENDCAPS
280
     0
  9
$JOINSTYLE
280
     0
  9
$LWDISPLAY
290
     1
  9
$INSUNITS
 70
     0
  9
$HYPERLINKBASE
  1

  9
$STYLESHEET
  1

  9
$XEDIT
290
     1
  9
$CEPSNTYPE
380
     0
  9
$PSTYLEMODE
290
     1
  9
$FINGERPRINTGUID
  2
{6F25CFC2-5053-11D3-9BE9-00805F4AB38E}
  9
$VERSIONGUID
  2
{6F25CFC5-5053-11D3-9BE9-00805F4AB38E}
  9
$EXTNAMES
290
     1
  9
$PSVPSCALE
 40
0.0
  9
$OLESTARTUP
290
     0
  0
ENDSEC
  0
SECTION
  2
CLASSES
  0
CLASS
  1
LWPOLYLINE
  2
AcDbPolyline
  3
AutoCAD 2000
 90
    32768
280
     0
281
     1
  0
CLASS
  1
DICTIONARYVAR
  2
AcDbDictionaryVar
  3
AutoCAD 2000
 90
        0
280
     0
281
     1
  0
CLASS
  1
ACDBDICTIONARYWDFLT
  2
AcDbDictionaryWithDefault
  3
AutoCAD 2000
 90
        0
280
     0
281
     1
  0
CLASS
  1
ACDBPLACEHOLDER
  2
AcDbPlaceHolder
  3
AutoCAD 2000
 90
        0
280
     0
281
     1
  0
CLASS
  1
LAYOUT
  2
AcDbLayout
  3
AutoCAD 2000
 90
        0
280
     0
281
     1
  0
CLASS
  1
HATCH
  2
AcDbHatch
  3
AutoCAD 2000
 90
        0
280
     0
281
     1
  0
ENDSEC
  0
SECTION
  2
TABLES
  0
TABLE
  2
VPORT
  5
8
100
AcDbSymbolTable
 70
     1
  0
VPORT
  5
133
330
0
100
AcDbSymbolTableRecord
100
AcDbViewportTableRecord
  2
*ACTIVE
 70
     0
 10
0.0
 20
0.0
 11
1.0
 21
1.0
 12
0.0
 22
0.0
 13
0.0
 23
0.0
 14
0.0
 24
0.0
 15
0.0
 25
0.0
 16
0.0
 26
0.0
 36
1.0
 17
0.0
 27
0.0
 37
0.0
 40
186.0
 41
1.5
 42
50.0
 43
0.0
 44
0.0
 50
0.0
 51
0.0
 71
     0
 72
   100
 73
     1
 74
     1
 75
     0
 76
     0
 77
     0
 78
     0
281
     0
 65
     1
110
0.0
120
0.0
130
0.0
111
1.0
121
0.0
131
0.0
112
0.0
122
1.0
132
0.0
 79
     0
146
0.0
  0
ENDTAB
  0
TABLE
  2
LTYPE
  5
5
330
0
100
AcDbSymbolTable
 70
    20
  0
LTYPE
  5
134
330
5
100
AcDbSymbolTableRecord
100
AcDbLinetypeTableRecord
  2
BYBLOCK
 70
     0
  3

 72
    65
 73
     0
 40
0.0
  0
LTYPE
  5
135
330
5
100
AcDbSymbolTableRecord
100
AcDbLinetypeTableRecord
  2
BYLAYER
 70
     0
  3

 72
    65
 73
     0
 40
0.0
  0
LTYPE
  5
136
330
5
100
AcDbSymbolTableRecord
100
AcDbLinetypeTableRecord
  2
CONTINUOUS
 70
    64
  3
solid line
 72
    65
 73
     0
 40
0.0
  0
LTYPE
  5
137
330
0
100
AcDbSymbolTableRecord
100
AcDbLinetypeTableRecord
  2
CENTER
 70
    64
  3
--- - --- - --- - --- - --- - 
 72
    65
 73
     4
 40
12.0
 49
6.0
 74
     0
 49
-2.0
 74
     0
 49
2.0
 74
     0
 49
-2.0
 74
     0
  0
ENDTAB
  0
TABLE
  2
LAYER
  5
2
330
0
100
AcDbSymbolTable
 70
    20
  0
LAYER
  5
138
330
2
100
AcDbSymbolTableRecord
100
AcDbLayerTableRecord
  2
0
 70
    64
 62
     7
  6
CONTINUOUS
370
    -3
390
12F
  0
LAYER
  5
25
330
2
100
AcDbSymbolTableRecord
100
AcDbLayerTableRecord
  2
100
 70
    64
 62
     7
  6
CONTINUOUS
370
    -3
390
12F
  0
LAYER
  5
103
330
2
100
AcDbSymbolTableRecord
100
AcDbLayerTableRecord
  2
10
 70
    64
 62
     7
  6
CONTINUOUS
370
    -3
390
12F
  0
ENDTAB
  0
TABLE
  2
STYLE
  5
3
330
0
100
AcDbSymbolTable
 70
     4
  0
STYLE
  5
139
330
3
100
AcDbSymbolTableRecord
100
AcDbTextStyleTableRecord
  2
STANDARD
 70
    64
 40
0.0
 41
1.052631578947368
 50
0.0
 71
     0
 42
6.0
  3
monotxt
  4

  0
ENDTAB
  0
TABLE
  2
VIEW
  5
6
330
0
100
AcDbSymbolTable
 70
     0
  0
ENDTAB
  0
TABLE
  2
UCS
  5
7
330
0
100
AcDbSymbolTable
 70
     0
  0
ENDTAB
  0
TABLE
  2
APPID
  5
9
330
0
100
AcDbSymbolTable
 70
     1
  0
APPID
  5
13A
330
9
100
AcDbSymbolTableRecord
100
AcDbRegAppTableRecord
  2
ACAD
 70
     0
  0
ENDTAB
  0
TABLE
  2
DIMSTYLE
  5
A
330
0
100
AcDbSymbolTable
 70
     8
100
AcDbDimStyleTable
 71
     0
  0
DIMSTYLE
105
13B
330
A
100
AcDbSymbolTableRecord
100
AcDbDimStyleTableRecord
  2
ISO-25
 70
     0
  3

  4

  5

  6

  7

 40
1.0
 41
3.0
 42
1.0
 43
5.0
 44
2.0
 45
0.0
 46
5.0
 47
0.0
 48
0.0
140
3.0
141
2.0
142
0.0
143
25.4
144
1.0
145
1.0
146
1.0
147
1.0
 71
     0
 72
     0
 73
     0
 74
     0
 75
     0
 76
     0
 77
     1
 78
     8
170
     0
171
     0
172
     1
173
     0
174
     0
175
     0
176
     0
177
     0
178
     0
270
     0
271
     2
272
     2
273
     2
274
     3
340
139
275
     0
277
     2
280
     0
281
     0
282
     0
283
     0
284
     8
285
     0
286
     0
287
     3
288
     0
  0
DIMSTYLE
105
13C
330
A
100
AcDbSymbolTableRecord
100
AcDbDimStyleTableRecord
  2
ISO-25 0.5
 70
     0
  3

  4

  5

  6

  7

 40
1.0
 41
3.0
 42
1.0
 43
5.0
 44
2.0
 45
0.0
 46
5.0
 47
0.0
 48
0.0
140
3.0
141
2.0
142
0.0
143
25.4
144
2.0
145
1.0
146
1.0
147
1.0
 71
     0
 72
     0
 73
     0
 74
     0
 75
     0
 76
     0
 77
     1
 78
     8
170
     0
171
     0
172
     1
173
     0
174
     0
175
     0
176
     0
177
     0
178
     0
270
     0
271
     2
272
     2
273
     2
274
     3
340
139
275
     0
277
     2
280
     0
281
     0
282
     0
283
     0
284
     8
285
     0
286
     0
287
     3
288
     0
  0
ENDTAB
  0
TABLE
  2
BLOCK_RECORD
  5
1
330
0
100
AcDbSymbolTable
 70
     2
  0
BLOCK_RECORD
  5
20
330
1
100
AcDbSymbolTableRecord
100
AcDbBlockTableRecord
  2
*MODEL_SPACE
340
130
  0
BLOCK_RECORD
  5
22
330
1
100
AcDbSymbolTableRecord
100
AcDbBlockTableRecord
  2
*PAPER_SPACE
340
0
  0
ENDTAB
  0
ENDSEC
  0
SECTION
  2
BLOCKS
  0
BLOCK
  5
21
330
20
100
AcDbEntity
  8
0
100
AcDbBlockBegin
  2
*MODEL_SPACE
 70
     0
 10
0.0
 20
0.0
 30
0.0
  3
*MODEL_SPACE
  1

  0
ENDBLK
  5
131
330
20
100
AcDbEntity
  8
0
100
AcDbBlockEnd
  0
BLOCK
  5
23
330
22
100
AcDbEntity
 67
     1
  8
0
100
AcDbBlockBegin
  2
*PAPER_SPACE
 70
     0
 10
0.0
 20
0.0
 30
0.0
  3
*PAPER_SPACE
  1

  0
ENDBLK
  5
132
330
22
100
AcDbEntity
 67
     1
  8
0
100
AcDbBlockEnd
  0
ENDSEC
  0
SECTION
  2
ENTITIES
  0
LINE
  5
24
330
20
100
AcDbEntity
  8
100
  6
CONTINUOUS
100
AcDbLine
 10
-65.0
 20
30.0
 11
-65.0
 21
-30.0
  0
LINE
  5
26
330
20
100
AcDbEntity
  8
100
  6
CONTINUOUS
100
AcDbLine
 10
65.0
 20
30.0
 11
65.0
 21
-30.0
  0
LINE
  5
27
330
20
100
AcDbEntity
  8
100
  6
CONTINUOUS
100
AcDbLine
 10
-65.0
 20
35.0
 11
-65.0
 21
-35.0
  0
LINE
  5
28
330
20
100
AcDbEntity
  8
100
  6
CONTINUOUS
100
AcDbLine
 10
65.0
 20
35.0
 11
65.0
 21
-35.0
  0
LINE
  5
29
330
20
100
AcDbEntity
  8
100
  6
CONTINUOUS
100
AcDbLine
 10
-64.0
 20
-33.0
 11
64.0
 21
-33.0
  0
LINE
  5
2A
330
20
100
AcDbEntity
  8
100
  6
CONTINUOUS
100
AcDbLine
 10
-64.0
 20
33.0
 11
-64.0
 21
-33.0
  0
ARC
  5
2B
330
20
100
AcDbEntity
  8
100
  6
CONTINUOUS
100
AcDbCircle
 10
33.0
 20
-35.0
 40
2.0
100
AcDbArc
 50
0.0
 51
90.0
  0
ARC
  5
2C
330
20
100
AcDbEntity
  8
100
  6
CONTINUOUS
100
AcDbCircle
 10
33.0
 20
35.0
 40
2.0
100
AcDbArc
 50
270.0
 51
0.0
  0
ARC
  5
2D
330
20
100
AcDbEntity
  8
100
  6
CONTINUOUS
100
AcDbCircle
 10
-33.0
 20
35.0
 40
2.0
100
AcDbArc
 50
180.0
 51
270.0
  0
ARC
  5
2E
330
20
100
AcDbEntity
  8
100
  6
CONTINUOUS
100
AcDbCircle
 10
-33.0
 20
-35.0
 40
2.0
100
AcDbArc
 50
90.0
 51
180.0
  0
LINE
  5
2F
330
20
100
AcDbEntity
  8
100
  6
CONTINUOUS
100
AcDbLine
 10
33.0
 20
33.0
 11
64.0
 21
33.0
  0
LINE
  5
30
330
20
100
AcDbEntity
  8
100
  6
CONTINUOUS
100
AcDbLine
 10
-64.0
 20
33.0
 11
-33.0
 21
33.0
  0
LINE
  5
31
330
20
100
AcDbEntity
  8
100
  6
CONTINUOUS
100
AcDbLine
 10
-33.0
 20
33.0
 11
33.0
 21
33.0
  0
LINE
  5
32
330
20
100
AcDbEntity
  8
100
  6
CONTINUOUS
100
AcDbLine
 10
-65.0
 20
-35.0
 11
-35.0
 21
-35.0
  0
LINE
  5
33
330
20
100
AcDbEntity
  8
100
  6
CONTINUOUS
100
AcDbLine
 10
35.0
 20
-35.0
 11
65.0
 21
-35.0
  0
LINE
  5
34
330
20
100
AcDbEntity
  8
100
  6
CONTINUOUS
100
AcDbLine
 10
35.0
 20
35.0
 11
65.0
 21
35.0
  0
LINE
  5
35
330
20
100
AcDbEntity
  8
100
  6
CONTINUOUS
100
AcDbLine
 10
-65.0
 20
35.0
 11
-35.0
 21
35.0
  0
CIRCLE
  5
36
330
20
100
AcDbEntity
  8
100
  6
CONTINUOUS
100
AcDbCircle
 10
51.59999999999999
 20
0.0
 40
2.0
  0
LINE
  5
37
330
20
100
AcDbEntity
  8
100
  6
CONTINUOUS
100
AcDbLine
 10
64.0
 20
33.0
 11
64.0
 21
3.0
  0
LINE
  5
38
330
20
100
AcDbEntity
  8
100
  6
CONTINUOUS
100
AcDbLine
 10
64.0
 20
-3.0
 11
64.0
 21
-33.0
  0
LINE
  5
39
330
20
100
AcDbEntity
  8
100
  6
CONTINUOUS
100
AcDbLine
 10
51.59999999999999
 20
3.0
 11
64.0
 21
3.0
  0
LINE
  5
3A
330
20
100
AcDbEntity
  8
100
  6
CONTINUOUS
100
AcDbLine
 10
51.59999999999999
 20
-3.0
 11
64.0
 21
-3.0
  0
LINE
  5
3B
330
20
100
AcDbEntity
  8
100
  6
CONTINUOUS
100
AcDbLine
 10
106.0
 20
35.0
 11
106.0
 21
-35.0
  0
LINE
  5
3C
330
20
100
AcDbEntity
  8
100
  6
CONTINUOUS
100
AcDbLine
 10
124.0
 20
35.0
 11
124.0
 21
-35.0
  0
LINE
  5
3D
330
20
100
AcDbEntity
  8
100
  6
CONTINUOUS
100
AcDbLine
 10
128.0
 20
33.0
 11
128.0
 21
-33.0
  0
LINE
  5
3E
330
20
100
AcDbEntity
  8
100
  6
CONTINUOUS
100
AcDbLine
 10
102.0
 20
33.0
 11
106.0
 21
33.0
  0
LINE
  5
3F
330
20
100
AcDbEntity
  8
100
  6
CONTINUOUS
100
AcDbLine
 10
124.0
 20
33.0
 11
128.0
 21
33.0
  0
LINE
  5
40
330
20
100
AcDbEntity
  8
100
  6
CONTINUOUS
100
AcDbLine
 10
102.0
 20
-33.0
 11
106.0
 21
-33.0
  0
LINE
  5
41
330
20
100
AcDbEntity
  8
100
  6
CONTINUOUS
100
AcDbLine
 10
124.0
 20
-33.0
 11
128.0
 21
-33.0
  0
LINE
  5
42
330
20
100
AcDbEntity
  8
100
  6
CONTINUOUS
100
AcDbLine
 10
91.99999999999994
 20
2.0
 11
102.0
 21
2.0
  0
LINE
  5
43
330
20
100
AcDbEntity
  8
100
  6
CONTINUOUS
100
AcDbLine
 10
102.0
 20
2.0
 11
106.0
 21
2.0
  0
LINE
  5
44
330
20
100
AcDbEntity
  8
100
  6
CONTINUOUS
100
AcDbLine
 10
91.99999999999994
 20
-2.0
 11
102.0
 21
-2.0
  0
LINE
  5
45
330
20
100
AcDbEntity
  8
100
  6
CONTINUOUS
100
AcDbLine
 10
102.0
 20
-2.0
 11
106.0
 21
-2.0
  0
LINE
  5
46
330
20
100
AcDbEntity
  8
100
  6
CONTINUOUS
100
AcDbLine
 10
102.0
 20
33.0
 11
102.0
 21
2.0
  0
LINE
  5
47
330
20
100
AcDbEntity
  8
100
  6
CONTINUOUS
100
AcDbLine
 10
102.0
 20
-2.0
 11
102.0
 21
-33.0
  0
POLYLINE
  5
48
330
20
100
AcDbEntity
  8
100
  6
CONTINUOUS
100
AcDb2dPolyline
 66
     1
 10
0.0
 20
0.0
 70
     0
 40
0.0
 41
0.0
  0
VERTEX
  5
49
330
20
100
AcDbEntity
  8
100
100
AcDbVertex
100
AcDb2dVertex
 10
92.0
 20
2.000000000000036
  0
VERTEX
  5
4A
330
20
100
AcDbEntity
  8
100
100
AcDbVertex
100
AcDb2dVertex
 10
91.57325875229807
 20
1.699478359431669
  0
VERTEX
  5
4B
330
20
100
AcDbEntity
  8
100
100
AcDbVertex
100
AcDb2dVertex
 10
91.27530423735885
 20
1.442089378747389
  0
VERTEX
  5
4C
330
20
100
AcDbEntity
  8
100
100
AcDbVertex
100
AcDb2dVertex
 10
91.08275357633013
 20
1.207833891012486
  0
VERTEX
  5
4D
330
20
100
AcDbEntity
  8
100
100
AcDbVertex
100
AcDb2dVertex
 10
91.0
 20
0.9999999999999762
  0
VERTEX
  5
4E
330
20
100
AcDbEntity
  8
100
100
AcDbVertex
100
AcDb2dVertex
 10
91.03417662674357
 20
0.7828052100571606
  0
VERTEX
  5
4F
330
20
100
AcDbEntity
  8
100
100
AcDbVertex
100
AcDb2dVertex
 10
91.19981278480736
 20
0.5570923650075257
  0
VERTEX
  5
50
330
20
100
AcDbEntity
  8
100
100
AcDbVertex
100
AcDb2dVertex
 10
91.49512670565304
 20
0.3177387914229851
  0
VERTEX
  5
51
330
20
100
AcDbEntity
  8
100
100
AcDbVertex
100
AcDb2dVertex
 10
92.0
 20
-1.211993468549129E-014
  0
VERTEX
  5
52
330
20
100
AcDbEntity
  8
100
100
AcDbVertex
100
AcDb2dVertex
 10
92.50487329434698
 20
-0.3177387914230292
  0
VERTEX
  5
53
330
20
100
AcDbEntity
  8
100
100
AcDbVertex
100
AcDb2dVertex
 10
92.80018721519262
 20
-0.5570923650075533
  0
VERTEX
  5
54
330
20
100
AcDbEntity
  8
100
100
AcDbVertex
100
AcDb2dVertex
 10
92.96582337325641
 20
-0.7828052100571846
  0
VERTEX
  5
55
330
20
100
AcDbEntity
  8
100
100
AcDbVertex
100
AcDb2dVertex
 10
93.0
 20
-1.000000000000015
  0
VERTEX
  5
56
330
20
100
AcDbEntity
  8
100
100
AcDbVertex
100
AcDb2dVertex
 10
92.91724642366981
 20
-1.207833891012612
  0
VERTEX
  5
57
330
20
100
AcDbEntity
  8
100
100
AcDbVertex
100
AcDb2dVertex
 10
92.72469576264101
 20
-1.442089378747595
  0
VERTEX
  5
58
330
20
100
AcDbEntity
  8
100
100
AcDbVertex
100
AcDb2dVertex
 10
92.42674124770161
 20
-1.699478359431977
  0
VERTEX
  5
59
330
20
100
AcDbEntity
  8
100
100
AcDbVertex
100
AcDb2dVertex
 10
91.99999999999997
 20
-2.0
  0
SEQEND
  5
5A
330
20
100
AcDbEntity
  8
100
  0
SPLINE
  5
5B
330
20
100
AcDbEntity
  8
100
  6
CONTINUOUS
100
AcDbSpline
210
0.0
220
0.0
230
1.0
 70
     8
 71
     3
 72
     9
 73
     5
 74
     0
 42
1.000000000000000E-007
 43
1.000000000000000E-007
 40
0.0
 40
0.0
 40
0.0
 40
0.0
 40
1.463639032060584
 40
2.927278064121203
 40
2.927278064121203
 40
2.927278064121203
 40
2.927278064121203
 10
91.99999999999994
 20
0.0
 30
0.0
 10
91.66666666666663
 20
-0.1999999999998749
 30
0.0
 10
90.33333333333337
 20
-1.0
 30
0.0
 10
91.66666666666663
 20
-1.799999999999969
 30
0.0
 10
91.99999999999994
 20
-2.0
 30
0.0
  0
LINE
  5
5C
330
20
100
AcDbEntity
  8
100
  6
CONTINUOUS
100
AcDbLine
 10
102.0
 20
3.0
 11
106.0
 21
3.0
  0
LINE
  5
5D
330
20
100
AcDbEntity
  8
100
  6
CONTINUOUS
100
AcDbLine
 10
102.0
 20
-3.0
 11
106.0
 21
-3.0
  0
LINE
  5
5E
330
20
100
AcDbEntity
  8
100
  6
CONTINUOUS
100
AcDbLine
 10
-124.0
 20
35.0
 11
-124.0
 21
-35.0
  0
LINE
  5
5F
330
20
100
AcDbEntity
  8
100
  6
CONTINUOUS
100
AcDbLine
 10
-106.0
 20
35.0
 11
-106.0
 21
-35.0
  0
LINE
  5
60
330
20
100
AcDbEntity
  8
100
  6
CONTINUOUS
100
AcDbLine
 10
-128.0
 20
33.0
 11
-128.0
 21
-33.0
  0
LINE
  5
61
330
20
100
AcDbEntity
  8
100
  6
CONTINUOUS
100
AcDbLine
 10
-102.0
 20
33.0
 11
-102.0
 21
-33.0
  0
LINE
  5
62
330
20
100
AcDbEntity
  8
100
  6
CONTINUOUS
100
AcDbLine
 10
-128.0
 20
33.0
 11
-124.0
 21
33.0
  0
LINE
  5
63
330
20
100
AcDbEntity
  8
100
  6
CONTINUOUS
100
AcDbLine
 10
-106.0
 20
33.0
 11
-102.0
 21
33.0
  0
LINE
  5
64
330
20
100
AcDbEntity
  8
100
  6
CONTINUOUS
100
AcDbLine
 10
-106.0
 20
-33.0
 11
-102.0
 21
-33.0
  0
LINE
  5
65
330
20
100
AcDbEntity
  8
100
  6
CONTINUOUS
100
AcDbLine
 10
-128.0
 20
-33.0
 11
-124.0
 21
-33.0
  0
LINE
  5
66
330
20
100
AcDbEntity
  8
100
  6
CONTINUOUS
100
AcDbLine
 10
-106.0
 20
30.0
 11
-104.0
 21
30.0
  0
LINE
  5
67
330
20
100
AcDbEntity
  8
100
  6
CONTINUOUS
100
AcDbLine
 10
-126.0
 20
30.0
 11
-124.0
 21
30.0
  0
LINE
  5
68
330
20
100
AcDbEntity
  8
100
  6
CONTINUOUS
100
AcDbLine
 10
-126.0
 20
-30.0
 11
-124.0
 21
-30.0
  0
LINE
  5
69
330
20
100
AcDbEntity
  8
100
  6
CONTINUOUS
100
AcDbLine
 10
-106.0
 20
-30.0
 11
-104.0
 21
-30.0
  0
LINE
  5
6A
330
20
100
AcDbEntity
  8
100
  6
CONTINUOUS
100
AcDbLine
 10
-106.0
 20
5.0
 11
-104.0
 21
5.0
  0
LINE
  5
6B
330
20
100
AcDbEntity
  8
100
  6
CONTINUOUS
100
AcDbLine
 10
-126.0
 20
5.0
 11
-124.0
 21
5.0
  0
LINE
  5
6C
330
20
100
AcDbEntity
  8
100
  6
CONTINUOUS
100
AcDbLine
 10
-126.0
 20
-5.0
 11
-124.0
 21
-5.0
  0
LINE
  5
6D
330
20
100
AcDbEntity
  8
100
  6
CONTINUOUS
100
AcDbLine
 10
-106.0
 20
-5.0
 11
-104.0
 21
-5.0
  0
LINE
  5
6E
330
20
100
AcDbEntity
  8
100
  6
CONTINUOUS
100
AcDbLine
 10
-106.0
 20
-22.0
 11
-104.0
 21
-22.0
  0
LINE
  5
6F
330
20
100
AcDbEntity
  8
100
  6
CONTINUOUS
100
AcDbLine
 10
-106.0
 20
-14.0
 11
-104.0
 21
-14.0
  0
LINE
  5
70
330
20
100
AcDbEntity
  8
100
  6
CONTINUOUS
100
AcDbLine
 10
-106.0
 20
22.0
 11
-104.0
 21
22.0
  0
LINE
  5
71
330
20
100
AcDbEntity
  8
100
  6
CONTINUOUS
100
AcDbLine
 10
-106.0
 20
14.0
 11
-104.0
 21
14.0
  0
LINE
  5
72
330
20
100
AcDbEntity
  8
100
  6
CONTINUOUS
100
AcDbLine
 10
-126.0
 20
22.0
 11
-124.0
 21
22.0
  0
LINE
  5
73
330
20
100
AcDbEntity
  8
100
  6
CONTINUOUS
100
AcDbLine
 10
-126.0
 20
14.0
 11
-124.0
 21
14.0
  0
LINE
  5
74
330
20
100
AcDbEntity
  8
100
  6
CONTINUOUS
100
AcDbLine
 10
-126.0
 20
-22.0
 11
-124.0
 21
-22.0
  0
LINE
  5
75
330
20
100
AcDbEntity
  8
100
  6
CONTINUOUS
100
AcDbLine
 10
-126.0
 20
-14.0
 11
-124.0
 21
-14.0
  0
LINE
  5
76
330
20
100
AcDbEntity
  8
100
  6
CONTINUOUS
100
AcDbLine
 10
-104.0
 20
33.0
 11
-104.0
 21
-33.0
  0
LINE
  5
77
330
20
100
AcDbEntity
  8
100
  6
CONTINUOUS
100
AcDbLine
 10
-126.0
 20
33.0
 11
-126.0
 21
-33.0
  0
LINE
  5
78
330
20
100
AcDbEntity
  8
100
  6
CONTINUOUS
100
AcDbLine
 10
-92.0
 20
2.0
 11
-102.0
 21
2.0
  0
LINE
  5
79
330
20
100
AcDbEntity
  8
100
  6
CONTINUOUS
100
AcDbLine
 10
-92.0
 20
-2.0
 11
-102.0
 21
-2.0
  0
POLYLINE
  5
7A
330
20
100
AcDbEntity
  8
100
  6
CONTINUOUS
100
AcDb2dPolyline
 66
     1
 10
0.0
 20
0.0
 70
     0
 40
0.0
 41
0.0
  0
VERTEX
  5
7B
330
20
100
AcDbEntity
  8
100
100
AcDbVertex
100
AcDb2dVertex
 10
-92.0
 20
2.000000000000036
  0
VERTEX
  5
7C
330
20
100
AcDbEntity
  8
100
100
AcDbVertex
100
AcDb2dVertex
 10
-92.42674124770193
 20
1.699478359431669
  0
VERTEX
  5
7D
330
20
100
AcDbEntity
  8
100
100
AcDbVertex
100
AcDb2dVertex
 10
-92.72469576264115
 20
1.442089378747389
  0
VERTEX
  5
7E
330
20
100
AcDbEntity
  8
100
100
AcDbVertex
100
AcDb2dVertex
 10
-92.91724642366987
 20
1.207833891012486
  0
VERTEX
  5
7F
330
20
100
AcDbEntity
  8
100
100
AcDbVertex
100
AcDb2dVertex
 10
-93.0
 20
0.9999999999999762
  0
VERTEX
  5
80
330
20
100
AcDbEntity
  8
100
100
AcDbVertex
100
AcDb2dVertex
 10
-92.96582337325643
 20
0.7828052100571626
  0
VERTEX
  5
81
330
20
100
AcDbEntity
  8
100
100
AcDbVertex
100
AcDb2dVertex
 10
-92.80018721519264
 20
0.5570923650075317
  0
VERTEX
  5
82
330
20
100
AcDbEntity
  8
100
100
AcDbVertex
100
AcDb2dVertex
 10
-92.50487329434698
 20
0.3177387914229961
  0
VERTEX
  5
83
330
20
100
AcDbEntity
  8
100
100
AcDbVertex
100
AcDb2dVertex
 10
-92.0
 20
-1.211993468549129E-014
  0
VERTEX
  5
84
330
20
100
AcDbEntity
  8
100
100
AcDbVertex
100
AcDb2dVertex
 10
-91.49512670565301
 20
-0.317738791423032
  0
VERTEX
  5
85
330
20
100
AcDbEntity
  8
100
100
AcDbVertex
100
AcDb2dVertex
 10
-91.19981278480736
 20
-0.5570923650075533
  0
VERTEX
  5
86
330
20
100
AcDbEntity
  8
100
100
AcDbVertex
100
AcDb2dVertex
 10
-91.03417662674357
 20
-0.7828052100571827
  0
VERTEX
  5
87
330
20
100
AcDbEntity
  8
100
100
AcDbVertex
100
AcDb2dVertex
 10
-91.0
 20
-1.000000000000015
  0
VERTEX
  5
88
330
20
100
AcDbEntity
  8
100
100
AcDbVertex
100
AcDb2dVertex
 10
-91.08275357633016
 20
-1.207833891012605
  0
VERTEX
  5
89
330
20
100
AcDbEntity
  8
100
100
AcDbVertex
100
AcDb2dVertex
 10
-91.27530423735897
 20
-1.442089378747595
  0
VERTEX
  5
8A
330
20
100
AcDbEntity
  8
100
100
AcDbVertex
100
AcDb2dVertex
 10
-91.57325875229837
 20
-1.699478359431989
  0
VERTEX
  5
8B
330
20
100
AcDbEntity
  8
100
100
AcDbVertex
100
AcDb2dVertex
 10
-92.0
 20
-2.0
  0
SEQEND
  5
8C
330
20
100
AcDbEntity
  8
100
  0
SPLINE
  5
8D
330
20
100
AcDbEntity
  8
100
  6
CONTINUOUS
100
AcDbSpline
210
0.0
220
0.0
230
1.0
 70
     8
 71
     3
 72
     9
 73
     5
 74
     0
 42
1.000000000000000E-007
 43
1.000000000000000E-007
 40
0.0
 40
0.0
 40
0.0
 40
0.0
 40
1.463639032060639
 40
2.927278064121309
 40
2.927278064121309
 40
2.927278064121309
 40
2.927278064121309
 10
-92.0
 20
2.0
 30
0.0
 10
-91.66666666666664
 20
1.800000000000125
 30
0.0
 10
-90.33333333333333
 20
1.000000000000004
 30
0.0
 10
-91.66666666666666
 20
0.2000000000000313
 30
0.0
 10
-92.0
 20
0.0
 30
0.0
  0
LINE
  5
8E
330
20
100
AcDbEntity
  8
100
  6
CONTINUOUS
100
AcDbLine
 10
-65.0
 20
71.0
 11
-65.0
 21
89.0
  0
LINE
  5
8F
330
20
100
AcDbEntity
  8
100
  6
CONTINUOUS
100
AcDbLine
 10
65.0
 20
71.0
 11
65.0
 21
89.0
  0
LINE
  5
90
330
20
100
AcDbEntity
  8
100
  6
CONTINUOUS
100
AcDbLine
 10
-65.0
 20
89.0
 11
65.0
 21
89.0
  0
LINE
  5
91
330
20
100
AcDbEntity
  8
100
  6
CONTINUOUS
100
AcDbLine
 10
-65.0
 20
71.0
 11
65.0
 21
71.0
  0
LINE
  5
92
330
20
100
AcDbEntity
  8
100
  6
CONTINUOUS
100
AcDbLine
 10
-64.0
 20
91.0
 11
35.0
 21
91.0
  0
LINE
  5
93
330
20
100
AcDbEntity
  8
100
  6
CONTINUOUS
100
AcDbLine
 10
-64.0
 20
69.0
 11
35.0
 21
69.0
  0
LINE
  5
94
330
20
100
AcDbEntity
  8
100
  6
CONTINUOUS
100
AcDbLine
 10
-64.0
 20
93.0
 11
63.9271464966557
 21
93.0
  0
LINE
  5
95
330
20
100
AcDbEntity
  8
100
  6
CONTINUOUS
100
AcDbLine
 10
-64.0
 20
67.0
 11
63.9271464966557
 21
67.0
  0
LINE
  5
96
330
20
100
AcDbEntity
  8
100
  6
CONTINUOUS
100
AcDbLine
 10
-64.0
 20
93.0
 11
-64.0
 21
91.0
  0
LINE
  5
97
330
20
100
AcDbEntity
  8
100
  6
CONTINUOUS
100
AcDbLine
 10
-64.0
 20
69.0
 11
-64.0
 21
67.0
  0
LINE
  5
98
330
20
100
AcDbEntity
  8
100
  6
CONTINUOUS
100
AcDbLine
 10
63.9271464966557
 20
89.0
 11
63.9271464966557
 21
93.0
  0
LINE
  5
99
330
20
100
AcDbEntity
  8
100
  6
CONTINUOUS
100
AcDbLine
 10
63.9271464966557
 20
67.0
 11
63.9271464966557
 21
71.0
  0
LINE
  5
9A
330
20
100
AcDbEntity
  8
100
  6
CONTINUOUS
100
AcDbLine
 10
35.0
 20
69.0
 11
35.0
 21
71.0
  0
LINE
  5
9B
330
20
100
AcDbEntity
  8
100
  6
CONTINUOUS
100
AcDbLine
 10
35.0
 20
89.0
 11
35.0
 21
91.0
  0
LINE
  5
9C
330
20
100
AcDbEntity
  8
100
  6
CONTINUOUS
100
AcDbLine
 10
28.0
 20
71.0
 11
28.0
 21
89.0
  0
LINE
  5
9D
330
20
100
AcDbEntity
  8
100
  6
CONTINUOUS
100
AcDbLine
 10
12.0
 20
71.0
 11
12.0
 21
89.0
  0
LINE
  5
9E
330
20
100
AcDbEntity
  8
100
  6
CONTINUOUS
100
AcDbLine
 10
-12.0
 20
71.0
 11
-12.0
 21
89.0
  0
LINE
  5
9F
330
20
100
AcDbEntity
  8
100
  6
CONTINUOUS
100
AcDbLine
 10
-28.0
 20
71.0
 11
-28.0
 21
89.0
  0
LINE
  5
A0
330
20
100
AcDbEntity
  8
100
  6
CONTINUOUS
100
AcDbLine
 10
49.52714649665569
 20
57.0
 11
49.52714649665569
 21
67.0
  0
LINE
  5
A1
330
20
100
AcDbEntity
  8
100
  6
CONTINUOUS
100
AcDbLine
 10
53.52714649665569
 20
57.0
 11
53.52714649665569
 21
67.0
  0
LINE
  5
A2
330
20
100
AcDbEntity
  8
100
  6
CONTINUOUS
100
AcDbLine
 10
-65.0
 20
-71.0
 11
-65.0
 21
-89.0
  0
LINE
  5
A3
330
20
100
AcDbEntity
  8
100
  6
CONTINUOUS
100
AcDbLine
 10
65.0
 20
-71.0
 11
65.0
 21
-89.0
  0
LINE
  5
A4
330
20
100
AcDbEntity
  8
100
  6
CONTINUOUS
100
AcDbLine
 10
-64.0
 20
-67.0
 11
64.0
 21
-67.0
  0
LINE
  5
A5
330
20
100
AcDbEntity
  8
100
  6
CONTINUOUS
100
AcDbLine
 10
-64.0
 20
-93.0
 11
64.0
 21
-93.0
  0
LINE
  5
A6
330
20
100
AcDbEntity
  8
100
  6
CONTINUOUS
100
AcDbLine
 10
-64.0
 20
-67.0
 11
-64.0
 21
-69.0
  0
LINE
  5
A7
330
20
100
AcDbEntity
  8
100
  6
CONTINUOUS
100
AcDbLine
 10
-64.0
 20
-91.0
 11
-64.0
 21
-93.0
  0
LINE
  5
A8
330
20
100
AcDbEntity
  8
100
  6
CONTINUOUS
100
AcDbLine
 10
64.0
 20
-71.0
 11
64.0
 21
-67.0
  0
LINE
  5
A9
330
20
100
AcDbEntity
  8
100
  6
CONTINUOUS
100
AcDbLine
 10
64.0
 20
-93.0
 11
64.0
 21
-89.0
  0
LINE
  5
AA
330
20
100
AcDbEntity
  8
100
  6
CONTINUOUS
100
AcDbLine
 10
-65.0
 20
-71.0
 11
65.0
 21
-71.0
  0
LINE
  5
AB
330
20
100
AcDbEntity
  8
100
  6
CONTINUOUS
100
AcDbLine
 10
64.0
 20
-71.0
 11
65.0
 21
-71.0
  0
LINE
  5
AC
330
20
100
AcDbEntity
  8
100
  6
CONTINUOUS
100
AcDbLine
 10
-65.0
 20
-89.0
 11
65.0
 21
-89.0
  0
LINE
  5
AD
330
20
100
AcDbEntity
  8
100
  6
CONTINUOUS
100
AcDbLine
 10
64.0
 20
-89.0
 11
65.0
 21
-89.0
  0
LINE
  5
AE
330
20
100
AcDbEntity
  8
100
  6
CONTINUOUS
100
AcDbLine
 10
28.0
 20
-89.0
 11
28.0
 21
-71.0
  0
LINE
  5
AF
330
20
100
AcDbEntity
  8
100
  6
CONTINUOUS
100
AcDbLine
 10
12.0
 20
-89.0
 11
12.0
 21
-71.0
  0
LINE
  5
B0
330
20
100
AcDbEntity
  8
100
  6
CONTINUOUS
100
AcDbLine
 10
-28.0
 20
-89.0
 11
-28.0
 21
-71.0
  0
LINE
  5
B1
330
20
100
AcDbEntity
  8
100
  6
CONTINUOUS
100
AcDbLine
 10
-12.0
 20
-89.0
 11
-12.0
 21
-71.0
  0
LINE
  5
B2
330
20
100
AcDbEntity
  8
100
  6
CONTINUOUS
100
AcDbLine
 10
35.0
 20
-71.0
 11
35.0
 21
-69.0
  0
LINE
  5
B3
330
20
100
AcDbEntity
  8
100
  6
CONTINUOUS
100
AcDbLine
 10
35.0
 20
-91.0
 11
35.0
 21
-89.0
  0
LINE
  5
B4
330
20
100
AcDbEntity
  8
100
  6
CONTINUOUS
100
AcDbLine
 10
-64.0
 20
-69.0
 11
35.0
 21
-69.0
  0
LINE
  5
B5
330
20
100
AcDbEntity
  8
100
  6
CONTINUOUS
100
AcDbLine
 10
-64.0
 20
-91.0
 11
35.0
 21
-91.0
  0
LINE
  5
B6
330
20
100
AcDbEntity
  8
100
  6
CONTINUOUS
100
AcDbLine
 10
-124.0
 20
35.0
 11
-106.0
 21
35.0
  0
LINE
  5
B7
330
20
100
AcDbEntity
  8
100
  6
CONTINUOUS
100
AcDbLine
 10
-124.0
 20
-35.0
 11
-106.0
 21
-35.0
  0
CIRCLE
  5
B8
330
20
100
AcDbEntity
  8
100
  6
CONTINUOUS
100
AcDbCircle
 10
-115.0
 20
12.0
 40
2.0
  0
CIRCLE
  5
B9
330
20
100
AcDbEntity
  8
100
  6
CONTINUOUS
100
AcDbCircle
 10
-115.0
 20
-12.0
 40
2.0
  0
CIRCLE
  5
BA
330
20
100
AcDbEntity
  8
100
  6
CONTINUOUS
100
AcDbCircle
 10
-115.0
 20
12.0
 40
1.2
  0
CIRCLE
  5
BB
330
20
100
AcDbEntity
  8
100
  6
CONTINUOUS
100
AcDbCircle
 10
-115.0
 20
-12.0
 40
1.2
  0
LINE
  5
BC
330
20
100
AcDbEntity
  8
100
  6
CONTINUOUS
100
AcDbLine
 10
106.0
 20
35.0
 11
124.0
 21
35.0
  0
LINE
  5
BD
330
20
100
AcDbEntity
  8
100
  6
CONTINUOUS
100
AcDbLine
 10
106.0
 20
-35.0
 11
124.0
 21
-35.0
  0
CIRCLE
  5
BE
330
20
100
AcDbEntity
  8
100
  6
CONTINUOUS
100
AcDbCircle
 10
115.0
 20
12.0
 40
2.0
  0
CIRCLE
  5
BF
330
20
100
AcDbEntity
  8
100
  6
CONTINUOUS
100
AcDbCircle
 10
115.0
 20
-12.0
 40
2.0
  0
CIRCLE
  5
C0
330
20
100
AcDbEntity
  8
100
  6
CONTINUOUS
100
AcDbCircle
 10
115.0
 20
12.0
 40
1.2
  0
CIRCLE
  5
C1
330
20
100
AcDbEntity
  8
100
  6
CONTINUOUS
100
AcDbCircle
 10
115.0
 20
-12.0
 40
1.2
  0
CIRCLE
  5
C2
330
20
100
AcDbEntity
  8
100
  6
CONTINUOUS
100
AcDbCircle
 10
-57.0
 20
80.0
 40
2.5
  0
CIRCLE
  5
C3
330
20
100
AcDbEntity
  8
100
  6
CONTINUOUS
100
AcDbCircle
 10
-45.0
 20
80.0
 40
2.5
  0
CIRCLE
  5
C4
330
20
100
AcDbEntity
  8
100
  6
CONTINUOUS
100
AcDbCircle
 10
-57.0
 20
80.0
 40
2.0
  0
CIRCLE
  5
C5
330
20
100
AcDbEntity
  8
100
  6
CONTINUOUS
100
AcDbCircle
 10
-45.0
 20
80.0
 40
2.0
  0
CIRCLE
  5
C6
330
20
100
AcDbEntity
  8
100
  6
CONTINUOUS
100
AcDbCircle
 10
57.0
 20
-80.0
 40
2.5
  0
CIRCLE
  5
C7
330
20
100
AcDbEntity
  8
100
  6
CONTINUOUS
100
AcDbCircle
 10
45.0
 20
-80.0
 40
2.5
  0
CIRCLE
  5
C8
330
20
100
AcDbEntity
  8
100
  6
CONTINUOUS
100
AcDbCircle
 10
45.0
 20
-80.0
 40
2.0
  0
CIRCLE
  5
C9
330
20
100
AcDbEntity
  8
100
  6
CONTINUOUS
100
AcDbCircle
 10
57.0
 20
-80.0
 40
2.0
  0
POLYLINE
  5
CA
330
20
100
AcDbEntity
  8
100
  6
CONTINUOUS
100
AcDb2dPolyline
 66
     1
 10
0.0
 20
0.0
 70
     0
 40
0.0
 41
0.0
  0
VERTEX
  5
CB
330
20
100
AcDbEntity
  8
100
100
AcDbVertex
100
AcDb2dVertex
 10
49.52714649665566
 20
57.0
  0
VERTEX
  5
CC
330
20
100
AcDbEntity
  8
100
100
AcDbVertex
100
AcDb2dVertex
 10
49.82766813722404
 20
56.57325875229806
  0
VERTEX
  5
CD
330
20
100
AcDbEntity
  8
100
100
AcDbVertex
100
AcDb2dVertex
 10
50.08505711790831
 20
56.27530423735885
  0
VERTEX
  5
CE
330
20
100
AcDbEntity
  8
100
100
AcDbVertex
100
AcDb2dVertex
 10
50.31931260564321
 20
56.08275357633013
  0
VERTEX
  5
CF
330
20
100
AcDbEntity
  8
100
100
AcDbVertex
100
AcDb2dVertex
 10
50.52714649665572
 20
56.0
  0
VERTEX
  5
D0
330
20
100
AcDbEntity
  8
100
100
AcDbVertex
100
AcDb2dVertex
 10
50.74434128659853
 20
56.03417662674357
  0
VERTEX
  5
D1
330
20
100
AcDbEntity
  8
100
100
AcDbVertex
100
AcDb2dVertex
 10
50.97005413164816
 20
56.19981278480736
  0
VERTEX
  5
D2
330
20
100
AcDbEntity
  8
100
100
AcDbVertex
100
AcDb2dVertex
 10
51.2094077052327
 20
56.49512670565304
  0
VERTEX
  5
D3
330
20
100
AcDbEntity
  8
100
100
AcDbVertex
100
AcDb2dVertex
 10
51.5271464966557
 20
57.0
  0
VERTEX
  5
D4
330
20
100
AcDbEntity
  8
100
100
AcDbVertex
100
AcDb2dVertex
 10
51.84488528807871
 20
57.50487329434696
  0
VERTEX
  5
D5
330
20
100
AcDbEntity
  8
100
100
AcDbVertex
100
AcDb2dVertex
 10
52.08423886166324
 20
57.80018721519262
  0
VERTEX
  5
D6
330
20
100
AcDbEntity
  8
100
100
AcDbVertex
100
AcDb2dVertex
 10
52.30995170671288
 20
57.96582337325642
  0
VERTEX
  5
D7
330
20
100
AcDbEntity
  8
100
100
AcDbVertex
100
AcDb2dVertex
 10
52.5271464966557
 20
58.0
  0
VERTEX
  5
D8
330
20
100
AcDbEntity
  8
100
100
AcDbVertex
100
AcDb2dVertex
 10
52.73498038766829
 20
57.91724642366983
  0
VERTEX
  5
D9
330
20
100
AcDbEntity
  8
100
100
AcDbVertex
100
AcDb2dVertex
 10
52.96923587540327
 20
57.72469576264103
  0
VERTEX
  5
DA
330
20
100
AcDbEntity
  8
100
100
AcDbVertex
100
AcDb2dVertex
 10
53.22662485608765
 20
57.42674124770165
  0
VERTEX
  5
DB
330
20
100
AcDbEntity
  8
100
100
AcDbVertex
100
AcDb2dVertex
 10
53.52714649665568
 20
57.0
  0
SEQEND
  5
DC
330
20
100
AcDbEntity
  8
100
  0
SPLINE
  5
DD
330
20
100
AcDbEntity
  8
100
  6
CONTINUOUS
100
AcDbSpline
210
0.0
220
0.0
230
1.0
 70
     8
 71
     3
 72
     9
 73
     5
 74
     0
 42
1.000000000000000E-007
 43
1.000000000000000E-007
 40
0.0
 40
0.0
 40
0.0
 40
0.0
 40
1.463639032060635
 40
2.927278064121339
 40
2.927278064121339
 40
2.927278064121339
 40
2.927278064121339
 10
51.52714649665569
 20
57.0
 30
0.0
 10
51.72714649665556
 20
56.66666666666666
 30
0.0
 10
52.52714649665568
 20
55.33333333333335
 30
0.0
 10
53.32714649665567
 20
56.66666666666667
 30
0.0
 10
53.52714649665569
 20
57.0
 30
0.0
  0
LINE
  5
DE
330
20
100
AcDbEntity
  8
100
  6
CONTINUOUS
100
AcDbLine
 10
53.59999999999999
 20
-67.0
 11
53.59999999999999
 21
-58.0
  0
LINE
  5
DF
330
20
100
AcDbEntity
  8
100
  6
CONTINUOUS
100
AcDbLine
 10
49.59999999999999
 20
-67.0
 11
49.59999999999999
 21
-58.0
  0
LINE
  5
E0
330
20
100
AcDbEntity
  8
100
  6
CONTINUOUS
100
AcDbLine
 10
53.59999999999999
 20
-58.0
 11
53.59999999999999
 21
-57.0
  0
LINE
  5
E1
330
20
100
AcDbEntity
  8
100
  6
CONTINUOUS
100
AcDbLine
 10
49.59999999999999
 20
-58.0
 11
49.59999999999999
 21
-57.0
  0
POLYLINE
  5
E2
330
20
100
AcDbEntity
  8
100
  6
CONTINUOUS
100
AcDb2dPolyline
 66
     1
 10
0.0
 20
0.0
 70
     0
 40
0.0
 41
0.0
  0
VERTEX
  5
E3
330
20
100
AcDbEntity
  8
100
100
AcDbVertex
100
AcDb2dVertex
 10
53.60000000000002
 20
-57.0
  0
VERTEX
  5
E4
330
20
100
AcDbEntity
  8
100
100
AcDbVertex
100
AcDb2dVertex
 10
53.29947835943165
 20
-56.57325875229807
  0
VERTEX
  5
E5
330
20
100
AcDbEntity
  8
100
100
AcDbVertex
100
AcDb2dVertex
 10
53.04208937874737
 20
-56.27530423735885
  0
VERTEX
  5
E6
330
20
100
AcDbEntity
  8
100
100
AcDbVertex
100
AcDb2dVertex
 10
52.80783389101246
 20
-56.08275357633013
  0
VERTEX
  5
E7
330
20
100
AcDbEntity
  8
100
100
AcDbVertex
100
AcDb2dVertex
 10
52.59999999999995
 20
-56.0
  0
VERTEX
  5
E8
330
20
100
AcDbEntity
  8
100
100
AcDbVertex
100
AcDb2dVertex
 10
52.38280521005714
 20
-56.03417662674357
  0
VERTEX
  5
E9
330
20
100
AcDbEntity
  8
100
100
AcDbVertex
100
AcDb2dVertex
 10
52.15709236500751
 20
-56.19981278480736
  0
VERTEX
  5
EA
330
20
100
AcDbEntity
  8
100
100
AcDbVertex
100
AcDb2dVertex
 10
51.91773879142297
 20
-56.49512670565304
  0
VERTEX
  5
EB
330
20
100
AcDbEntity
  8
100
100
AcDbVertex
100
AcDb2dVertex
 10
51.59999999999997
 20
-57.0
  0
VERTEX
  5
EC
330
20
100
AcDbEntity
  8
100
100
AcDbVertex
100
AcDb2dVertex
 10
51.28226120857699
 20
-57.50487329434691
  0
VERTEX
  5
ED
330
20
100
AcDbEntity
  8
100
100
AcDbVertex
100
AcDb2dVertex
 10
51.04290763499247
 20
-57.80018721519255
  0
VERTEX
  5
EE
330
20
100
AcDbEntity
  8
100
100
AcDbVertex
100
AcDb2dVertex
 10
50.81719478994288
 20
-57.96582337325633
  0
VERTEX
  5
EF
330
20
100
AcDbEntity
  8
100
100
AcDbVertex
100
AcDb2dVertex
 10
50.59999999999997
 20
-58.0
  0
VERTEX
  5
F0
330
20
100
AcDbEntity
  8
100
100
AcDbVertex
100
AcDb2dVertex
 10
50.39216610898738
 20
-57.91724642366983
  0
VERTEX
  5
F1
330
20
100
AcDbEntity
  8
100
100
AcDbVertex
100
AcDb2dVertex
 10
50.1579106212524
 20
-57.72469576264104
  0
VERTEX
  5
F2
330
20
100
AcDbEntity
  8
100
100
AcDbVertex
100
AcDb2dVertex
 10
49.90052164056802
 20
-57.42674124770165
  0
VERTEX
  5
F3
330
20
100
AcDbEntity
  8
100
100
AcDbVertex
100
AcDb2dVertex
 10
49.59999999999998
 20
-56.99999999999999
  0
SEQEND
  5
F4
330
20
100
AcDbEntity
  8
100
  0
SPLINE
  5
F5
330
20
100
AcDbEntity
  8
100
  6
CONTINUOUS
100
AcDbSpline
210
0.0
220
0.0
230
1.0
 70
     8
 71
     3
 72
     9
 73
     5
 74
     0
 42
1.000000000000000E-007
 43
1.000000000000000E-007
 40
0.0
 40
0.0
 40
0.0
 40
0.0
 40
1.463639032060636
 40
2.927278064121292
 40
2.927278064121292
 40
2.927278064121292
 40
2.927278064121292
 10
49.59999999999998
 20
-57.0
 30
0.0
 10
49.79999999999986
 20
-56.66666666666664
 30
0.0
 10
50.60000000000001
 20
-55.33333333333336
 30
0.0
 10
51.39999999999995
 20
-56.66666666666666
 30
0.0
 10
51.59999999999998
 20
-57.0
 30
0.0
  0
LINE
  5
F6
330
20
100
AcDbEntity
  8
100
  6
CENTER
100
AcDbLine
 10
32.5
 20
-80.0
 11
69.5
 21
-80.0
  0
LINE
  5
F7
330
20
100
AcDbEntity
  8
100
  6
CENTER
100
AcDbLine
 10
45.0
 20
-92.5
 11
45.0
 21
-67.5
  0
LINE
  5
F8
330
20
100
AcDbEntity
  8
100
  6
CENTER
100
AcDbLine
 10
57.0
 20
-92.5
 11
57.0
 21
-67.5
  0
LINE
  5
F9
330
20
100
AcDbEntity
  8
100
  6
CENTER
100
AcDbLine
 10
115.0
 20
-24.0
 11
115.0
 21
24.0
  0
LINE
  5
FA
330
20
100
AcDbEntity
  8
100
  6
CENTER
100
AcDbLine
 10
127.0
 20
-12.0
 11
103.0
 21
-12.0
  0
LINE
  5
FB
330
20
100
AcDbEntity
  8
100
  6
CENTER
100
AcDbLine
 10
127.0
 20
12.0
 11
103.0
 21
12.0
  0
LINE
  5
FC
330
20
100
AcDbEntity
  8
100
  6
CENTER
100
AcDbLine
 10
-32.5
 20
80.0
 11
-69.5
 21
80.0
  0
LINE
  5
FD
330
20
100
AcDbEntity
  8
100
  6
CENTER
100
AcDbLine
 10
-45.0
 20
92.5
 11
-45.0
 21
67.5
  0
LINE
  5
FE
330
20
100
AcDbEntity
  8
100
  6
CENTER
100
AcDbLine
 10
-57.0
 20
92.5
 11
-57.0
 21
67.5
  0
LINE
  5
FF
330
20
100
AcDbEntity
  8
100
  6
CENTER
100
AcDbLine
 10
-115.0
 20
24.0
 11
-115.0
 21
-24.0
  0
LINE
  5
100
330
20
100
AcDbEntity
  8
100
  6
CENTER
100
AcDbLine
 10
-127.0
 20
12.0
 11
-103.0
 21
12.0
  0
LINE
  5
101
330
20
100
AcDbEntity
  8
100
  6
CENTER
100
AcDbLine
 10
-127.0
 20
-12.0
 11
-103.0
 21
-12.0
  0
CIRCLE
  5
102
330
20
100
AcDbEntity
  8
10
  6
CONTINUOUS
100
AcDbCircle
 10
51.0
 20
25.0
 40
2.52
  0
ARC
  5
104
330
20
100
AcDbEntity
  8
10
  6
CONTINUOUS
100
AcDbCircle
 10
51.0
 20
25.0
 40
1.4
100
AcDbArc
 50
0.0
 51
8.213210701738079
  0
ARC
  5
105
330
20
100
AcDbEntity
  8
10
  6
CONTINUOUS
100
AcDbCircle
 10
51.0
 20
25.0
 40
1.4
100
AcDbArc
 50
81.78678929826153
 51
98.21321070173848
  0
ARC
  5
106
330
20
100
AcDbEntity
  8
10
  6
CONTINUOUS
100
AcDbCircle
 10
51.0
 20
25.0
 40
1.4
100
AcDbArc
 50
171.7867892982617
 51
188.2132107017383
  0
ARC
  5
107
330
20
100
AcDbEntity
  8
10
  6
CONTINUOUS
100
AcDbCircle
 10
51.0
 20
25.0
 40
1.4
100
AcDbArc
 50
261.7867892982617
 51
278.2132107017382
  0
ARC
  5
108
330
20
100
AcDbEntity
  8
10
  6
CONTINUOUS
100
AcDbCircle
 10
51.0
 20
25.0
 40
1.4
100
AcDbArc
 50
351.7867892982619
 51
0.0
  0
LINE
  5
109
330
20
100
AcDbEntity
  8
10
  6
CONTINUOUS
100
AcDbLine
 10
49.61435935394493
 20
25.2
 11
50.32000000000003
 21
25.2
  0
LINE
  5
10A
330
20
100
AcDbEntity
  8
10
  6
CONTINUOUS
100
AcDbLine
 10
51.68000000000002
 20
25.2
 11
52.38564064605512
 21
25.2
  0
LINE
  5
10B
330
20
100
AcDbEntity
  8
10
  6
CONTINUOUS
100
AcDbLine
 10
49.61435935394493
 20
24.8
 11
50.32000000000003
 21
24.8
  0
LINE
  5
10C
330
20
100
AcDbEntity
  8
10
  6
CONTINUOUS
100
AcDbLine
 10
51.68000000000002
 20
24.8
 11
52.38564064605512
 21
24.8
  0
LINE
  5
10D
330
20
100
AcDbEntity
  8
10
  6
CONTINUOUS
100
AcDbLine
 10
51.2
 20
23.61435935394488
 11
51.2
 21
24.31999999999998
  0
LINE
  5
10E
330
20
100
AcDbEntity
  8
10
  6
CONTINUOUS
100
AcDbLine
 10
51.2
 20
25.67999999999997
 11
51.2
 21
26.38564064605507
  0
LINE
  5
10F
330
20
100
AcDbEntity
  8
10
  6
CONTINUOUS
100
AcDbLine
 10
50.8
 20
23.61435935394488
 11
50.8
 21
24.31999999999998
  0
LINE
  5
110
330
20
100
AcDbEntity
  8
10
  6
CONTINUOUS
100
AcDbLine
 10
50.8
 20
25.67999999999997
 11
50.8
 21
26.38564064605507
  0
ARC
  5
111
330
20
100
AcDbEntity
  8
10
  6
CONTINUOUS
100
AcDbCircle
 10
51.68000000000002
 20
25.67999999999997
 40
0.48
100
AcDbArc
 50
180.0
 51
270.0
  0
ARC
  5
112
330
20
100
AcDbEntity
  8
10
  6
CONTINUOUS
100
AcDbCircle
 10
50.32000000000003
 20
25.67999999999997
 40
0.48
100
AcDbArc
 50
270.0
 51
0.0
  0
ARC
  5
113
330
20
100
AcDbEntity
  8
10
  6
CONTINUOUS
100
AcDbCircle
 10
50.32000000000003
 20
24.31999999999998
 40
0.48
100
AcDbArc
 50
0.0
 51
90.0
  0
ARC
  5
114
330
20
100
AcDbEntity
  8
10
  6
CONTINUOUS
100
AcDbCircle
 10
51.68000000000002
 20
24.31999999999998
 40
0.48
100
AcDbArc
 50
90.0
 51
180.0
  0
CIRCLE
  5
115
330
20
100
AcDbEntity
  8
10
  6
CONTINUOUS
100
AcDbCircle
 10
51.0
 20
-25.0
 40
2.52
  0
ARC
  5
116
330
20
100
AcDbEntity
  8
10
  6
CONTINUOUS
100
AcDbCircle
 10
51.0
 20
-25.0
 40
1.4
100
AcDbArc
 50
351.786789298262
 51
0.0
  0
ARC
  5
117
330
20
100
AcDbEntity
  8
10
  6
CONTINUOUS
100
AcDbCircle
 10
51.0
 20
-25.0
 40
1.4
100
AcDbArc
 50
261.7867892982621
 51
278.2132107017379
  0
ARC
  5
118
330
20
100
AcDbEntity
  8
10
  6
CONTINUOUS
100
AcDbCircle
 10
51.0
 20
-25.0
 40
1.4
100
AcDbArc
 50
171.7867892982616
 51
188.2132107017384
  0
ARC
  5
119
330
20
100
AcDbEntity
  8
10
  6
CONTINUOUS
100
AcDbCircle
 10
51.0
 20
-25.0
 40
1.4
100
AcDbArc
 50
81.78678929826235
 51
98.21321070173765
  0
ARC
  5
11A
330
20
100
AcDbEntity
  8
10
  6
CONTINUOUS
100
AcDbCircle
 10
51.0
 20
-25.0
 40
1.4
100
AcDbArc
 50
0.0
 51
8.213210701738039
  0
LINE
  5
11B
330
20
100
AcDbEntity
  8
10
  6
CONTINUOUS
100
AcDbLine
 10
49.61435935394493
 20
-25.2
 11
50.32000000000002
 21
-25.2
  0
LINE
  5
11C
330
20
100
AcDbEntity
  8
10
  6
CONTINUOUS
100
AcDbLine
 10
51.68000000000001
 20
-25.2
 11
52.38564064605512
 21
-25.2
  0
LINE
  5
11D
330
20
100
AcDbEntity
  8
10
  6
CONTINUOUS
100
AcDbLine
 10
49.61435935394493
 20
-24.8
 11
50.32000000000002
 21
-24.8
  0
LINE
  5
11E
330
20
100
AcDbEntity
  8
10
  6
CONTINUOUS
100
AcDbLine
 10
51.68000000000001
 20
-24.8
 11
52.38564064605512
 21
-24.8
  0
LINE
  5
11F
330
20
100
AcDbEntity
  8
10
  6
CONTINUOUS
100
AcDbLine
 10
51.19999999999999
 20
-23.61435935394488
 11
51.19999999999999
 21
-24.31999999999998
  0
LINE
  5
120
330
20
100
AcDbEntity
  8
10
  6
CONTINUOUS
100
AcDbLine
 10
51.19999999999999
 20
-25.67999999999997
 11
51.19999999999999
 21
-26.38564064605507
  0
LINE
  5
121
330
20
100
AcDbEntity
  8
10
  6
CONTINUOUS
100
AcDbLine
 10
50.80000000000001
 20
-23.61435935394488
 11
50.80000000000001
 21
-24.31999999999998
  0
LINE
  5
122
330
20
100
AcDbEntity
  8
10
  6
CONTINUOUS
100
AcDbLine
 10
50.80000000000001
 20
-25.67999999999997
 11
50.80000000000001
 21
-26.38564064605507
  0
ARC
  5
123
330
20
100
AcDbEntity
  8
10
  6
CONTINUOUS
100
AcDbCircle
 10
51.68000000000001
 20
-25.67999999999997
 40
0.48
100
AcDbArc
 50
90.0
 51
180.0
  0
ARC
  5
124
330
20
100
AcDbEntity
  8
10
  6
CONTINUOUS
100
AcDbCircle
 10
50.32000000000002
 20
-25.67999999999997
 40
0.48
100
AcDbArc
 50
0.0
 51
90.0
  0
ARC
  5
125
330
20
100
AcDbEntity
  8
10
  6
CONTINUOUS
100
AcDbCircle
 10
50.32000000000002
 20
-24.31999999999998
 40
0.48
100
AcDbArc
 50
270.0
 51
0.0
  0
ARC
  5
126
330
20
100
AcDbEntity
  8
10
  6
CONTINUOUS
100
AcDbCircle
 10
51.68000000000001
 20
-24.31999999999998
 40
0.48
100
AcDbArc
 50
180.0
 51
270.0
  0
ARC
  5
127
330
20
100
AcDbEntity
  8
100
  6
CONTINUOUS
100
AcDbCircle
 10
51.59999999999999
 20
0.0
 40
3.0
100
AcDbArc
 50
90.0
 51
270.0
  0
LINE
  5
128
330
20
100
AcDbEntity
  8
100
  6
CENTER
100
AcDbLine
 10
39.59999999999999
 20
0.0
 11
63.59999999999999
 21
0.0
  0
LINE
  5
129
330
20
100
AcDbEntity
  8
100
  6
CENTER
100
AcDbLine
 10
51.59999999999999
 20
-12.0
 11
51.59999999999999
 21
12.0
  0
ENDSEC
  0
SECTION
  2
OBJECTS
  0
DICTIONARY
  5
C
100
AcDbDictionary
281
     1
  3
ACAD_GROUP
350
D
  3
ACAD_MLINESTYLE
350
E
  3
ACDBVARIABLEDICTIONARY
350
12A
  3
ACAD_PLOTSTYLENAME
350
12B
  3
ACAD_LAYOUT
350
12C
  3
ACAD_PLOTSETTINGS
350
12D
  0
DICTIONARY
  5
D
102
{ACAD_REACTORS
330
C
102
}
330
C
100
AcDbDictionary
281
     1
  0
DICTIONARY
  5
E
102
{ACAD_REACTORS
330
C
102
}
330
C
100
AcDbDictionary
281
     1
  3
STANDARD
350
13
  0
DICTIONARY
  5
12A
102
{ACAD_REACTORS
330
C
102
}
330
C
100
AcDbDictionary
281
     1
  3
SORTENTS
350
12E
  0
ACDBDICTIONARYWDFLT
  5
12B
102
{ACAD_REACTORS
330
C
102
}
330
C
100
AcDbDictionary
281
     1
  3
Normal
350
12F
100
AcDbDictionaryWithDefault
340
12F
  0
DICTIONARY
  5
12C
102
{ACAD_REACTORS
330
C
102
}
330
C
100
AcDbDictionary
281
     1
  3
Model
350
130
  0
DICTIONARY
  5
12D
102
{ACAD_REACTORS
330
C
102
}
330
C
100
AcDbDictionary
281
     1
  0
MLINESTYLE
  5
13
102
{ACAD_REACTORS
330
E
102
}
330
E
100
AcDbMlineStyle
  2
STANDARD
 70
     0
  3

 62
   256
 51
90.0
 52
90.0
 71
     2
 49
0.5
 62
   256
  6
BYLAYER
 49
-0.5
 62
   256
  6
BYLAYER
  0
DICTIONARYVAR
  5
12E
102
{ACAD_REACTORS
330
12A
102
}
330
12A
100
DictionaryVariables
280
     0
  1
96
  0
ACDBPLACEHOLDER
  5
12F
102
{ACAD_REACTORS
330
12B
102
}
330
12B
  0
LAYOUT
  5
130
102
{ACAD_REACTORS
330
12C
102
}
330
12C
100
AcDbPlotSettings
  1

  2

  4

  6

 40
0.0
 41
0.0
 42
0.0
 43
0.0
 44
0.0
 45
0.0
 46
0.0
 47
0.0
 48
0.0
 49
0.0
140
0.0
141
0.0
142
1.0
143
1.0
 70
  1712
 72
     0
 73
     0
 74
     0
  7

 75
     0
147
1.0
148
0.0
149
0.0
100
AcDbLayout
  1
Model
 70
     1
 71
     0
 10
0.0
 20
0.0
 11
297.0
 21
210.0
 12
0.0
 22
0.0
 32
0.0
 14
0.0
 24
0.0
 34
0.0
 15
0.0
 25
0.0
 35
0.0
146
0.0
 13
0.0
 23
0.0
 33
0.0
 16
1.0
 26
0.0
 36
0.0
 17
0.0
 27
1.0
 37
0.0
 76
     0
330
20
  0
ENDSEC
  0
EOF
