  0
SECTION
  2
HEADER
  9
$ACADVER
  1
AC1015
  9
$ACADMAINTVER
 70
     0
  9
$DWGCODEPAGE
  3
ANSI_932
  9
$INSBASE
 10
0.0
 20
0.0
 30
0.0
  9
$EXTMIN
 10
-100.5
 20
-121.5
  9
$EXTMAX
 10
195.0
 20
100.5
  9
$LIMMIN
 10
-100.5
 20
-121.5
  9
$LIMMAX
 10
195.0
 20
100.5
  9
$ORTHOMODE
 70
     0
  9
$REGENMODE
 70
     1
  9
$FILLMODE
 70
     1
  9
$QTEXTMODE
 70
     0
  9
$MIRRTEXT
 70
     1
  9
$LTSCALE
 40
1.0
  9
$OSMODE
 70
     0
  9
$ATTMODE
 70
     1
  9
$TEXTSIZE
 40
3.0
  9
$TRACEWID
 40
0.5
  9
$TEXTSTYLE
  7
STANDARD
  9
$CLAYER
  8
0
  9
$CELTYPE
  6
BYLAYER
  9
$CECOLOR
 62
   256
  9
$CELTSCALE
 40
1.0
  9
$DISPSILH
 70
     0
  9
$DIMSCALE
 40
1.0
  9
$DIMASZ
 40
3.0
  9
$DIMEXO
 40
1.0
  9
$DIMDLI
 40
5.0
  9
$DIMRND
 40
0.0
  9
$DIMDLE
 40
5.0
  9
$DIMEXE
 40
2.0
  9
$DIMTP
 40
0.0
  9
$DIMTM
 40
0.0
  9
$DIMTXT
 40
3.0
  9
$DIMCEN
 40
2.0
  9
$DIMTSZ
 40
0.0
  9
$DIMTOL
 70
     0
  9
$DIMLIM
 70
     0
  9
$DIMTIH
 70
     0
  9
$DIMTOH
 70
     0
  9
$DIMSE1
 70
     0
  9
$DIMSE2
 70
     0
  9
$DIMTAD
 70
     1
  9
$DIMZIN
 70
     8
  9
$DIMBLK
  1

  9
$DIMASO
 70
     1
  9
$DIMSHO
 70
     1
  9
$DIMPOST
  1

  9
$DIMAPOST
  1

  9
$DIMALT
 70
     0
  9
$DIMALTD
 70
     0
  9
$DIMALTF
 40
25.4
  9
$DIMLFAC
 40
1.0
  9
$DIMTOFL
 70
     1
  9
$DIMTVP
 40
1.0
  9
$DIMTIX
 70
     0
  9
$DIMSOXD
 70
     0
  9
$DIMSAH
 70
     0
  9
$DIMBLK1
  1

  9
$DIMBLK2
  1

  9
$DIMSTYLE
  2
ISO-25
  9
$DIMCLRD
 70
     0
  9
$DIMCLRE
 70
     0
  9
$DIMCLRT
 70
     0
  9
$DIMTFAC
 40
1.0
  9
$DIMGAP
 40
0.5
  9
$DIMJUST
 70
     0
  9
$DIMSD1
 70
     0
  9
$DIMSD2
 70
     0
  9
$DIMTOLJ
 70
     0
  9
$DIMTZIN
 70
     8
  9
$DIMALTZ
 70
     0
  9
$DIMALTTZ
 70
     0
  9
$DIMUPT
 70
     0
  9
$DIMDEC
 70
     2
  9
$DIMTDEC
 70
     2
  9
$DIMALTU
 70
     2
  9
$DIMALTTD
 70
     3
  9
$DIMTXSTY
  7
STANDARD
  9
$DIMAUNIT
 70
     0
  9
$DIMADEC
 70
     0
  9
$DIMALTRND
 40
0.0
  9
$DIMAZIN
 70
     0
  9
$DIMDSEP
 70
    46
  9
$DIMATFIT
 70
     3
  9
$DIMFRAC
 70
     0
  9
$DIMLDRBLK
  1

  9
$DIMLUNIT
 70
     2
  9
$DIMLWD
 70
    -2
  9
$DIMLWE
 70
    -2
  9
$DIMTMOVE
 70
     0
  9
$LUNITS
 70
     2
  9
$LUPREC
 70
     4
  9
$SKETCHINC
 40
1.0
  9
$FILLETRAD
 40
0.0
  9
$AUNITS
 70
     0
  9
$AUPREC
 70
     0
  9
$MENU
  1
.
  9
$ELEVATION
 40
0.0
  9
$PELEVATION
 40
0.0
  9
$THICKNESS
 40
0.0
  9
$LIMCHECK
 70
     0
  9
$CHAMFERA
 40
0.0
  9
$CHAMFERB
 40
0.0
  9
$CHAMFERC
 40
0.0
  9
$CHAMFERD
 40
0.0
  9
$SKPOLY
 70
     0
  9
$TDCREATE
 40
2454124.353622685
  9
$TDUCREATE
 40
2454124.353622685
  9
$TDUPDATE
 40
2454124.353622685
  9
$TDUUPDATE
 40
2454124.353622685
  9
$TDINDWG
 40
0.0
  9
$TDUSRTIMER
 40
0.0
  9
$USRTIMER
 70
     1
  9
$ANGBASE
 50
0.0
  9
$ANGDIR
 70
     0
  9
$PDMODE
 70
     0
  9
$PDSIZE
 40
0.0
  9
$PLINEWID
 40
0.0
  9
$SPLFRAME
 70
     0
  9
$SPLINETYPE
 70
     6
  9
$SPLINESEGS
 70
     8
  9
$HANDSEED
  5
A9
  9
$SURFTAB1
 70
     6
  9
$SURFTAB2
 70
     6
  9
$SURFTYPE
 70
     6
  9
$SURFU
 70
     6
  9
$SURFV
 70
     6
  9
$UCSBASE
  2

  9
$UCSNAME
  2

  9
$UCSORG
 10
0.0
 20
0.0
 30
0.0
  9
$UCSXDIR
 10
1.0
 20
0.0
 30
0.0
  9
$UCSYDIR
 10
0.0
 20
1.0
 30
0.0
  9
$UCSORTHOREF
  2

  9
$UCSORTHOVIEW
 70
     0
  9
$UCSORGTOP
 10
0.0
 20
0.0
 30
0.0
  9
$UCSORGBOTTOM
 10
0.0
 20
0.0
 30
0.0
  9
$UCSORGLEFT
 10
0.0
 20
0.0
 30
0.0
  9
$UCSORGRIGHT
 10
0.0
 20
0.0
 30
0.0
  9
$UCSORGFRONT
 10
0.0
 20
0.0
 30
0.0
  9
$UCSORGBACK
 10
0.0
 20
0.0
 30
0.0
  9
$PUCSBASE
  2

  9
$PUCSNAME
  2

  9
$PUCSORG
 10
0.0
 20
0.0
 30
0.0
  9
$PUCSXDIR
 10
1.0
 20
0.0
 30
0.0
  9
$PUCSYDIR
 10
0.0
 20
1.0
 30
0.0
  9
$PUCSORTHOREF
  2

  9
$PUCSORTHOVIEW
 70
     0
  9
$PUCSORGTOP
 10
0.0
 20
0.0
 30
0.0
  9
$PUCSORGBOTTOM
 10
0.0
 20
0.0
 30
0.0
  9
$PUCSORGLEFT
 10
0.0
 20
0.0
 30
0.0
  9
$PUCSORGRIGHT
 10
0.0
 20
0.0
 30
0.0
  9
$PUCSORGFRONT
 10
0.0
 20
0.0
 30
0.0
  9
$PUCSORGBACK
 10
0.0
 20
0.0
 30
0.0
  9
$USERI1
 70
     0
  9
$USERI2
 70
     0
  9
$USERI3
 70
     0
  9
$USERI4
 70
     0
  9
$USERI5
 70
     0
  9
$USERR1
 40
0.0
  9
$USERR2
 40
0.0
  9
$USERR3
 40
0.0
  9
$USERR4
 40
0.0
  9
$USERR5
 40
0.0
  9
$WORLDVIEW
 70
     1
  9
$SHADEDGE
 70
     3
  9
$SHADEDIF
 70
    70
  9
$MAXACTVP
 70
    16
  9
$PINSBASE
 10
0.0
 20
0.0
 30
0.0
  9
$PLIMCHECK
 70
     0
  9
$PEXTMIN
 10
1.000000E+20
 20
1.000000E+20
 30
1.000000E+20
  9
$PEXTMAX
 10
-1.000000E+20
 20
-1.000000E+20
 30
-1.000000E+20
  9
$PLIMMIN
 10
-100.5
 20
-121.5
  9
$PLIMMAX
 10
195.0
 20
100.5
  9
$UNITMODE
 70
     0
  9
$VISRETAIN
 70
     0
  9
$PLINEGEN
 70
     0
  9
$PSLTSCALE
 70
     0
  9
$TREEDEPTH
 70
  3020
  9
$CMLSTYLE
  2
STANDARD
  9
$CMLJUST
 70
     0
  9
$CMLSCALE
 40
1.0
  9
$PROXYGRAPHICS
 70
     1
  9
$MEASUREMENT
 70
     0
  9
$CELWEIGHT
370
    -3
  9
$ENDCAPS
280
     0
  9
$JOINSTYLE
280
     0
  9
$LWDISPLAY
290
     1
  9
$INSUNITS
 70
     0
  9
$HYPERLINKBASE
  1

  9
$STYLESHEET
  1

  9
$XEDIT
290
     1
  9
$CEPSNTYPE
380
     0
  9
$PSTYLEMODE
290
     1
  9
$FINGERPRINTGUID
  2
{6F25CFC2-5053-11D3-9BE9-00805F4AB38E}
  9
$VERSIONGUID
  2
{6F25CFC5-5053-11D3-9BE9-00805F4AB38E}
  9
$EXTNAMES
290
     1
  9
$PSVPSCALE
 40
0.0
  9
$OLESTARTUP
290
     0
  0
ENDSEC
  0
SECTION
  2
CLASSES
  0
CLASS
  1
LWPOLYLINE
  2
AcDbPolyline
  3
AutoCAD 2000
 90
    32768
280
     0
281
     1
  0
CLASS
  1
DICTIONARYVAR
  2
AcDbDictionaryVar
  3
AutoCAD 2000
 90
        0
280
     0
281
     1
  0
CLASS
  1
ACDBDICTIONARYWDFLT
  2
AcDbDictionaryWithDefault
  3
AutoCAD 2000
 90
        0
280
     0
281
     1
  0
CLASS
  1
ACDBPLACEHOLDER
  2
AcDbPlaceHolder
  3
AutoCAD 2000
 90
        0
280
     0
281
     1
  0
CLASS
  1
LAYOUT
  2
AcDbLayout
  3
AutoCAD 2000
 90
        0
280
     0
281
     1
  0
CLASS
  1
HATCH
  2
AcDbHatch
  3
AutoCAD 2000
 90
        0
280
     0
281
     1
  0
ENDSEC
  0
SECTION
  2
TABLES
  0
TABLE
  2
VPORT
  5
8
100
AcDbSymbolTable
 70
     1
  0
VPORT
  5
A0
330
0
100
AcDbSymbolTableRecord
100
AcDbViewportTableRecord
  2
*ACTIVE
 70
     0
 10
0.0
 20
0.0
 11
1.0
 21
1.0
 12
47.25
 22
-10.50000000000001
 13
0.0
 23
0.0
 14
0.0
 24
0.0
 15
0.0
 25
0.0
 16
0.0
 26
0.0
 36
1.0
 17
0.0
 27
0.0
 37
0.0
 40
222.0
 41
1.5
 42
50.0
 43
0.0
 44
0.0
 50
0.0
 51
0.0
 71
     0
 72
   100
 73
     1
 74
     1
 75
     0
 76
     0
 77
     0
 78
     0
281
     0
 65
     1
110
0.0
120
0.0
130
0.0
111
1.0
121
0.0
131
0.0
112
0.0
122
1.0
132
0.0
 79
     0
146
0.0
  0
ENDTAB
  0
TABLE
  2
LTYPE
  5
5
330
0
100
AcDbSymbolTable
 70
    20
  0
LTYPE
  5
A1
330
5
100
AcDbSymbolTableRecord
100
AcDbLinetypeTableRecord
  2
BYBLOCK
 70
     0
  3

 72
    65
 73
     0
 40
0.0
  0
LTYPE
  5
A2
330
5
100
AcDbSymbolTableRecord
100
AcDbLinetypeTableRecord
  2
BYLAYER
 70
     0
  3

 72
    65
 73
     0
 40
0.0
  0
LTYPE
  5
A3
330
5
100
AcDbSymbolTableRecord
100
AcDbLinetypeTableRecord
  2
CONTINUOUS
 70
    64
  3
solid line
 72
    65
 73
     0
 40
0.0
  0
LTYPE
  5
A4
330
0
100
AcDbSymbolTableRecord
100
AcDbLinetypeTableRecord
  2
CENTER
 70
    64
  3
--- - --- - --- - --- - --- - 
 72
    65
 73
     4
 40
6.0
 49
3.0
 74
     0
 49
-1.0
 74
     0
 49
1.0
 74
     0
 49
-1.0
 74
     0
  0
ENDTAB
  0
TABLE
  2
LAYER
  5
2
330
0
100
AcDbSymbolTable
 70
    20
  0
LAYER
  5
A5
330
2
100
AcDbSymbolTableRecord
100
AcDbLayerTableRecord
  2
0
 70
    64
 62
     7
  6
CONTINUOUS
370
    -3
390
9C
  0
LAYER
  5
25
330
2
100
AcDbSymbolTableRecord
100
AcDbLayerTableRecord
  2
100
 70
    64
 62
     7
  6
CONTINUOUS
370
    -3
390
9C
  0
LAYER
  5
40
330
2
100
AcDbSymbolTableRecord
100
AcDbLayerTableRecord
  2
10
 70
    64
 62
     7
  6
CONTINUOUS
370
    -3
390
9C
  0
ENDTAB
  0
TABLE
  2
STYLE
  5
3
330
0
100
AcDbSymbolTable
 70
     4
  0
STYLE
  5
A6
330
3
100
AcDbSymbolTableRecord
100
AcDbTextStyleTableRecord
  2
STANDARD
 70
    64
 40
0.0
 41
1.052631578947368
 50
0.0
 71
     0
 42
3.0
  3
monotxt
  4

  0
ENDTAB
  0
TABLE
  2
VIEW
  5
6
330
0
100
AcDbSymbolTable
 70
     0
  0
ENDTAB
  0
TABLE
  2
UCS
  5
7
330
0
100
AcDbSymbolTable
 70
     0
  0
ENDTAB
  0
TABLE
  2
APPID
  5
9
330
0
100
AcDbSymbolTable
 70
     1
  0
APPID
  5
A7
330
9
100
AcDbSymbolTableRecord
100
AcDbRegAppTableRecord
  2
ACAD
 70
     0
  0
ENDTAB
  0
TABLE
  2
DIMSTYLE
  5
A
330
0
100
AcDbSymbolTable
 70
     8
100
AcDbDimStyleTable
 71
     0
  0
DIMSTYLE
105
A8
330
A
100
AcDbSymbolTableRecord
100
AcDbDimStyleTableRecord
  2
ISO-25
 70
     0
  3

  4

  5

  6

  7

 40
1.0
 41
3.0
 42
1.0
 43
5.0
 44
2.0
 45
0.0
 46
5.0
 47
0.0
 48
0.0
140
3.0
141
2.0
142
0.0
143
25.4
144
1.0
145
1.0
146
1.0
147
0.5
 71
     0
 72
     0
 73
     0
 74
     0
 75
     0
 76
     0
 77
     1
 78
     8
170
     0
171
     0
172
     1
173
     0
174
     0
175
     0
176
     0
177
     0
178
     0
270
     0
271
     2
272
     2
273
     2
274
     3
340
A6
275
     0
277
     2
280
     0
281
     0
282
     0
283
     0
284
     8
285
     0
286
     0
287
     3
288
     0
  0
ENDTAB
  0
TABLE
  2
BLOCK_RECORD
  5
1
330
0
100
AcDbSymbolTable
 70
     2
  0
BLOCK_RECORD
  5
20
330
1
100
AcDbSymbolTableRecord
100
AcDbBlockTableRecord
  2
*MODEL_SPACE
340
9D
  0
BLOCK_RECORD
  5
22
330
1
100
AcDbSymbolTableRecord
100
AcDbBlockTableRecord
  2
*PAPER_SPACE
340
0
  0
BLOCK_RECORD
  5
2C
330
1
100
AcDbSymbolTableRecord
100
AcDbBlockTableRecord
  2
1108-21A10-7Fﾂｦﾌﾌ_0001
340
0
102
{BLKREFS
331
2D
102
}
  0
ENDTAB
  0
ENDSEC
  0
SECTION
  2
BLOCKS
  0
BLOCK
  5
21
330
20
100
AcDbEntity
  8
0
100
AcDbBlockBegin
  2
*MODEL_SPACE
 70
     0
 10
0.0
 20
0.0
 30
0.0
  3
*MODEL_SPACE
  1

  0
ENDBLK
  5
9E
330
20
100
AcDbEntity
  8
0
100
AcDbBlockEnd
  0
BLOCK
  5
23
330
22
100
AcDbEntity
 67
     1
  8
0
100
AcDbBlockBegin
  2
*PAPER_SPACE
 70
     0
 10
0.0
 20
0.0
 30
0.0
  3
*PAPER_SPACE
  1

  0
ENDBLK
  5
9F
330
22
100
AcDbEntity
 67
     1
  8
0
100
AcDbBlockEnd
  0
BLOCK
  5
2E
330
2C
100
AcDbEntity
  8
100
100
AcDbBlockBegin
  2
1108-21A10-7Fﾂｦﾌﾌ_0001
 70
    64
 10
0.0
 20
0.0
  0
LINE
  5
2F
330
2C
100
AcDbEntity
  8
100
  6
CONTINUOUS
100
AcDbLine
 10
0.0
 20
12.49997521743583
 11
-2.0
 21
12.49997521743583
  0
LINE
  5
30
330
2C
100
AcDbEntity
  8
100
  6
CONTINUOUS
100
AcDbLine
 10
0.0
 20
-12.50002478256417
 11
-2.0
 21
-12.50002478256417
  0
LINE
  5
31
330
2C
100
AcDbEntity
  8
100
  6
CONTINUOUS
100
AcDbLine
 10
0.0
 20
12.49997521743583
 11
0.0
 21
-12.50002478256417
  0
LINE
  5
32
330
2C
100
AcDbEntity
  8
100
  6
CONTINUOUS
100
AcDbLine
 10
-2.0
 20
12.49997521743583
 11
-2.0
 21
-12.50002478256417
  0
LINE
  5
33
330
2C
100
AcDbEntity
  8
100
  6
CONTINUOUS
100
AcDbLine
 10
-2.0
 20
-8.500024782564168
 11
-11.5
 21
-8.500024782564168
  0
LINE
  5
34
330
2C
100
AcDbEntity
  8
100
  6
CONTINUOUS
100
AcDbLine
 10
-2.0
 20
8.499975217435832
 11
-11.5
 21
8.499975217435832
  0
LINE
  5
35
330
2C
100
AcDbEntity
  8
100
  6
CONTINUOUS
100
AcDbLine
 10
-13.0
 20
7.699975217435821
 11
-13.0
 21
-7.700024782564157
  0
LINE
  5
36
330
2C
100
AcDbEntity
  8
100
  6
CONTINUOUS
100
AcDbLine
 10
-4.5
 20
8.499975217435832
 11
-4.5
 21
-8.500024782564168
  0
LINE
  5
37
330
2C
100
AcDbEntity
  8
100
  6
CONTINUOUS
100
AcDbLine
 10
-11.5
 20
8.499975217435832
 11
-11.5
 21
-8.500024782564168
  0
LINE
  5
38
330
2C
100
AcDbEntity
  8
100
  6
CONTINUOUS
100
AcDbLine
 10
-4.5
 20
-7.700024782564157
 11
-13.0
 21
-7.700024782564157
  0
LINE
  5
39
330
2C
100
AcDbEntity
  8
100
  6
CONTINUOUS
100
AcDbLine
 10
-4.5
 20
7.699975217435821
 11
-13.0
 21
7.699975217435821
  0
ENDBLK
  5
3A
330
2C
100
AcDbEntity
  8
100
100
AcDbBlockEnd
  0
ENDSEC
  0
SECTION
  2
ENTITIES
  0
LINE
  5
24
330
20
100
AcDbEntity
  8
100
  6
CENTER
100
AcDbLine
 10
0.0
 20
0.0
 11
100.5
 21
0.0
  0
LINE
  5
26
330
20
100
AcDbEntity
  8
100
  6
CENTER
100
AcDbLine
 10
0.0
 20
-100.5
 11
0.0
 21
100.5
  0
LINE
  5
27
330
20
100
AcDbEntity
  8
100
  6
CONTINUOUS
100
AcDbLine
 10
-30.14896349793801
 20
-81.59999999999999
 11
30.14896349793801
 21
-81.59999999999999
  0
LINE
  5
28
330
20
100
AcDbEntity
  8
100
  6
CONTINUOUS
100
AcDbLine
 10
-30.0
 20
-119.6
 11
-30.0
 21
-81.59999999999999
  0
LINE
  5
29
330
20
100
AcDbEntity
  8
100
  6
CONTINUOUS
100
AcDbLine
 10
30.0
 20
-119.6
 11
30.0
 21
-81.59999999999999
  0
LINE
  5
2A
330
20
100
AcDbEntity
  8
100
  6
CONTINUOUS
100
AcDbLine
 10
-30.0
 20
-116.6
 11
30.0
 21
-116.6
  0
LINE
  5
2B
330
20
100
AcDbEntity
  8
100
  6
CONTINUOUS
100
AcDbLine
 10
-30.0
 20
-119.6
 11
30.0
 21
-119.6
  0
INSERT
  5
2D
330
20
100
AcDbEntity
  8
100
  6
CONTINUOUS
100
AcDbBlockReference
  2
1108-21A10-7Fﾂｦﾌﾌ_0001
 10
-30.0
 20
-103.599967956543
 41
1.0
 42
1.0
 50
0.0
  0
LINE
  5
3B
330
20
100
AcDbEntity
  8
100
  6
CENTER
100
AcDbLine
 10
-50.0
 20
-103.6
 11
-25.0
 21
-103.6
  0
LINE
  5
3C
330
20
100
AcDbEntity
  8
100
  6
CONTINUOUS
100
AcDbLine
 10
176.5
 20
-81.60000000000001
 11
176.5
 21
-119.6
  0
LINE
  5
3D
330
20
100
AcDbEntity
  8
100
  6
CONTINUOUS
100
AcDbLine
 10
146.5
 20
-116.6
 11
176.5
 21
-116.6
  0
LINE
  5
3E
330
20
100
AcDbEntity
  8
100
  6
CONTINUOUS
100
AcDbLine
 10
146.5
 20
-119.6
 11
176.5
 21
-119.6
  0
LINE
  5
3F
330
20
100
AcDbEntity
  8
10
  6
CONTINUOUS
100
AcDbLine
 10
30.15000000000003
 20
-119.6
 11
30.0
 21
-119.6
  0
LINE
  5
41
330
20
100
AcDbEntity
  8
10
  6
CONTINUOUS
100
AcDbLine
 10
30.0
 20
-119.6
 11
23.84999999999997
 21
-119.6
  0
LINE
  5
42
330
20
100
AcDbEntity
  8
10
  6
CONTINUOUS
100
AcDbLine
 10
23.96373526258373
 20
-120.9
 11
23.84999999999997
 21
-119.6
  0
LINE
  5
43
330
20
100
AcDbEntity
  8
10
  6
CONTINUOUS
100
AcDbLine
 10
30.03626473741628
 20
-120.9
 11
23.96373526258373
 21
-120.9
  0
LINE
  5
44
330
20
100
AcDbEntity
  8
10
  6
CONTINUOUS
100
AcDbLine
 10
30.03626473741628
 20
-120.9
 11
30.15000000000003
 21
-119.6
  0
ARC
  5
45
330
20
100
AcDbEntity
  8
10
  6
CONTINUOUS
100
AcDbCircle
 10
27.0
 20
-113.5175803702686
 40
7.98241962973139
100
AcDbArc
 50
247.6434605857302
 51
292.3565394142697
  0
LINE
  5
46
330
20
100
AcDbEntity
  8
10
  6
CONTINUOUS
100
AcDbLine
 10
-23.84999999999997
 20
-119.6
 11
-24.0
 21
-119.6
  0
LINE
  5
47
330
20
100
AcDbEntity
  8
10
  6
CONTINUOUS
100
AcDbLine
 10
-24.0
 20
-119.6
 11
-30.15000000000003
 21
-119.6
  0
LINE
  5
48
330
20
100
AcDbEntity
  8
10
  6
CONTINUOUS
100
AcDbLine
 10
-30.03626473741628
 20
-120.9
 11
-30.15000000000003
 21
-119.6
  0
LINE
  5
49
330
20
100
AcDbEntity
  8
10
  6
CONTINUOUS
100
AcDbLine
 10
-23.96373526258373
 20
-120.9
 11
-30.03626473741628
 21
-120.9
  0
LINE
  5
4A
330
20
100
AcDbEntity
  8
10
  6
CONTINUOUS
100
AcDbLine
 10
-23.96373526258373
 20
-120.9
 11
-23.84999999999997
 21
-119.6
  0
ARC
  5
4B
330
20
100
AcDbEntity
  8
10
  6
CONTINUOUS
100
AcDbCircle
 10
-27.0
 20
-113.5175803702686
 40
7.98241962973139
100
AcDbArc
 50
247.6434605857302
 51
292.3565394142697
  0
LINE
  5
4C
330
20
100
AcDbEntity
  8
10
  6
CONTINUOUS
100
AcDbLine
 10
146.3500000000001
 20
-119.6
 11
146.5
 21
-119.6
  0
LINE
  5
4D
330
20
100
AcDbEntity
  8
10
  6
CONTINUOUS
100
AcDbLine
 10
146.5
 20
-119.6
 11
152.6500000000001
 21
-119.6
  0
LINE
  5
4E
330
20
100
AcDbEntity
  8
10
  6
CONTINUOUS
100
AcDbLine
 10
152.5362647374163
 20
-120.9
 11
152.6500000000001
 21
-119.6
  0
LINE
  5
4F
330
20
100
AcDbEntity
  8
10
  6
CONTINUOUS
100
AcDbLine
 10
146.4637352625837
 20
-120.9
 11
152.5362647374163
 21
-120.9
  0
LINE
  5
50
330
20
100
AcDbEntity
  8
10
  6
CONTINUOUS
100
AcDbLine
 10
146.4637352625837
 20
-120.9
 11
146.3500000000001
 21
-119.6
  0
ARC
  5
51
330
20
100
AcDbEntity
  8
10
  6
CONTINUOUS
100
AcDbCircle
 10
149.5
 20
-113.5175803702686
 40
7.98241962973139
100
AcDbArc
 50
247.6434605857297
 51
292.3565394142703
  0
LINE
  5
52
330
20
100
AcDbEntity
  8
10
  6
CONTINUOUS
100
AcDbLine
 10
176.6500000000001
 20
-119.6
 11
176.5
 21
-119.6
  0
LINE
  5
53
330
20
100
AcDbEntity
  8
10
  6
CONTINUOUS
100
AcDbLine
 10
176.5
 20
-119.6
 11
170.3500000000001
 21
-119.6
  0
LINE
  5
54
330
20
100
AcDbEntity
  8
10
  6
CONTINUOUS
100
AcDbLine
 10
170.4637352625837
 20
-120.9
 11
170.3500000000001
 21
-119.6
  0
LINE
  5
55
330
20
100
AcDbEntity
  8
10
  6
CONTINUOUS
100
AcDbLine
 10
176.5362647374163
 20
-120.9
 11
170.4637352625837
 21
-120.9
  0
LINE
  5
56
330
20
100
AcDbEntity
  8
10
  6
CONTINUOUS
100
AcDbLine
 10
176.5362647374163
 20
-120.9
 11
176.6500000000001
 21
-119.6
  0
ARC
  5
57
330
20
100
AcDbEntity
  8
10
  6
CONTINUOUS
100
AcDbCircle
 10
173.5
 20
-113.5175803702686
 40
7.98241962973139
100
AcDbArc
 50
247.6434605857297
 51
292.3565394142703
  0
ARC
  5
58
330
20
100
AcDbEntity
  8
100
  6
CONTINUOUS
100
AcDbCircle
 10
0.0
 20
0.0
 40
90.49999999999999
100
AcDbArc
 50
289.3593414082968
 51
0.0
  0
ARC
  5
59
330
20
100
AcDbEntity
  8
100
  6
CONTINUOUS
100
AcDbCircle
 10
0.0
 20
0.0
 40
90.5
100
AcDbArc
 50
0.0
 51
250.6406585917032
  0
CIRCLE
  5
5A
330
20
100
AcDbEntity
  8
100
  6
CONTINUOUS
100
AcDbCircle
 10
0.0
 20
0.0
 40
40.0
  0
CIRCLE
  5
5B
330
20
100
AcDbEntity
  8
100
  6
CENTER
100
AcDbCircle
 10
0.0
 20
0.0
 40
46.5
  0
CIRCLE
  5
5C
330
20
100
AcDbEntity
  8
100
  6
CONTINUOUS
100
AcDbCircle
 10
-17.79477960497668
 20
42.96039826177484
 40
4.5
  0
CIRCLE
  5
5D
330
20
100
AcDbEntity
  8
100
  6
CONTINUOUS
100
AcDbCircle
 10
-42.96039826177484
 20
17.79477960497668
 40
4.5
  0
CIRCLE
  5
5E
330
20
100
AcDbEntity
  8
100
  6
CONTINUOUS
100
AcDbCircle
 10
-42.96039826177483
 20
-17.79477960497667
 40
4.5
  0
CIRCLE
  5
5F
330
20
100
AcDbEntity
  8
100
  6
CONTINUOUS
100
AcDbCircle
 10
-17.79477960497668
 20
-42.96039826177483
 40
4.5
  0
CIRCLE
  5
60
330
20
100
AcDbEntity
  8
100
  6
CONTINUOUS
100
AcDbCircle
 10
17.79477960497666
 20
-42.96039826177483
 40
4.5
  0
CIRCLE
  5
61
330
20
100
AcDbEntity
  8
100
  6
CONTINUOUS
100
AcDbCircle
 10
42.96039826177483
 20
-17.79477960497669
 40
4.5
  0
CIRCLE
  5
62
330
20
100
AcDbEntity
  8
100
  6
CONTINUOUS
100
AcDbCircle
 10
42.96039826177483
 20
17.79477960497665
 40
4.5
  0
CIRCLE
  5
63
330
20
100
AcDbEntity
  8
100
  6
CONTINUOUS
100
AcDbCircle
 10
17.79477960497669
 20
42.96039826177482
 40
4.5
  0
LINE
  5
64
330
20
100
AcDbEntity
  8
100
  6
CENTER
100
AcDbLine
 10
-12.24586983568285
 20
29.56414504036118
 11
-23.34368937427044
 21
56.35665148318849
  0
LINE
  5
65
330
20
100
AcDbEntity
  8
100
  6
CENTER
100
AcDbLine
 10
-29.56414504036115
 20
12.24586983568289
 11
-56.35665148318847
 21
23.3436893742705
  0
LINE
  5
66
330
20
100
AcDbEntity
  8
100
  6
CENTER
100
AcDbLine
 10
-29.56414504036118
 20
-12.24586983568284
 11
-56.3566514831885
 21
-23.34368937427044
  0
LINE
  5
67
330
20
100
AcDbEntity
  8
100
  6
CENTER
100
AcDbLine
 10
-12.2458698356829
 20
-29.56414504036115
 11
-23.3436893742705
 21
-56.35665148318847
  0
LINE
  5
68
330
20
100
AcDbEntity
  8
100
  6
CENTER
100
AcDbLine
 10
12.24586983568283
 20
-29.56414504036117
 11
23.34368937427044
 21
-56.35665148318851
  0
LINE
  5
69
330
20
100
AcDbEntity
  8
100
  6
CENTER
100
AcDbLine
 10
29.56414504036115
 20
-12.2458698356829
 11
56.35665148318847
 21
-23.34368937427051
  0
LINE
  5
6A
330
20
100
AcDbEntity
  8
100
  6
CENTER
100
AcDbLine
 10
29.56414504036117
 20
12.24586983568283
 11
56.35665148318851
 21
23.34368937427042
  0
CIRCLE
  5
6B
330
20
100
AcDbEntity
  8
100
  6
CONTINUOUS
100
AcDbCircle
 10
0.0
 20
0.0
 40
55.0
  0
CIRCLE
  5
6C
330
20
100
AcDbEntity
  8
100
  6
CONTINUOUS
100
AcDbCircle
 10
0.0
 20
0.0
 40
70.0
  0
LINE
  5
6D
330
20
100
AcDbEntity
  8
100
  6
CENTER
100
AcDbLine
 10
60.51410937948928
 20
25.06576481991332
 11
87.30661582231662
 21
36.1635843585009
  0
CIRCLE
  5
6E
330
20
100
AcDbEntity
  8
100
  6
CONTINUOUS
100
AcDbCircle
 10
71.13872400336911
 20
29.46662429211185
 40
4.5
  0
LINE
  5
6F
330
20
100
AcDbEntity
  8
100
  6
CONTINUOUS
100
AcDbLine
 10
146.5
 20
-81.59999999999999
 11
176.5
 21
-81.60000000000001
  0
LINE
  5
70
330
20
100
AcDbEntity
  8
100
  6
CENTER
100
AcDbLine
 10
130.0
 20
0.0
 11
195.0
 21
0.0
  0
LINE
  5
71
330
20
100
AcDbEntity
  8
100
  6
CONTINUOUS
100
AcDbLine
 10
177.5
 20
-90.5
 11
181.5
 21
-90.5
  0
LINE
  5
72
330
20
100
AcDbEntity
  8
100
  6
CONTINUOUS
100
AcDbLine
 10
177.5
 20
90.5
 11
177.5
 21
-90.5
  0
LINE
  5
73
330
20
100
AcDbEntity
  8
100
  6
CONTINUOUS
100
AcDbLine
 10
145.5
 20
-55.0
 11
146.5
 21
-54.99999999999999
  0
LINE
  5
74
330
20
100
AcDbEntity
  8
100
  6
CONTINUOUS
100
AcDbLine
 10
145.5
 20
55.0
 11
145.5
 21
-55.0
  0
LINE
  5
75
330
20
100
AcDbEntity
  8
100
  6
CONTINUOUS
100
AcDbLine
 10
143.0
 20
-40.0
 11
145.5
 21
-40.0
  0
LINE
  5
76
330
20
100
AcDbEntity
  8
100
  6
CONTINUOUS
100
AcDbLine
 10
142.5
 20
39.5
 11
142.5
 21
-39.5
  0
LINE
  5
77
330
20
100
AcDbEntity
  8
100
  6
CONTINUOUS
100
AcDbLine
 10
146.5
 20
-119.6
 11
146.5
 21
86.00000000000001
  0
LINE
  5
78
330
20
100
AcDbEntity
  8
100
  6
CONTINUOUS
100
AcDbLine
 10
181.5
 20
-90.5
 11
182.5
 21
-89.5
  0
LINE
  5
79
330
20
100
AcDbEntity
  8
100
  6
CENTER
100
AcDbLine
 10
0.0
 20
0.0
 11
-100.5
 21
0.0
  0
LINE
  5
7A
330
20
100
AcDbEntity
  8
100
  6
CENTER
100
AcDbLine
 10
12.24586983568289
 20
29.56414504036116
 11
23.3436893742705
 21
56.35665148318847
  0
LINE
  5
7B
330
20
100
AcDbEntity
  8
100
  6
CONTINUOUS
100
AcDbLine
 10
177.5
 20
90.5
 11
181.5
 21
90.5
  0
LINE
  5
7C
330
20
100
AcDbEntity
  8
100
  6
CONTINUOUS
100
AcDbLine
 10
147.5
 20
87.00000000000001
 11
177.5
 21
87.0
  0
LINE
  5
7D
330
20
100
AcDbEntity
  8
100
  6
CONTINUOUS
100
AcDbLine
 10
145.5
 20
55.0
 11
146.5
 21
54.99999999999999
  0
LINE
  5
7E
330
20
100
AcDbEntity
  8
100
  6
CONTINUOUS
100
AcDbLine
 10
143.0
 20
40.0
 11
145.5
 21
40.0
  0
LINE
  5
7F
330
20
100
AcDbEntity
  8
100
  6
CONTINUOUS
100
AcDbLine
 10
181.5
 20
90.5
 11
182.5
 21
89.5
  0
LINE
  5
80
330
20
100
AcDbEntity
  8
100
  6
CONTINUOUS
100
AcDbLine
 10
146.5
 20
86.00000000000001
 11
147.5
 21
87.00000000000001
  0
LINE
  5
81
330
20
100
AcDbEntity
  8
100
  6
CONTINUOUS
100
AcDbLine
 10
182.5
 20
89.5
 11
182.5
 21
-89.5
  0
CIRCLE
  5
82
330
20
100
AcDbEntity
  8
100
  6
CONTINUOUS
100
AcDbCircle
 10
0.0
 20
0.0
 40
36.0
  0
LINE
  5
83
330
20
100
AcDbEntity
  8
100
  6
CONTINUOUS
100
AcDbLine
 10
142.5
 20
39.5
 11
143.0
 21
40.0
  0
LINE
  5
84
330
20
100
AcDbEntity
  8
100
  6
CONTINUOUS
100
AcDbLine
 10
143.0
 20
-40.0
 11
142.5
 21
-39.5
  0
CIRCLE
  5
85
330
20
100
AcDbEntity
  8
100
  6
CENTER
100
AcDbCircle
 10
0.0
 20
0.0
 40
77.0
  0
CIRCLE
  5
86
330
20
100
AcDbEntity
  8
100
  6
CONTINUOUS
100
AcDbCircle
 10
29.46662429211199
 20
71.13872400336905
 40
4.5
  0
LINE
  5
87
330
20
100
AcDbEntity
  8
100
  6
CENTER
100
AcDbLine
 10
25.06576481991343
 20
60.51410937948923
 11
36.16358435850106
 21
87.30661582231654
  0
LINE
  5
88
330
20
100
AcDbEntity
  8
100
  6
CENTER
100
AcDbLine
 10
-25.06576481991331
 20
60.51410937948928
 11
-36.16358435850088
 21
87.30661582231662
  0
CIRCLE
  5
89
330
20
100
AcDbEntity
  8
100
  6
CONTINUOUS
100
AcDbCircle
 10
-29.46662429211184
 20
71.13872400336912
 40
4.5
  0
CIRCLE
  5
8A
330
20
100
AcDbEntity
  8
100
  6
CONTINUOUS
100
AcDbCircle
 10
-71.13872400336905
 20
29.466624292112
 40
4.5
  0
LINE
  5
8B
330
20
100
AcDbEntity
  8
100
  6
CENTER
100
AcDbLine
 10
-60.51410937948923
 20
25.06576481991344
 11
-87.30661582231653
 21
36.16358435850106
  0
CIRCLE
  5
8C
330
20
100
AcDbEntity
  8
100
  6
CONTINUOUS
100
AcDbCircle
 10
-71.13872400336913
 20
-29.46662429211183
 40
4.5
  0
LINE
  5
8D
330
20
100
AcDbEntity
  8
100
  6
CENTER
100
AcDbLine
 10
-60.51410937948928
 20
-25.06576481991329
 11
-87.30661582231662
 21
-36.16358435850087
  0
CIRCLE
  5
8E
330
20
100
AcDbEntity
  8
100
  6
CONTINUOUS
100
AcDbCircle
 10
-29.46662429211202
 20
-71.13872400336905
 40
4.5
  0
LINE
  5
8F
330
20
100
AcDbEntity
  8
100
  6
CENTER
100
AcDbLine
 10
-25.06576481991345
 20
-60.51410937948921
 11
-36.16358435850108
 21
-87.30661582231653
  0
CIRCLE
  5
90
330
20
100
AcDbEntity
  8
100
  6
CONTINUOUS
100
AcDbCircle
 10
29.46662429211182
 20
-71.13872400336913
 40
4.5
  0
LINE
  5
91
330
20
100
AcDbEntity
  8
100
  6
CENTER
100
AcDbLine
 10
25.06576481991328
 20
-60.51410937948928
 11
36.16358435850086
 21
-87.30661582231662
  0
CIRCLE
  5
92
330
20
100
AcDbEntity
  8
100
  6
CONTINUOUS
100
AcDbCircle
 10
71.13872400336904
 20
-29.46662429211202
 40
4.5
  0
LINE
  5
93
330
20
100
AcDbEntity
  8
100
  6
CENTER
100
AcDbLine
 10
60.51410937948921
 20
-25.06576481991345
 11
87.30661582231653
 21
-36.16358435850109
  0
ARC
  5
94
330
20
100
AcDbEntity
  8
100
  6
CONTINUOUS
100
AcDbCircle
 10
0.0
 20
0.0
 40
87.0
100
AcDbArc
 50
290.171271346465
 51
0.0
  0
ARC
  5
95
330
20
100
AcDbEntity
  8
100
  6
CONTINUOUS
100
AcDbCircle
 10
0.0
 20
0.0
 40
87.0
100
AcDbArc
 50
0.0
 51
249.828728653535
  0
LINE
  5
96
330
20
100
AcDbEntity
  8
100
  6
CONTINUOUS
100
AcDbLine
 10
176.5
 20
-87.0
 11
177.5
 21
-86.99999999999997
  0
ENDSEC
  0
SECTION
  2
OBJECTS
  0
DICTIONARY
  5
C
100
AcDbDictionary
281
     1
  3
ACAD_GROUP
350
D
  3
ACAD_MLINESTYLE
350
E
  3
ACDBVARIABLEDICTIONARY
350
97
  3
ACAD_PLOTSTYLENAME
350
98
  3
ACAD_LAYOUT
350
99
  3
ACAD_PLOTSETTINGS
350
9A
  0
DICTIONARY
  5
D
102
{ACAD_REACTORS
330
C
102
}
330
C
100
AcDbDictionary
281
     1
  0
DICTIONARY
  5
E
102
{ACAD_REACTORS
330
C
102
}
330
C
100
AcDbDictionary
281
     1
  3
STANDARD
350
13
  0
DICTIONARY
  5
97
102
{ACAD_REACTORS
330
C
102
}
330
C
100
AcDbDictionary
281
     1
  3
SORTENTS
350
9B
  0
ACDBDICTIONARYWDFLT
  5
98
102
{ACAD_REACTORS
330
C
102
}
330
C
100
AcDbDictionary
281
     1
  3
Normal
350
9C
100
AcDbDictionaryWithDefault
340
9C
  0
DICTIONARY
  5
99
102
{ACAD_REACTORS
330
C
102
}
330
C
100
AcDbDictionary
281
     1
  3
Model
350
9D
  0
DICTIONARY
  5
9A
102
{ACAD_REACTORS
330
C
102
}
330
C
100
AcDbDictionary
281
     1
  0
MLINESTYLE
  5
13
102
{ACAD_REACTORS
330
E
102
}
330
E
100
AcDbMlineStyle
  2
STANDARD
 70
     0
  3

 62
   256
 51
90.0
 52
90.0
 71
     2
 49
0.5
 62
   256
  6
BYLAYER
 49
-0.5
 62
   256
  6
BYLAYER
  0
DICTIONARYVAR
  5
9B
102
{ACAD_REACTORS
330
97
102
}
330
97
100
DictionaryVariables
280
     0
  1
96
  0
ACDBPLACEHOLDER
  5
9C
102
{ACAD_REACTORS
330
98
102
}
330
98
  0
LAYOUT
  5
9D
102
{ACAD_REACTORS
330
99
102
}
330
99
100
AcDbPlotSettings
  1

  2

  4

  6

 40
0.0
 41
0.0
 42
0.0
 43
0.0
 44
0.0
 45
0.0
 46
0.0
 47
0.0
 48
0.0
 49
0.0
140
0.0
141
0.0
142
1.0
143
1.0
 70
  1712
 72
     0
 73
     0
 74
     0
  7

 75
     0
147
1.0
148
0.0
149
0.0
100
AcDbLayout
  1
Model
 70
     1
 71
     0
 10
0.0
 20
0.0
 11
297.0
 21
210.0
 12
0.0
 22
0.0
 32
0.0
 14
0.0
 24
0.0
 34
0.0
 15
0.0
 25
0.0
 35
0.0
146
0.0
 13
0.0
 23
0.0
 33
0.0
 16
1.0
 26
0.0
 36
0.0
 17
0.0
 27
1.0
 37
0.0
 76
     0
330
20
  0
ENDSEC
  0
EOF
