  0
SECTION
  2
HEADER
  9
$ACADVER
  1
AC1015
  9
$ACADMAINTVER
 70
     0
  9
$DWGCODEPAGE
  3
ANSI_932
  9
$INSBASE
 10
0.0
 20
0.0
 30
0.0
  9
$EXTMIN
 10
-57.25
 20
-16.40000000000001
  9
$EXTMAX
 10
131.4292826761722
 20
141.4
  9
$LIMMIN
 10
-57.25
 20
-16.40000000000001
  9
$LIMMAX
 10
131.4292826761722
 20
141.4
  9
$ORTHOMODE
 70
     0
  9
$REGENMODE
 70
     1
  9
$FILLMODE
 70
     1
  9
$QTEXTMODE
 70
     0
  9
$MIRRTEXT
 70
     1
  9
$LTSCALE
 40
1.0
  9
$OSMODE
 70
     0
  9
$ATTMODE
 70
     1
  9
$TEXTSIZE
 40
3.0
  9
$TRACEWID
 40
0.5
  9
$TEXTSTYLE
  7
STANDARD
  9
$CLAYER
  8
0
  9
$CELTYPE
  6
BYLAYER
  9
$CECOLOR
 62
   256
  9
$CELTSCALE
 40
1.0
  9
$DISPSILH
 70
     0
  9
$DIMSCALE
 40
1.0
  9
$DIMASZ
 40
3.0
  9
$DIMEXO
 40
1.0
  9
$DIMDLI
 40
5.0
  9
$DIMRND
 40
0.0
  9
$DIMDLE
 40
5.0
  9
$DIMEXE
 40
2.0
  9
$DIMTP
 40
0.0
  9
$DIMTM
 40
0.0
  9
$DIMTXT
 40
3.0
  9
$DIMCEN
 40
2.0
  9
$DIMTSZ
 40
0.0
  9
$DIMTOL
 70
     0
  9
$DIMLIM
 70
     0
  9
$DIMTIH
 70
     0
  9
$DIMTOH
 70
     0
  9
$DIMSE1
 70
     0
  9
$DIMSE2
 70
     0
  9
$DIMTAD
 70
     1
  9
$DIMZIN
 70
     8
  9
$DIMBLK
  1

  9
$DIMASO
 70
     1
  9
$DIMSHO
 70
     1
  9
$DIMPOST
  1

  9
$DIMAPOST
  1

  9
$DIMALT
 70
     0
  9
$DIMALTD
 70
     4
  9
$DIMALTF
 40
25.4
  9
$DIMLFAC
 40
1.0
  9
$DIMTOFL
 70
     1
  9
$DIMTVP
 40
1.0
  9
$DIMTIX
 70
     0
  9
$DIMSOXD
 70
     0
  9
$DIMSAH
 70
     0
  9
$DIMBLK1
  1

  9
$DIMBLK2
  1

  9
$DIMSTYLE
  2
ISO-25
  9
$DIMCLRD
 70
     0
  9
$DIMCLRE
 70
     0
  9
$DIMCLRT
 70
     0
  9
$DIMTFAC
 40
1.0
  9
$DIMGAP
 40
0.5
  9
$DIMJUST
 70
     0
  9
$DIMSD1
 70
     0
  9
$DIMSD2
 70
     0
  9
$DIMTOLJ
 70
     1
  9
$DIMTZIN
 70
     1
  9
$DIMALTZ
 70
     0
  9
$DIMALTTZ
 70
     0
  9
$DIMUPT
 70
     0
  9
$DIMDEC
 70
     3
  9
$DIMTDEC
 70
     3
  9
$DIMALTU
 70
     8
  9
$DIMALTTD
 70
     4
  9
$DIMTXSTY
  7
STANDARD
  9
$DIMAUNIT
 70
     0
  9
$DIMADEC
 70
     0
  9
$DIMALTRND
 40
0.0
  9
$DIMAZIN
 70
     0
  9
$DIMDSEP
 70
    46
  9
$DIMATFIT
 70
     3
  9
$DIMFRAC
 70
     0
  9
$DIMLDRBLK
  1

  9
$DIMLUNIT
 70
     2
  9
$DIMLWD
 70
    -2
  9
$DIMLWE
 70
    -2
  9
$DIMTMOVE
 70
     0
  9
$LUNITS
 70
     2
  9
$LUPREC
 70
     4
  9
$SKETCHINC
 40
1.0
  9
$FILLETRAD
 40
0.0
  9
$AUNITS
 70
     0
  9
$AUPREC
 70
     0
  9
$MENU
  1
.
  9
$ELEVATION
 40
0.0
  9
$PELEVATION
 40
0.0
  9
$THICKNESS
 40
0.0
  9
$LIMCHECK
 70
     0
  9
$CHAMFERA
 40
0.0
  9
$CHAMFERB
 40
0.0
  9
$CHAMFERC
 40
0.0
  9
$CHAMFERD
 40
0.0
  9
$SKPOLY
 70
     0
  9
$TDCREATE
 40
2455736.679895833
  9
$TDUCREATE
 40
2455736.679895833
  9
$TDUPDATE
 40
2455736.679895833
  9
$TDUUPDATE
 40
2455736.679895833
  9
$TDINDWG
 40
0.0
  9
$TDUSRTIMER
 40
0.0
  9
$USRTIMER
 70
     1
  9
$ANGBASE
 50
0.0
  9
$ANGDIR
 70
     0
  9
$PDMODE
 70
     0
  9
$PDSIZE
 40
0.0
  9
$PLINEWID
 40
0.0
  9
$SPLFRAME
 70
     0
  9
$SPLINETYPE
 70
     6
  9
$SPLINESEGS
 70
     8
  9
$HANDSEED
  5
EA
  9
$SURFTAB1
 70
     6
  9
$SURFTAB2
 70
     6
  9
$SURFTYPE
 70
     6
  9
$SURFU
 70
     6
  9
$SURFV
 70
     6
  9
$UCSBASE
  2

  9
$UCSNAME
  2

  9
$UCSORG
 10
0.0
 20
0.0
 30
0.0
  9
$UCSXDIR
 10
1.0
 20
0.0
 30
0.0
  9
$UCSYDIR
 10
0.0
 20
1.0
 30
0.0
  9
$UCSORTHOREF
  2

  9
$UCSORTHOVIEW
 70
     0
  9
$UCSORGTOP
 10
0.0
 20
0.0
 30
0.0
  9
$UCSORGBOTTOM
 10
0.0
 20
0.0
 30
0.0
  9
$UCSORGLEFT
 10
0.0
 20
0.0
 30
0.0
  9
$UCSORGRIGHT
 10
0.0
 20
0.0
 30
0.0
  9
$UCSORGFRONT
 10
0.0
 20
0.0
 30
0.0
  9
$UCSORGBACK
 10
0.0
 20
0.0
 30
0.0
  9
$PUCSBASE
  2

  9
$PUCSNAME
  2

  9
$PUCSORG
 10
0.0
 20
0.0
 30
0.0
  9
$PUCSXDIR
 10
1.0
 20
0.0
 30
0.0
  9
$PUCSYDIR
 10
0.0
 20
1.0
 30
0.0
  9
$PUCSORTHOREF
  2

  9
$PUCSORTHOVIEW
 70
     0
  9
$PUCSORGTOP
 10
0.0
 20
0.0
 30
0.0
  9
$PUCSORGBOTTOM
 10
0.0
 20
0.0
 30
0.0
  9
$PUCSORGLEFT
 10
0.0
 20
0.0
 30
0.0
  9
$PUCSORGRIGHT
 10
0.0
 20
0.0
 30
0.0
  9
$PUCSORGFRONT
 10
0.0
 20
0.0
 30
0.0
  9
$PUCSORGBACK
 10
0.0
 20
0.0
 30
0.0
  9
$USERI1
 70
     0
  9
$USERI2
 70
     0
  9
$USERI3
 70
     0
  9
$USERI4
 70
     0
  9
$USERI5
 70
     0
  9
$USERR1
 40
0.0
  9
$USERR2
 40
0.0
  9
$USERR3
 40
0.0
  9
$USERR4
 40
0.0
  9
$USERR5
 40
0.0
  9
$WORLDVIEW
 70
     1
  9
$SHADEDGE
 70
     3
  9
$SHADEDIF
 70
    70
  9
$MAXACTVP
 70
    16
  9
$PINSBASE
 10
0.0
 20
0.0
 30
0.0
  9
$PLIMCHECK
 70
     0
  9
$PEXTMIN
 10
1.000000000000000E+020
 20
1.000000000000000E+020
 30
1.000000000000000E+020
  9
$PEXTMAX
 10
-1.000000000000000E+020
 20
-1.000000000000000E+020
 30
-1.000000000000000E+020
  9
$PLIMMIN
 10
-57.25
 20
-16.40000000000001
  9
$PLIMMAX
 10
131.4292826761722
 20
141.4
  9
$UNITMODE
 70
     0
  9
$VISRETAIN
 70
     0
  9
$PLINEGEN
 70
     0
  9
$PSLTSCALE
 70
     0
  9
$TREEDEPTH
 70
  3020
  9
$CMLSTYLE
  2
STANDARD
  9
$CMLJUST
 70
     0
  9
$CMLSCALE
 40
1.0
  9
$PROXYGRAPHICS
 70
     1
  9
$MEASUREMENT
 70
     0
  9
$CELWEIGHT
370
    -3
  9
$ENDCAPS
280
     0
  9
$JOINSTYLE
280
     0
  9
$LWDISPLAY
290
     1
  9
$INSUNITS
 70
     0
  9
$HYPERLINKBASE
  1

  9
$STYLESHEET
  1

  9
$XEDIT
290
     1
  9
$CEPSNTYPE
380
     0
  9
$PSTYLEMODE
290
     1
  9
$FINGERPRINTGUID
  2
{6F25CFC2-5053-11D3-9BE9-00805F4AB38E}
  9
$VERSIONGUID
  2
{6F25CFC5-5053-11D3-9BE9-00805F4AB38E}
  9
$EXTNAMES
290
     1
  9
$PSVPSCALE
 40
0.0
  9
$OLESTARTUP
290
     0
  0
ENDSEC
  0
SECTION
  2
CLASSES
  0
CLASS
  1
LWPOLYLINE
  2
AcDbPolyline
  3
AutoCAD 2000
 90
    32768
280
     0
281
     1
  0
CLASS
  1
DICTIONARYVAR
  2
AcDbDictionaryVar
  3
AutoCAD 2000
 90
        0
280
     0
281
     1
  0
CLASS
  1
ACDBDICTIONARYWDFLT
  2
AcDbDictionaryWithDefault
  3
AutoCAD 2000
 90
        0
280
     0
281
     1
  0
CLASS
  1
ACDBPLACEHOLDER
  2
AcDbPlaceHolder
  3
AutoCAD 2000
 90
        0
280
     0
281
     1
  0
CLASS
  1
LAYOUT
  2
AcDbLayout
  3
AutoCAD 2000
 90
        0
280
     0
281
     1
  0
CLASS
  1
HATCH
  2
AcDbHatch
  3
AutoCAD 2000
 90
        0
280
     0
281
     1
  0
ENDSEC
  0
SECTION
  2
TABLES
  0
TABLE
  2
VPORT
  5
8
100
AcDbSymbolTable
 70
     1
  0
VPORT
  5
E1
330
0
100
AcDbSymbolTableRecord
100
AcDbViewportTableRecord
  2
*ACTIVE
 70
     0
 10
0.0
 20
0.0
 11
1.0
 21
1.0
 12
37.0896413380861
 22
62.5
 13
0.0
 23
0.0
 14
0.0
 24
0.0
 15
0.0
 25
0.0
 16
0.0
 26
0.0
 36
1.0
 17
0.0
 27
0.0
 37
0.0
 40
157.8
 41
1.5
 42
50.0
 43
0.0
 44
0.0
 50
0.0
 51
0.0
 71
     0
 72
   100
 73
     1
 74
     1
 75
     0
 76
     0
 77
     0
 78
     0
281
     0
 65
     1
110
0.0
120
0.0
130
0.0
111
1.0
121
0.0
131
0.0
112
0.0
122
1.0
132
0.0
 79
     0
146
0.0
  0
ENDTAB
  0
TABLE
  2
LTYPE
  5
5
330
0
100
AcDbSymbolTable
 70
    20
  0
LTYPE
  5
E2
330
5
100
AcDbSymbolTableRecord
100
AcDbLinetypeTableRecord
  2
BYBLOCK
 70
     0
  3

 72
    65
 73
     0
 40
0.0
  0
LTYPE
  5
E3
330
5
100
AcDbSymbolTableRecord
100
AcDbLinetypeTableRecord
  2
BYLAYER
 70
     0
  3

 72
    65
 73
     0
 40
0.0
  0
LTYPE
  5
E4
330
5
100
AcDbSymbolTableRecord
100
AcDbLinetypeTableRecord
  2
CONTINUOUS
 70
    64
  3
solid line
 72
    65
 73
     0
 40
0.0
  0
LTYPE
  5
E5
330
0
100
AcDbSymbolTableRecord
100
AcDbLinetypeTableRecord
  2
DASHED
 70
    64
  3
-- -- -- -- -- -- -- -- -- -- 
 72
    65
 73
     2
 40
3.0
 49
2.0
 74
     0
 49
-1.0
 74
     0
  0
ENDTAB
  0
TABLE
  2
LAYER
  5
2
330
0
100
AcDbSymbolTable
 70
    20
  0
LAYER
  5
E6
330
2
100
AcDbSymbolTableRecord
100
AcDbLayerTableRecord
  2
0
 70
    64
 62
     7
  6
CONTINUOUS
370
    -3
390
DD
  0
ENDTAB
  0
TABLE
  2
STYLE
  5
3
330
0
100
AcDbSymbolTable
 70
     4
  0
STYLE
  5
E7
330
3
100
AcDbSymbolTableRecord
100
AcDbTextStyleTableRecord
  2
STANDARD
 70
    64
 40
0.0
 41
1.0
 50
0.0
 71
     0
 42
3.0
  3
txt
  4

  0
ENDTAB
  0
TABLE
  2
VIEW
  5
6
330
0
100
AcDbSymbolTable
 70
     0
  0
ENDTAB
  0
TABLE
  2
UCS
  5
7
330
0
100
AcDbSymbolTable
 70
     0
  0
ENDTAB
  0
TABLE
  2
APPID
  5
9
330
0
100
AcDbSymbolTable
 70
     1
  0
APPID
  5
E8
330
9
100
AcDbSymbolTableRecord
100
AcDbRegAppTableRecord
  2
ACAD
 70
     0
  0
ENDTAB
  0
TABLE
  2
DIMSTYLE
  5
A
330
0
100
AcDbSymbolTable
 70
     8
100
AcDbDimStyleTable
 71
     0
  0
DIMSTYLE
105
E9
330
A
100
AcDbSymbolTableRecord
100
AcDbDimStyleTableRecord
  2
ISO-25
 70
     0
  3

  4

  5

  6

  7

 40
1.0
 41
3.0
 42
1.0
 43
5.0
 44
2.0
 45
0.0
 46
5.0
 47
0.0
 48
0.0
140
3.0
141
2.0
142
0.0
143
25.4
144
1.0
145
1.0
146
1.0
147
0.5
 71
     0
 72
     0
 73
     0
 74
     0
 75
     0
 76
     0
 77
     1
 78
     8
170
     0
171
     0
172
     1
173
     0
174
     0
175
     0
176
     0
177
     0
178
     0
270
     2
271
     3
272
     3
273
     8
274
     4
340
E7
275
     0
280
     0
281
     0
282
     0
283
     1
284
     1
285
     0
286
     0
287
     3
288
     0
  0
ENDTAB
  0
TABLE
  2
BLOCK_RECORD
  5
1
330
0
100
AcDbSymbolTable
 70
     2
  0
BLOCK_RECORD
  5
20
330
1
100
AcDbSymbolTableRecord
100
AcDbBlockTableRecord
  2
*MODEL_SPACE
340
DE
  0
BLOCK_RECORD
  5
22
330
1
100
AcDbSymbolTableRecord
100
AcDbBlockTableRecord
  2
*PAPER_SPACE
340
0
  0
BLOCK_RECORD
  5
AB
330
1
100
AcDbSymbolTableRecord
100
AcDbBlockTableRecord
  2
OIMLNAME_SMALL_0001
340
0
102
{BLKREFS
331
AC
102
}
  0
ENDTAB
  0
ENDSEC
  0
SECTION
  2
BLOCKS
  0
BLOCK
  5
21
330
20
100
AcDbEntity
  8
0
100
AcDbBlockBegin
  2
*MODEL_SPACE
 70
     0
 10
0.0
 20
0.0
 30
0.0
  3
*MODEL_SPACE
  1

  0
ENDBLK
  5
DF
330
20
100
AcDbEntity
  8
0
100
AcDbBlockEnd
  0
BLOCK
  5
23
330
22
100
AcDbEntity
 67
     1
  8
0
100
AcDbBlockBegin
  2
*PAPER_SPACE
 70
     0
 10
0.0
 20
0.0
 30
0.0
  3
*PAPER_SPACE
  1

  0
ENDBLK
  5
E0
330
22
100
AcDbEntity
 67
     1
  8
0
100
AcDbBlockEnd
  0
BLOCK
  5
AD
330
AB
100
AcDbEntity
  8
0
100
AcDbBlockBegin
  2
OIMLNAME_SMALL_0001
 70
    64
 10
0.0
 20
0.0
  0
LINE
  5
AE
330
AB
100
AcDbEntity
  8
0
  6
CONTINUOUS
 62
     1
100
AcDbLine
 10
18.0
 20
-8.0
 11
-18.0
 21
-8.0
  0
LINE
  5
AF
330
AB
100
AcDbEntity
  8
0
  6
CONTINUOUS
 62
     1
100
AcDbLine
 10
18.0
 20
8.0
 11
-18.0
 21
8.0
  0
LINE
  5
B0
330
AB
100
AcDbEntity
  8
0
  6
CONTINUOUS
 62
     1
100
AcDbLine
 10
-20.0
 20
6.0
 11
-20.0
 21
-6.0
  0
LINE
  5
B1
330
AB
100
AcDbEntity
  8
0
  6
CONTINUOUS
 62
     1
100
AcDbLine
 10
20.0
 20
6.0
 11
20.0
 21
-6.0
  0
ARC
  5
B2
330
AB
100
AcDbEntity
  8
0
  6
CONTINUOUS
 62
     1
100
AcDbCircle
 10
-18.0
 20
-6.0
 40
2.0
100
AcDbArc
 50
180.0
 51
270.0
  0
ARC
  5
B3
330
AB
100
AcDbEntity
  8
0
  6
CONTINUOUS
 62
     1
100
AcDbCircle
 10
18.0
 20
-6.0
 40
2.0
100
AcDbArc
 50
270.0
 51
0.0
  0
ARC
  5
B4
330
AB
100
AcDbEntity
  8
0
  6
CONTINUOUS
 62
     1
100
AcDbCircle
 10
18.0
 20
6.0
 40
2.0
100
AcDbArc
 50
0.0
 51
90.0
  0
ARC
  5
B5
330
AB
100
AcDbEntity
  8
0
  6
CONTINUOUS
 62
     1
100
AcDbCircle
 10
-18.0
 20
6.0
 40
2.0
100
AcDbArc
 50
90.0
 51
180.0
  0
LWPOLYLINE
  5
B6
330
AB
100
AcDbEntity
  8
0
  6
CONTINUOUS
 62
     1
100
AcDbPolyline
 90
      186
 70
     0
 43
0.0
 10
8.125
 20
-4.5
 10
8.109239990251894
 20
-4.541492234101384
 10
8.066162630273738
 20
-4.654904340645174
 10
8.002071923964792
 20
-4.823639425990834
 10
7.923271875224273
 20
-5.031100596497765
 10
7.836066487951428
 20
-5.260690958525458
 10
7.746759766045514
 20
-5.495813618433317
 10
7.66165571340575
 20
-5.719871682580816
 10
7.587058333931395
 20
-5.916268257327388
 10
7.527870741763877
 20
-6.072094647619267
 10
7.483392492028514
 20
-6.189194952749858
 10
7.451522250092154
 20
-6.273101470599329
 10
7.430158681321629
 20
-6.329346499047887
 10
7.417200451083772
 20
-6.363462335975683
 10
7.410546224745403
 20
-6.38098127926294
 10
7.408094667673382
 20
-6.387435626789824
 10
7.407744445234528
 20
-6.388357676436527
 10
7.407726378696609
 20
-6.388405928754082
 10
7.407599912931246
 20
-6.388743694977052
 10
7.40725664871097
 20
-6.389660489010836
 10
7.406588186808335
 20
-6.391445824760837
 10
7.405486127995886
 20
-6.394389216132439
 10
7.40384207304615
 20
-6.398780177031071
 10
7.401547622731698
 20
-6.404908221362135
 10
7.398494377825074
 20
-6.413062863031016
 10
7.370606823817127
 20
-6.47887605005198
 10
7.339516117476478
 20
-6.531939547506227
 10
7.291193655041425
 20
-6.589382500935187
 10
7.204612238323236
 20
-6.671362520459539
 10
7.135051374641947
 20
-6.730551712740464
 10
7.070452631411257
 20
-6.772029509600031
 10
6.997925982704842
 20
-6.804092209401716
 10
6.916722051097736
 20
-6.826579620300137
 10
6.795775456055168
 20
-6.84306531449252
 10
6.655376653037394
 20
-6.847319679636485
 10
6.514303313499227
 20
-6.838775120479355
 10
6.394722827788684
 20
-6.818703744841102
 10
6.322308701649916
 20
-6.795691152493447
 10
6.262256295356821
 20
-6.764794520440347
 10
6.213569741542273
 20
-6.726043533544697
 10
6.165944082520284
 20
-6.67121723143876
 10
6.107133138833575
 20
-6.591541774964128
 10
6.079451714570922
 20
-6.534197580971593
 10
6.069638850267467
 20
-6.480575142137965
 10
6.070213754573757
 20
-6.414031456485446
 10
6.07076525692861
 20
-6.405784897753364
 10
6.071179699526653
 20
-6.399587779652933
 10
6.071476662333112
 20
-6.39514732495104
 10
6.07167572531327
 20
-6.392170756414629
 10
6.071796468432382
 20
-6.390365296810558
 10
6.071858471655716
 20
-6.38943816890577
 10
6.071881314948513
 20
-6.389096595467166
 10
6.07188457827607
 20
-6.389047799261647
 10
6.071898861245828
 20
-6.38867496409128
 10
6.071998842034191
 20
-6.386065117898738
 10
6.072270218459707
 20
-6.37898124966182
 10
6.07279868834101
 20
-6.36518634835835
 10
6.073669949496647
 20
-6.34244340296614
 10
6.074969699745225
 20
-6.308515402463002
 10
6.076783636905333
 20
-6.261165335826775
 10
6.079197458795562
 20
-6.198156192035242
 10
6.082254014325514
 20
-6.118369465573409
 10
6.085824756767494
 20
-6.025160672978458
 10
6.089738290484178
 20
-5.923003836294782
 10
6.093823219838214
 20
-5.816372977566715
 10
6.09790814919225
 20
-5.709742118838676
 10
6.101821682908934
 20
-5.607585282154986
 10
6.105392425350914
 20
-5.514376489560036
 10
6.108448980880866
 20
-5.434589763098188
 10
6.110862802775941
 20
-5.371580619303202
 10
6.112676739939687
 20
-5.324230552664375
 10
6.113976490190879
 20
-5.290302552159375
 10
6.114847751348279
 20
-5.267559606765914
 10
6.115376221230633
 20
-5.253764705461691
 10
6.115647597656704
 20
-5.246680837224375
 10
6.115747578445252
 20
-5.244070991031691
 10
6.115761861415052
 20
-5.24369815586131
 10
6.115759165622734
 20
-5.24369815586131
 10
6.115740295076478
 20
-5.24369815586131
 10
6.115689075022402
 20
-5.24369815586131
 10
6.115589330706541
 20
-5.24369815586131
 10
6.115424887374985
 20
-5.24369815586131
 10
6.115179570273824
 20
-5.24369815586131
 10
6.11483720464912
 20
-5.24369815586131
 10
6.114381615746964
 20
-5.24369815586131
 10
6.113804716193428
 20
-5.24369815586131
 10
6.113130768116804
 20
-5.24369815586131
 10
6.112392121024641
 20
-5.24369815586131
 10
6.111621124424545
 20
-5.24369815586131
 10
6.110850127824122
 20
-5.24369815586131
 10
6.110111480730936
 20
-5.24369815586131
 10
6.109437532652578
 20
-5.24369815586131
 10
6.10886063309664
 20
-5.24369815586131
 10
6.108405044199316
 20
-5.24369815586131
 10
6.108062678578264
 20
-5.24369815586131
 10
6.107817361479704
 20
-5.24369815586131
 10
6.10765291814991
 20
-5.24369815586131
 10
6.107553173835115
 20
-5.24369815586131
 10
6.107501953781565
 20
-5.24369815586131
 10
6.107483083235536
 20
-5.24369815586131
 10
6.107480387443246
 20
-5.24369815586131
 10
6.107239208620882
 20
-5.244071239328349
 10
6.105550956864391
 20
-5.24668282359761
 10
6.100968559239618
 20
-5.253771409471341
 10
6.09204494281245
 20
-5.26757549775175
 10
6.077333034648731
 20
-5.290333589241072
 10
6.055385761814335
 20
-5.324284184741543
 10
6.024756051375107
 20
-5.371665785055384
 10
5.983996830396933
 20
-5.434716890984817
 10
5.93238456241275
 20
-5.514556752930986
 10
5.87208985682372
 20
-5.607827619690511
 10
5.806006859498169
 20
-5.710052489658949
 10
5.737029716304335
 20
-5.816754361231858
 10
5.668052573110501
 20
-5.923456232804767
 10
5.601969575784949
 20
-6.025681102773206
 10
5.541674870195934
 20
-6.118951969532731
 10
5.490062602211737
 20
-6.1987918314789
 10
5.449303381233563
 20
-6.261842937408346
 10
5.418673670794348
 20
-6.309224537722173
 10
5.396726397959952
 20
-6.343175133222644
 10
5.382014489796234
 20
-6.365933224711966
 10
5.373090873369051
 20
-6.379737312992376
 10
5.368508475744278
 20
-6.386825898866107
 10
5.366820223987787
 20
-6.389437483135367
 10
5.366579045165437
 20
-6.389810566602407
 10
5.36653788703812
 20
-6.389869472029076
 10
5.366249780146944
 20
-6.39028181001575
 10
5.365467775728007
 20
-6.391401013122447
 10
5.363944925017449
 20
-6.393580513909186
 10
5.361434279251384
 20
-6.397173744935955
 10
5.357688889665951
 20
-6.402534138762775
 10
5.352461807497278
 20
-6.410015127949663
 10
5.345506083981476
 20
-6.419970145056624
 10
5.288627979044449
 20
-6.498129106010467
 10
5.240804159240099
 20
-6.555355294079277
 10
5.181950287267881
 20
-6.610317977928617
 10
5.081452376118165
 20
-6.685425286562122
 10
4.986948005729659
 20
-6.749934303219035
 10
4.903930633363899
 20
-6.795167236153134
 10
4.819453194807807
 20
-6.828205476013849
 10
4.733657711071444
 20
-6.84858485267651
 10
4.624395817413827
 20
-6.857850556467241
 10
4.501004979041213
 20
-6.852831609878521
 10
4.372281330211706
 20
-6.833718103799654
 10
4.259022707304766
 20
-6.803490774015984
 10
4.199380259163661
 20
-6.778330811981391
 10
4.1529326193278
 20
-6.748807514412675
 10
4.118287956584581
 20
-6.714571957063427
 10
4.086846141575904
 20
-6.667118870415237
 10
4.045799815279281
 20
-6.589463608691702
 10
4.03610374090141
 20
-6.55975364502963
 10
4.032072182164399
 20
-6.532078782805129
 10
4.038197221548046
 20
-6.478734074608212
 10
4.061411483036466
 20
-6.41396486568118
 10
4.064876356514489
 20
-6.405992059930583
 10
4.067480137175494
 20
-6.400000661526264
 10
4.069345838279048
 20
-6.395707612275942
 10
4.07059647308472
 20
-6.392829853987252
 10
4.071355054852091
 20
-6.391084328467883
 10
4.071744596840745
 20
-6.390187977525514
 10
4.071888112310262
 20
-6.389857742967791
 10
4.071908614520183
 20
-6.389810566602407
 10
4.072142415384633
 20
-6.389195393891924
 10
4.073779021435826
 20
-6.384889184918549
 10
4.07822123786049
 20
-6.373200903419388
 10
4.086871869845353
 20
-6.350439513131533
 10
4.101133722577146
 20
-6.312913977792093
 10
4.122409601242623
 20
-6.256933261138187
 10
4.1521023110285
 20
-6.178806326906894
 10
4.191614657121534
 20
-6.074842138835351
 10
4.241648042117475
 20
-5.943195178792081
 10
4.300098258233248
 20
-5.789402001171439
 10
4.364159695095424
 20
-5.620844678499225
 10
4.43102674233063
 20
-5.44490528330121
 10
4.497893789565509
 20
-5.268965888103196
 10
4.561955226426662
 20
-5.100408565430968
 10
4.620405442540687
 20
-4.94661538781034
 10
4.670438827534241
 20
-4.81496842776707
 10
4.70995117362969
 20
-4.711004239695512
 10
4.739643883417386
 20
-4.632877305464234
 10
4.760919762084171
 20
-4.576896588810314
 10
4.77518161481683
 20
-4.539371053470887
 10
4.783832246802234
 20
-4.516609663183033
 10
4.788274463227168
 20
-4.504921381683857
 10
4.789911069278446
 20
-4.500615172710482
 10
4.790144870142925
 20
-4.5
  0
LINE
  5
B7
330
AB
100
AcDbEntity
  8
0
  6
CONTINUOUS
 62
     1
100
AcDbLine
 10
5.50531189528418
 20
-4.5
 11
4.876877310102657
 21
-6.214934763063667
  0
LINE
  5
B8
330
AB
100
AcDbEntity
  8
0
  6
CONTINUOUS
 62
     1
100
AcDbLine
 10
4.876877310102657
 20
-6.214934763063667
 11
6.118159130191913
 21
-4.5
  0
LINE
  5
B9
330
AB
100
AcDbEntity
  8
0
  6
CONTINUOUS
 62
     1
100
AcDbLine
 10
6.118159130191913
 20
-4.5
 11
6.853757423350572
 21
-4.5
  0
LINE
  5
BA
330
AB
100
AcDbEntity
  8
0
  6
CONTINUOUS
 62
     1
100
AcDbLine
 10
6.853757423350572
 20
-4.5
 11
6.796460171582453
 21
-6.171865299117712
  0
LINE
  5
BB
330
AB
100
AcDbEntity
  8
0
  6
CONTINUOUS
 62
     1
100
AcDbLine
 10
6.796460171582453
 20
-6.171865299117712
 11
7.411885182224097
 21
-4.5
  0
LINE
  5
BC
330
AB
100
AcDbEntity
  8
0
  6
CONTINUOUS
 62
     1
100
AcDbLine
 10
7.411885182224097
 20
-4.5
 11
8.125
 21
-4.5
  0
LINE
  5
BD
330
AB
100
AcDbEntity
  8
0
  6
CONTINUOUS
 62
     1
100
AcDbLine
 10
5.50531189528418
 20
-4.5
 11
4.790144870142925
 21
-4.5
  0
LWPOLYLINE
  5
BE
330
AB
100
AcDbEntity
  8
0
  6
CONTINUOUS
 62
     1
100
AcDbPolyline
 90
      193
 70
     0
 43
0.0
 10
6.108448980880866
 20
-5.434589763098188
 10
6.110862802775941
 20
-5.371580619303202
 10
6.112676739939687
 20
-5.324230552664375
 10
6.113976490190879
 20
-5.290302552159375
 10
6.114847751348279
 20
-5.267559606765914
 10
6.115376221230633
 20
-5.253764705461691
 10
6.115647597656704
 20
-5.246680837224375
 10
6.115747578445252
 20
-5.244070991031691
 10
6.115761861415052
 20
-5.24369815586131
 10
6.115759165622734
 20
-5.24369815586131
 10
6.115740295076478
 20
-5.24369815586131
 10
6.115689075022402
 20
-5.24369815586131
 10
6.115589330706541
 20
-5.24369815586131
 10
6.115424887374985
 20
-5.24369815586131
 10
6.115179570273824
 20
-5.24369815586131
 10
6.11483720464912
 20
-5.24369815586131
 10
6.114381615746964
 20
-5.24369815586131
 10
6.113804716193428
 20
-5.24369815586131
 10
6.113130768116804
 20
-5.24369815586131
 10
6.112392121024641
 20
-5.24369815586131
 10
6.111621124424545
 20
-5.24369815586131
 10
6.110850127824122
 20
-5.24369815586131
 10
6.110111480730936
 20
-5.24369815586131
 10
6.109437532652578
 20
-5.24369815586131
 10
6.10886063309664
 20
-5.24369815586131
 10
6.108405044199316
 20
-5.24369815586131
 10
6.108062678578264
 20
-5.24369815586131
 10
6.107817361479704
 20
-5.24369815586131
 10
6.10765291814991
 20
-5.24369815586131
 10
6.107553173835115
 20
-5.24369815586131
 10
6.107501953781565
 20
-5.24369815586131
 10
6.107483083235536
 20
-5.24369815586131
 10
6.107480387443246
 20
-5.24369815586131
 10
6.107239208620882
 20
-5.244071239328349
 10
6.105550956864391
 20
-5.24668282359761
 10
6.100968559239618
 20
-5.253771409471341
 10
6.09204494281245
 20
-5.26757549775175
 10
6.077333034648731
 20
-5.290333589241072
 10
6.055385761814335
 20
-5.324284184741543
 10
6.024756051375107
 20
-5.371665785055384
 10
5.983996830396933
 20
-5.434716890984817
 10
5.93238456241275
 20
-5.514556752930986
 10
5.87208985682372
 20
-5.607827619690511
 10
5.806006859498169
 20
-5.710052489658949
 10
5.737029716304335
 20
-5.816754361231858
 10
5.668052573110501
 20
-5.923456232804767
 10
5.601969575784949
 20
-6.025681102773206
 10
5.541674870195934
 20
-6.118951969532731
 10
5.490062602211737
 20
-6.1987918314789
 10
5.449303381233563
 20
-6.261842937408346
 10
5.418673670794348
 20
-6.309224537722173
 10
5.396726397959952
 20
-6.343175133222644
 10
5.382014489796234
 20
-6.365933224711966
 10
5.373090873369051
 20
-6.379737312992376
 10
5.368508475744278
 20
-6.386825898866107
 10
5.366820223987787
 20
-6.389437483135367
 10
5.366579045165437
 20
-6.389810566602407
 10
5.36653788703812
 20
-6.389869472029076
 10
5.366249780146944
 20
-6.39028181001575
 10
5.365467775728007
 20
-6.391401013122447
 10
5.363944925017449
 20
-6.393580513909186
 10
5.361434279251384
 20
-6.397173744935955
 10
5.357688889665951
 20
-6.402534138762775
 10
5.352461807497278
 20
-6.410015127949663
 10
5.345506083981476
 20
-6.419970145056624
 10
5.288627979044449
 20
-6.498129106010467
 10
5.240804159240099
 20
-6.555355294079277
 10
5.181950287267881
 20
-6.610317977928617
 10
5.081452376118165
 20
-6.685425286562122
 10
4.986948005729659
 20
-6.749934303219035
 10
4.903930633363899
 20
-6.795167236153134
 10
4.819453194807807
 20
-6.828205476013849
 10
4.733657711071444
 20
-6.84858485267651
 10
4.624395817413827
 20
-6.857850556467241
 10
4.501004979041213
 20
-6.852831609878521
 10
4.372281330211706
 20
-6.833718103799654
 10
4.259022707304766
 20
-6.803490774015984
 10
4.199380259163661
 20
-6.778330811981391
 10
4.1529326193278
 20
-6.748807514412675
 10
4.118287956584581
 20
-6.714571957063427
 10
4.086846141575904
 20
-6.667118870415237
 10
4.045799815279281
 20
-6.589463608691702
 10
4.03610374090141
 20
-6.55975364502963
 10
4.032072182164399
 20
-6.532078782805129
 10
4.038197221548046
 20
-6.478734074608212
 10
4.061411483036466
 20
-6.41396486568118
 10
4.064876356514489
 20
-6.405992059930583
 10
4.067480137175494
 20
-6.400000661526264
 10
4.069345838279048
 20
-6.395707612275942
 10
4.07059647308472
 20
-6.392829853987252
 10
4.071355054852091
 20
-6.391084328467883
 10
4.071744596840745
 20
-6.390187977525514
 10
4.071888112310262
 20
-6.389857742967791
 10
4.071908614520183
 20
-6.389810566602407
 10
4.072142415384633
 20
-6.389195393891924
 10
4.073779021435826
 20
-6.384889184918549
 10
4.07822123786049
 20
-6.373200903419388
 10
4.086871869845353
 20
-6.350439513131533
 10
4.101133722577146
 20
-6.312913977792093
 10
4.122409601242623
 20
-6.256933261138187
 10
4.1521023110285
 20
-6.178806326906894
 10
4.191614657121534
 20
-6.074842138835351
 10
4.241648042117475
 20
-5.943195178792081
 10
4.300098258233248
 20
-5.789402001171439
 10
4.364159695095424
 20
-5.620844678499225
 10
4.43102674233063
 20
-5.44490528330121
 10
4.497893789565509
 20
-5.268965888103196
 10
4.561955226426662
 20
-5.100408565430968
 10
4.620405442540687
 20
-4.94661538781034
 10
4.670438827534241
 20
-4.81496842776707
 10
4.70995117362969
 20
-4.711004239695512
 10
4.739643883417386
 20
-4.632877305464234
 10
4.760919762084171
 20
-4.576896588810314
 10
4.77518161481683
 20
-4.539371053470887
 10
4.783832246802234
 20
-4.516609663183033
 10
4.788274463227168
 20
-4.504921381683857
 10
4.789911069278446
 20
-4.500615172710482
 10
4.790144870142925
 20
-4.5
 10
5.50531189528418
 20
-4.5
 10
4.876877310102657
 20
-6.214934763063667
 10
6.118159130191913
 20
-4.5
 10
6.853757423350572
 20
-4.5
 10
6.796460171582453
 20
-6.171865299117712
 10
7.411885182224097
 20
-4.5
 10
8.125
 20
-4.5
 10
8.109239990251894
 20
-4.541492234101384
 10
8.066162630273738
 20
-4.654904340645174
 10
8.002071923964792
 20
-4.823639425990834
 10
7.923271875224273
 20
-5.031100596497765
 10
7.836066487951428
 20
-5.260690958525458
 10
7.746759766045514
 20
-5.495813618433317
 10
7.66165571340575
 20
-5.719871682580816
 10
7.587058333931395
 20
-5.916268257327388
 10
7.527870741763877
 20
-6.072094647619267
 10
7.483392492028514
 20
-6.189194952749858
 10
7.451522250092154
 20
-6.273101470599329
 10
7.430158681321629
 20
-6.329346499047887
 10
7.417200451083772
 20
-6.363462335975683
 10
7.410546224745403
 20
-6.38098127926294
 10
7.408094667673382
 20
-6.387435626789824
 10
7.407744445234528
 20
-6.388357676436527
 10
7.407726378696609
 20
-6.388405928754082
 10
7.407599912931246
 20
-6.388743694977052
 10
7.40725664871097
 20
-6.389660489010836
 10
7.406588186808335
 20
-6.391445824760837
 10
7.405486127995886
 20
-6.394389216132439
 10
7.40384207304615
 20
-6.398780177031071
 10
7.401547622731698
 20
-6.404908221362135
 10
7.398494377825074
 20
-6.413062863031016
 10
7.370606823817127
 20
-6.47887605005198
 10
7.339516117476478
 20
-6.531939547506227
 10
7.291193655041425
 20
-6.589382500935187
 10
7.204612238323236
 20
-6.671362520459539
 10
7.135051374641947
 20
-6.730551712740464
 10
7.070452631411257
 20
-6.772029509600031
 10
6.997925982704842
 20
-6.804092209401716
 10
6.916722051097736
 20
-6.826579620300137
 10
6.795775456055168
 20
-6.84306531449252
 10
6.655376653037394
 20
-6.847319679636485
 10
6.514303313499227
 20
-6.838775120479355
 10
6.394722827788684
 20
-6.818703744841102
 10
6.322308701649916
 20
-6.795691152493447
 10
6.262256295356821
 20
-6.764794520440347
 10
6.213569741542273
 20
-6.726043533544697
 10
6.165944082520284
 20
-6.67121723143876
 10
6.107133138833575
 20
-6.591541774964128
 10
6.079451714570922
 20
-6.534197580971593
 10
6.069638850267467
 20
-6.480575142137965
 10
6.070213754573757
 20
-6.414031456485446
 10
6.07076525692861
 20
-6.405784897753364
 10
6.071179699526653
 20
-6.399587779652933
 10
6.071476662333112
 20
-6.39514732495104
 10
6.07167572531327
 20
-6.392170756414629
 10
6.071796468432382
 20
-6.390365296810558
 10
6.071858471655716
 20
-6.38943816890577
 10
6.071881314948513
 20
-6.389096595467166
 10
6.07188457827607
 20
-6.389047799261647
 10
6.071898861245828
 20
-6.38867496409128
 10
6.071998842034191
 20
-6.386065117898738
 10
6.072270218459707
 20
-6.37898124966182
 10
6.07279868834101
 20
-6.36518634835835
 10
6.073669949496647
 20
-6.34244340296614
 10
6.074969699745225
 20
-6.308515402463002
 10
6.076783636905333
 20
-6.261165335826775
 10
6.079197458795562
 20
-6.198156192035242
 10
6.082254014325514
 20
-6.118369465573409
 10
6.085824756767494
 20
-6.025160672978458
 10
6.089738290484178
 20
-5.923003836294782
 10
6.093823219838214
 20
-5.816372977566715
 10
6.09790814919225
 20
-5.709742118838676
 10
6.101821682908934
 20
-5.607585282154986
 10
6.105392425350914
 20
-5.514376489560036
 10
6.108448980880866
 20
-5.434589763098188
  0
LWPOLYLINE
  5
BF
330
AB
100
AcDbEntity
  8
0
  6
CONTINUOUS
 62
     1
100
AcDbPolyline
 90
      193
 70
     0
 43
0.0
 10
8.125
 20
-4.5
 10
7.411885182224097
 20
-4.5
 10
6.796460171582453
 20
-6.171865299117712
 10
6.853757423350572
 20
-4.5
 10
6.118159130191913
 20
-4.5
 10
4.876877310102657
 20
-6.214934763063667
 10
5.50531189528418
 20
-4.5
 10
4.790144870142925
 20
-4.5
 10
4.789911069278446
 20
-4.500615172710482
 10
4.788274463227168
 20
-4.504921381683857
 10
4.783832246802234
 20
-4.516609663183033
 10
4.77518161481683
 20
-4.539371053470887
 10
4.760919762084171
 20
-4.576896588810314
 10
4.739643883417386
 20
-4.632877305464234
 10
4.70995117362969
 20
-4.711004239695512
 10
4.670438827534241
 20
-4.81496842776707
 10
4.620405442540687
 20
-4.94661538781034
 10
4.561955226426662
 20
-5.100408565430968
 10
4.497893789565509
 20
-5.268965888103196
 10
4.43102674233063
 20
-5.44490528330121
 10
4.364159695095424
 20
-5.620844678499225
 10
4.300098258233248
 20
-5.789402001171439
 10
4.241648042117475
 20
-5.943195178792081
 10
4.191614657121534
 20
-6.074842138835351
 10
4.1521023110285
 20
-6.178806326906894
 10
4.122409601242623
 20
-6.256933261138187
 10
4.101133722577146
 20
-6.312913977792093
 10
4.086871869845353
 20
-6.350439513131533
 10
4.07822123786049
 20
-6.373200903419388
 10
4.073779021435826
 20
-6.384889184918549
 10
4.072142415384633
 20
-6.389195393891924
 10
4.071908614520183
 20
-6.389810566602407
 10
4.071888112310262
 20
-6.389857742967791
 10
4.071744596840745
 20
-6.390187977525514
 10
4.071355054852091
 20
-6.391084328467883
 10
4.07059647308472
 20
-6.392829853987252
 10
4.069345838279048
 20
-6.395707612275942
 10
4.067480137175494
 20
-6.400000661526264
 10
4.064876356514489
 20
-6.405992059930583
 10
4.061411483036466
 20
-6.41396486568118
 10
4.038197221548046
 20
-6.478734074608212
 10
4.032072182164399
 20
-6.532078782805129
 10
4.03610374090141
 20
-6.55975364502963
 10
4.045799815279281
 20
-6.589463608691702
 10
4.086846141575904
 20
-6.667118870415237
 10
4.118287956584581
 20
-6.714571957063427
 10
4.1529326193278
 20
-6.748807514412675
 10
4.199380259163661
 20
-6.778330811981391
 10
4.259022707304766
 20
-6.803490774015984
 10
4.372281330211706
 20
-6.833718103799654
 10
4.501004979041213
 20
-6.852831609878521
 10
4.624395817413827
 20
-6.857850556467241
 10
4.733657711071444
 20
-6.84858485267651
 10
4.819453194807807
 20
-6.828205476013849
 10
4.903930633363899
 20
-6.795167236153134
 10
4.986948005729659
 20
-6.749934303219021
 10
5.081452376118165
 20
-6.685425286562122
 10
5.181950287267881
 20
-6.610317977928617
 10
5.240804159240099
 20
-6.555355294079277
 10
5.288627979044449
 20
-6.498129106010467
 10
5.345506083981476
 20
-6.419970145056624
 10
5.352461807497278
 20
-6.410015127949663
 10
5.357688889665951
 20
-6.402534138762775
 10
5.361434279251384
 20
-6.397173744935955
 10
5.363944925017449
 20
-6.393580513909186
 10
5.365467775728007
 20
-6.391401013122447
 10
5.366249780146944
 20
-6.39028181001575
 10
5.36653788703812
 20
-6.389869472029076
 10
5.366579045165437
 20
-6.389810566602407
 10
5.366820223987787
 20
-6.389437483135367
 10
5.368508475744278
 20
-6.386825898866107
 10
5.373090873369051
 20
-6.379737312992376
 10
5.382014489796234
 20
-6.365933224711966
 10
5.396726397959952
 20
-6.343175133222644
 10
5.418673670794348
 20
-6.309224537722173
 10
5.449303381233563
 20
-6.261842937408346
 10
5.490062602211737
 20
-6.1987918314789
 10
5.541674870195934
 20
-6.118951969532731
 10
5.601969575784949
 20
-6.025681102773206
 10
5.668052573110501
 20
-5.923456232804767
 10
5.737029716304335
 20
-5.816754361231858
 10
5.806006859498169
 20
-5.710052489658949
 10
5.87208985682372
 20
-5.607827619690511
 10
5.93238456241275
 20
-5.514556752930986
 10
5.983996830396933
 20
-5.434716890984817
 10
6.024756051375107
 20
-5.371665785055384
 10
6.055385761814335
 20
-5.324284184741543
 10
6.077333034648731
 20
-5.290333589241072
 10
6.09204494281245
 20
-5.26757549775175
 10
6.100968559239618
 20
-5.253771409471341
 10
6.105550956864391
 20
-5.24668282359761
 10
6.107239208620882
 20
-5.244071239328349
 10
6.107480387443246
 20
-5.24369815586131
 10
6.107483083235536
 20
-5.24369815586131
 10
6.107501953781565
 20
-5.24369815586131
 10
6.107553173835115
 20
-5.24369815586131
 10
6.10765291814991
 20
-5.24369815586131
 10
6.107817361479704
 20
-5.24369815586131
 10
6.108062678578264
 20
-5.24369815586131
 10
6.108405044199316
 20
-5.24369815586131
 10
6.10886063309664
 20
-5.24369815586131
 10
6.109437532652578
 20
-5.24369815586131
 10
6.110111480730936
 20
-5.24369815586131
 10
6.110850127824122
 20
-5.24369815586131
 10
6.111621124424545
 20
-5.24369815586131
 10
6.112392121024641
 20
-5.24369815586131
 10
6.113130768116804
 20
-5.24369815586131
 10
6.113804716193428
 20
-5.24369815586131
 10
6.114381615746964
 20
-5.24369815586131
 10
6.11483720464912
 20
-5.24369815586131
 10
6.115179570273824
 20
-5.24369815586131
 10
6.115424887374985
 20
-5.24369815586131
 10
6.115589330706541
 20
-5.24369815586131
 10
6.115689075022402
 20
-5.24369815586131
 10
6.115740295076478
 20
-5.24369815586131
 10
6.115759165622734
 20
-5.24369815586131
 10
6.115761861415052
 20
-5.24369815586131
 10
6.115747578445252
 20
-5.244070991031691
 10
6.115647597656704
 20
-5.246680837224375
 10
6.115376221230633
 20
-5.253764705461691
 10
6.114847751348279
 20
-5.267559606765914
 10
6.113976490190879
 20
-5.290302552159375
 10
6.112676739939687
 20
-5.324230552664375
 10
6.110862802775941
 20
-5.371580619303202
 10
6.108448980880866
 20
-5.434589763098188
 10
6.105392425350914
 20
-5.514376489560036
 10
6.101821682908934
 20
-5.607585282154986
 10
6.09790814919225
 20
-5.709742118838676
 10
6.093823219838214
 20
-5.816372977566715
 10
6.089738290484178
 20
-5.923003836294782
 10
6.085824756767494
 20
-6.025160672978458
 10
6.082254014325514
 20
-6.118369465573409
 10
6.079197458795562
 20
-6.198156192035242
 10
6.076783636905333
 20
-6.261165335826775
 10
6.074969699745225
 20
-6.308515402463002
 10
6.073669949496647
 20
-6.34244340296614
 10
6.07279868834101
 20
-6.36518634835835
 10
6.072270218459707
 20
-6.37898124966182
 10
6.071998842034191
 20
-6.386065117898738
 10
6.071898861245828
 20
-6.38867496409128
 10
6.07188457827607
 20
-6.389047799261647
 10
6.071881314948513
 20
-6.389096595467166
 10
6.071858471655716
 20
-6.38943816890577
 10
6.071796468432382
 20
-6.390365296810558
 10
6.07167572531327
 20
-6.392170756414629
 10
6.071476662333112
 20
-6.39514732495104
 10
6.071179699526653
 20
-6.399587779652933
 10
6.07076525692861
 20
-6.405784897753364
 10
6.070213754573757
 20
-6.414031456485446
 10
6.069638850267467
 20
-6.480575142137965
 10
6.079451714570922
 20
-6.534197580971593
 10
6.107133138833575
 20
-6.591541774964128
 10
6.165944082520284
 20
-6.67121723143876
 10
6.213569741542273
 20
-6.726043533544697
 10
6.262256295356821
 20
-6.764794520440347
 10
6.322308701649916
 20
-6.795691152493447
 10
6.394722827788684
 20
-6.818703744841102
 10
6.514303313499227
 20
-6.838775120479355
 10
6.655376653037394
 20
-6.847319679636485
 10
6.795775456055168
 20
-6.84306531449252
 10
6.916722051097736
 20
-6.826579620300137
 10
6.997925982704842
 20
-6.804092209401716
 10
7.070452631411257
 20
-6.772029509600031
 10
7.135051374641947
 20
-6.730551712740464
 10
7.204612238323236
 20
-6.671362520459539
 10
7.291193655041425
 20
-6.589382500935187
 10
7.339516117476478
 20
-6.531939547506227
 10
7.370606823817127
 20
-6.47887605005198
 10
7.398494377825074
 20
-6.413062863031016
 10
7.401547622731698
 20
-6.404908221362135
 10
7.40384207304615
 20
-6.398780177031071
 10
7.405486127995886
 20
-6.394389216132439
 10
7.406588186808335
 20
-6.391445824760837
 10
7.40725664871097
 20
-6.389660489010836
 10
7.407599912931246
 20
-6.388743694977052
 10
7.407726378696609
 20
-6.388405928754082
 10
7.407744445234528
 20
-6.388357676436527
 10
7.408094667673382
 20
-6.387435626789824
 10
7.410546224745403
 20
-6.38098127926294
 10
7.417200451083772
 20
-6.363462335975683
 10
7.430158681321629
 20
-6.329346499047887
 10
7.451522250092154
 20
-6.273101470599329
 10
7.483392492028514
 20
-6.189194952749858
 10
7.527870741763877
 20
-6.072094647619267
 10
7.587058333931395
 20
-5.916268257327388
 10
7.66165571340575
 20
-5.719871682580816
 10
7.746759766045514
 20
-5.495813618433317
 10
7.836066487951428
 20
-5.260690958525458
 10
7.923271875224273
 20
-5.031100596497765
 10
8.002071923964792
 20
-4.823639425990834
 10
8.066162630273738
 20
-4.654904340645174
 10
8.109239990251894
 20
-4.541492234101384
 10
8.125
 20
-4.5
  0
HATCH
  5
C0
330
AB
100
AcDbEntity
  8
0
 62
     1
100
AcDbHatch
 10
0.0
 20
0.0
 30
0.0
210
0.0
220
0.0
230
1.0
  2
SOLID
 70
     1
 71
     0
 91
        1
 92
        5
 93
       58
 72
     1
 10
8.125
 20
-4.5
 11
7.411885182224097
 21
-4.5
 72
     1
 10
7.411885182224097
 20
-4.5
 11
6.796460171582453
 21
-6.171865299117712
 72
     1
 10
6.796460171582453
 20
-6.171865299117712
 11
6.853757423350572
 21
-4.5
 72
     1
 10
6.853757423350572
 20
-4.5
 11
6.118159130191913
 21
-4.5
 72
     1
 10
6.118159130191913
 20
-4.5
 11
4.876877310102657
 21
-6.214934763063667
 72
     1
 10
4.876877310102657
 20
-6.214934763063667
 11
5.50531189528418
 21
-4.5
 72
     1
 10
5.50531189528418
 20
-4.5
 11
4.790144870142925
 21
-4.5
 72
     1
 10
4.790144870142925
 20
-4.5
 11
4.071908614495541
 21
-6.389810566593042
 72
     1
 10
4.071908614495541
 20
-6.389810566593042
 11
4.061411495376248
 21
-6.413964871043888
 72
     1
 10
4.061411495376248
 20
-6.413964871043888
 11
4.038197221548046
 21
-6.478734074608212
 72
     1
 10
4.038197221548046
 20
-6.478734074608212
 11
4.032072182164399
 21
-6.532078782805129
 72
     1
 10
4.032072182164399
 20
-6.532078782805129
 11
4.03610374090141
 21
-6.55975364502963
 72
     1
 10
4.03610374090141
 20
-6.55975364502963
 11
4.045799815279281
 21
-6.589463608691702
 72
     1
 10
4.045799815279281
 20
-6.589463608691702
 11
4.086846141575904
 21
-6.667118870415237
 72
     1
 10
4.086846141575904
 20
-6.667118870415237
 11
4.118287956584581
 21
-6.714571957063427
 72
     1
 10
4.118287956584581
 20
-6.714571957063427
 11
4.1529326193278
 21
-6.748807514412675
 72
     1
 10
4.1529326193278
 20
-6.748807514412675
 11
4.199380259163661
 21
-6.778330811981391
 72
     1
 10
4.199380259163661
 20
-6.778330811981391
 11
4.259022707304766
 21
-6.803490774015984
 72
     1
 10
4.259022707304766
 20
-6.803490774015984
 11
4.372281330211706
 21
-6.833718103799654
 72
     1
 10
4.372281330211706
 20
-6.833718103799654
 11
4.501004979041213
 21
-6.852831609878521
 72
     1
 10
4.501004979041213
 20
-6.852831609878521
 11
4.624395817413827
 21
-6.857850556467241
 72
     1
 10
4.624395817413827
 20
-6.857850556467241
 11
4.733657711071444
 21
-6.84858485267651
 72
     1
 10
4.733657711071444
 20
-6.84858485267651
 11
4.819453194807807
 21
-6.828205476013849
 72
     1
 10
4.819453194807807
 20
-6.828205476013849
 11
4.903930633363899
 21
-6.795167236153134
 72
     1
 10
4.903930633363899
 20
-6.795167236153134
 11
4.986948005729659
 21
-6.749934303219021
 72
     1
 10
4.986948005729659
 20
-6.749934303219021
 11
5.081452376118165
 21
-6.685425286562122
 72
     1
 10
5.081452376118165
 20
-6.685425286562122
 11
5.181950287267881
 21
-6.610317977928617
 72
     1
 10
5.181950287267881
 20
-6.610317977928617
 11
5.240804159240099
 21
-6.555355294079277
 72
     1
 10
5.240804159240099
 20
-6.555355294079277
 11
5.288627979044449
 21
-6.498129106010467
 72
     1
 10
5.288627979044449
 20
-6.498129106010467
 11
5.345506083981476
 21
-6.419970145056624
 72
     1
 10
5.345506083981476
 20
-6.419970145056624
 11
5.366579045165437
 21
-6.389810566602407
 72
     1
 10
5.366579045165437
 20
-6.389810566602407
 11
6.107480387444809
 21
-5.243698155862319
 72
     1
 10
6.107480387444809
 20
-5.243698155862319
 11
6.115759165622734
 21
-5.243698155470341
 72
     1
 10
6.115759165622734
 20
-5.243698155470341
 11
6.115747578445252
 21
-5.244070991031691
 72
     1
 10
6.115747578445252
 20
-5.244070991031691
 11
6.071884578211098
 21
-6.38904779925916
 72
     1
 10
6.071884578211098
 20
-6.38904779925916
 11
6.070213787713868
 21
-6.414031458701757
 72
     1
 10
6.070213787713868
 20
-6.414031458701757
 11
6.069638850267467
 21
-6.480575142137965
 72
     1
 10
6.069638850267467
 20
-6.480575142137965
 11
6.079451714570922
 21
-6.534197580971593
 72
     1
 10
6.079451714570922
 20
-6.534197580971593
 11
6.107133138833575
 21
-6.591541774964128
 72
     1
 10
6.107133138833575
 20
-6.591541774964128
 11
6.165944082520284
 21
-6.67121723143876
 72
     1
 10
6.165944082520284
 20
-6.67121723143876
 11
6.213569741542273
 21
-6.726043533544697
 72
     1
 10
6.213569741542273
 20
-6.726043533544697
 11
6.262256295356821
 21
-6.764794520440347
 72
     1
 10
6.262256295356821
 20
-6.764794520440347
 11
6.322308701649916
 21
-6.795691152493447
 72
     1
 10
6.322308701649916
 20
-6.795691152493447
 11
6.394722827788684
 21
-6.818703744841102
 72
     1
 10
6.394722827788684
 20
-6.818703744841102
 11
6.514303313499227
 21
-6.838775120479355
 72
     1
 10
6.514303313499227
 20
-6.838775120479355
 11
6.655376653037394
 21
-6.847319679636485
 72
     1
 10
6.655376653037394
 20
-6.847319679636485
 11
6.795775456055168
 21
-6.84306531449252
 72
     1
 10
6.795775456055168
 20
-6.84306531449252
 11
6.916722051097736
 21
-6.826579620300137
 72
     1
 10
6.916722051097736
 20
-6.826579620300137
 11
6.997925982704842
 21
-6.804092209401716
 72
     1
 10
6.997925982704842
 20
-6.804092209401716
 11
7.070452631411257
 21
-6.772029509600031
 72
     1
 10
7.070452631411257
 20
-6.772029509600031
 11
7.135051374641947
 21
-6.730551712740464
 72
     1
 10
7.135051374641947
 20
-6.730551712740464
 11
7.204612238323236
 21
-6.671362520459539
 72
     1
 10
7.204612238323236
 20
-6.671362520459539
 11
7.291193655041425
 21
-6.589382500935187
 72
     1
 10
7.291193655041425
 20
-6.589382500935187
 11
7.339516117476478
 21
-6.531939547506227
 72
     1
 10
7.339516117476478
 20
-6.531939547506227
 11
7.370606823817127
 21
-6.47887605005198
 72
     1
 10
7.370606823817127
 20
-6.47887605005198
 11
7.398494377825074
 21
-6.413062863031016
 72
     1
 10
7.398494377825074
 20
-6.413062863031016
 11
7.407744445234528
 21
-6.388357676436527
 72
     1
 10
7.407744445234528
 20
-6.388357676436527
 11
8.12500000002035
 21
-4.500000000007731
 97
        0
 75
     0
 76
     0
 47
0.322189
 98
        1
 10
0.0
 20
0.0
  0
HATCH
  5
C1
330
AB
100
AcDbEntity
  8
0
 62
     1
100
AcDbHatch
 10
0.0
 20
0.0
 30
0.0
210
0.0
220
0.0
230
1.0
  2
SOLID
 70
     1
 71
     0
 91
        1
 92
        5
 93
       19
 72
     1
 10
4.609786682387551
 20
-4.500980665907932
 11
3.998228887513889
 21
-6.060876197117892
 72
     1
 10
3.998228887513889
 20
-6.060876197117892
 11
3.986375720493328
 21
-6.086549974987094
 72
     1
 10
3.986375720493328
 20
-6.086549974987094
 11
3.967476857668316
 21
-6.12227666881094
 72
     1
 10
3.967476857668316
 20
-6.12227666881094
 11
3.945731647225813
 21
-6.150285338208761
 72
     1
 10
3.945731647225813
 20
-6.150285338208761
 11
3.91946956293063
 21
-6.172761152536509
 72
     1
 10
3.91946956293063
 20
-6.172761152536509
 11
3.888920090187753
 21
-6.189323795575305
 72
     1
 10
3.888920090187753
 20
-6.189323795575305
 11
3.846596357662804
 21
-6.202093790586787
 72
     1
 10
3.846596357662804
 20
-6.202093790586787
 11
3.791576475595051
 21
-6.21026896341381
 72
     1
 10
3.791576475595051
 20
-6.21026896341381
 11
3.620068817906613
 21
-6.215409227841036
 72
     1
 10
3.620068817906613
 20
-6.215409227841036
 11
3.441896996355666
 21
-6.210663675466904
 72
     1
 10
3.441896996355666
 20
-6.210663675466904
 11
3.389083824099501
 21
-6.202583604826629
 72
     1
 10
3.389083824099501
 20
-6.202583604826629
 11
3.354256507561587
 21
-6.190026025823201
 72
     1
 10
3.354256507561587
 20
-6.190026025823201
 11
3.335655908672393
 21
-6.173430778133792
 72
     1
 10
3.335655908672393
 20
-6.173430778133792
 11
3.327691466396146
 21
-6.150857213431408
 72
     1
 10
3.327691466396146
 20
-6.150857213431408
 11
3.330253591160442
 21
-6.122688058736173
 72
     1
 10
3.330253591160442
 20
-6.122688058736173
 11
3.343571711106762
 21
-6.08672553473032
 72
     1
 10
3.343571711106762
 20
-6.08672553473032
 11
3.355107053681763
 21
-6.060876197114183
 72
     1
 10
3.355107053681763
 20
-6.060876197114183
 11
3.954533215659083
 21
-4.500980665913303
 72
     1
 10
3.954533215659083
 20
-4.500980665913303
 11
4.609786682387565
 21
-4.50098065489594
 97
        0
 75
     0
 76
     0
 47
0.322189
 98
        1
 10
0.0
 20
0.0
  0
HATCH
  5
C2
330
AB
100
AcDbEntity
  8
0
 62
     1
100
AcDbHatch
 10
0.0
 20
0.0
 30
0.0
210
0.0
220
0.0
230
1.0
  2
SOLID
 70
     1
 71
     0
 91
        1
 92
        5
 93
       28
 72
     1
 10
3.151647994318012
 20
-6.600915492453481
 11
3.157739291720816
 21
-6.644768850612138
 72
     1
 10
3.157739291720816
 20
-6.644768850612138
 11
3.175946370283867
 21
-6.686781659095104
 72
     1
 10
3.175946370283867
 20
-6.686781659095104
 11
3.205695565328767
 21
-6.725610811313587
 72
     1
 10
3.205695565328767
 20
-6.725610811313587
 11
3.245841687210017
 21
-6.759745955126391
 72
     1
 10
3.245841687210017
 20
-6.759745955126391
 11
3.294746252391278
 21
-6.787797112879659
 72
     1
 10
3.294746252391278
 20
-6.787797112879659
 11
3.350417884604084
 21
-6.808619441172908
 72
     1
 10
3.350417884604084
 20
-6.808619441172908
 11
3.473638919432972
 21
-6.825769734809754
 72
     1
 10
3.473638919432972
 20
-6.825769734809754
 11
3.596902100777456
 21
-6.808925028822031
 72
     1
 10
3.596902100777456
 20
-6.808925028822031
 11
3.652625192224846
 21
-6.788240806131796
 72
     1
 10
3.652625192224846
 20
-6.788240806131796
 11
3.701599161818095
 21
-6.760310996800527
 72
     1
 10
3.701599161818095
 20
-6.760310996800527
 11
3.741829800693296
 21
-6.726275502956668
 72
     1
 10
3.741829800693296
 20
-6.726275502956668
 11
3.771675183806252
 21
-6.68752023525056
 72
     1
 10
3.771675183806252
 20
-6.68752023525056
 11
3.789986380010731
 21
-6.64555270160551
 72
     1
 10
3.789986380010731
 20
-6.64555270160551
 11
3.79618639606764
 21
-6.601714582041566
 72
     1
 10
3.79618639606764
 20
-6.601714582041566
 11
3.790095098664835
 21
-6.557861223882924
 72
     1
 10
3.790095098664835
 20
-6.557861223882924
 11
3.77188802010177
 21
-6.515848415399944
 72
     1
 10
3.77188802010177
 20
-6.515848415399944
 11
3.742138825056884
 21
-6.477019263181461
 72
     1
 10
3.742138825056884
 20
-6.477019263181461
 11
3.701992703175634
 21
-6.442884119368657
 72
     1
 10
3.701992703175634
 20
-6.442884119368657
 11
3.653088137994359
 21
-6.414832961615389
 72
     1
 10
3.653088137994359
 20
-6.414832961615389
 11
3.597416505781567
 21
-6.394010633322154
 72
     1
 10
3.597416505781567
 20
-6.394010633322154
 11
3.474195470952679
 21
-6.376860339685294
 72
     1
 10
3.474195470952679
 20
-6.376860339685294
 11
3.350932289602795
 21
-6.393705045678075
 72
     1
 10
3.350932289602795
 20
-6.393705045678075
 11
3.295209198155206
 21
-6.414389268368964
 72
     1
 10
3.295209198155206
 20
-6.414389268368964
 11
3.246235228562895
 21
-6.442319077699779
 72
     1
 10
3.246235228562895
 20
-6.442319077699779
 11
3.2060045896893
 21
-6.476354571542288
 72
     1
 10
3.2060045896893
 20
-6.476354571542288
 11
3.176159206577921
 21
-6.515109839246705
 72
     1
 10
3.176159206577921
 20
-6.515109839246705
 11
3.157848010374522
 21
-6.557077372890291
 72
     1
 10
3.157848010374522
 20
-6.557077372890291
 11
3.151647994318012
 21
-6.600915492453481
 97
        0
 75
     0
 76
     0
 47
0.322189
 98
        1
 10
0.0
 20
0.0
  0
HATCH
  5
C3
330
AB
100
AcDbEntity
  8
0
 62
     1
100
AcDbHatch
 10
0.0
 20
0.0
 30
0.0
210
0.0
220
0.0
230
1.0
  2
SOLID
 70
     1
 71
     0
 91
        1
 92
        5
 93
      120
 72
     1
 10
3.801616525233811
 20
-4.500980665907932
 11
3.200247122672849
 21
-6.052231500605245
 72
     1
 10
3.200247122672849
 20
-6.052231500605245
 11
3.189967921744483
 21
-6.079557942102852
 72
     1
 10
3.189967921744483
 20
-6.079557942102852
 11
3.17304166178414
 21
-6.117576899037928
 72
     1
 10
3.17304166178414
 20
-6.117576899037928
 11
3.152215649174281
 21
-6.147360963328964
 72
     1
 10
3.152215649174281
 20
-6.147360963328964
 11
3.125893421063921
 21
-6.17123389644452
 72
     1
 10
3.125893421063921
 20
-6.17123389644452
 11
3.094286026446369
 21
-6.188791069183239
 72
     1
 10
3.094286026446369
 20
-6.188791069183239
 11
3.050081813114161
 21
-6.202150468598475
 72
     1
 10
3.050081813114161
 20
-6.202150468598475
 11
2.992041951316935
 21
-6.210712284008366
 72
     1
 10
2.992041951316935
 20
-6.210712284008366
 11
2.813018596917331
 21
-6.215766396676372
 72
     1
 10
2.813018596917331
 20
-6.215766396676372
 11
2.640871628152596
 21
-6.210430929349641
 72
     1
 10
2.640871628152596
 20
-6.210430929349641
 11
2.590552916541014
 21
-6.201927752242824
 72
     1
 10
2.590552916541014
 20
-6.201927752242824
 11
2.557270577857736
 21
-6.188712370966698
 72
     1
 10
2.557270577857736
 20
-6.188712370966698
 11
2.539383791994936
 21
-6.171472197580087
 72
     1
 10
2.539383791994936
 20
-6.171472197580087
 11
2.531141070305381
 21
-6.148070451540775
 72
     1
 10
2.531141070305381
 20
-6.148070451540775
 11
2.532455168135755
 21
-6.1189032089612
 72
     1
 10
2.532455168135755
 20
-6.1189032089612
 11
2.543456013823317
 21
-6.081694902510193
 72
     1
 10
2.543456013823317
 20
-6.081694902510193
 11
2.55318432426013
 21
-6.054955669677156
 72
     1
 10
2.55318432426013
 20
-6.054955669677156
 11
2.575813088637005
 21
-5.987505243520332
 72
     1
 10
2.575813088637005
 20
-5.987505243520332
 11
2.446384580478835
 21
-6.057475483463307
 72
     1
 10
2.446384580478835
 20
-6.057475483463307
 11
2.446342413366651
 21
-6.057498227472706
 72
     1
 10
2.446342413366651
 20
-6.057498227472706
 11
2.33585011590651
 21
-6.112054253322341
 72
     1
 10
2.33585011590651
 20
-6.112054253322341
 11
2.240334160351679
 21
-6.152845775651286
 72
     1
 10
2.240334160351679
 20
-6.152845775651286
 11
2.239738120545383
 21
-6.15310019785835
 72
     1
 10
2.239738120545383
 20
-6.15310019785835
 11
2.239487175387694
 21
-6.153207367426248
 72
     1
 10
2.239487175387694
 20
-6.153207367426248
 11
2.151805253623763
 21
-6.183500127489026
 72
     1
 10
2.151805253623763
 20
-6.183500127489026
 11
2.067938200529341
 21
-6.205091782860748
 72
     1
 10
2.067938200529341
 20
-6.205091782860748
 11
2.067746606768694
 21
-6.205141144123815
 72
     1
 10
2.067746606768694
 20
-6.205141144123815
 11
2.067719235017847
 21
-6.205148191019504
 72
     1
 10
2.067719235017847
 20
-6.205148191019504
 11
1.98154468679374
 21
-6.220657793549066
 72
     1
 10
1.98154468679374
 20
-6.220657793549066
 11
1.783107660741493
 21
-6.242285794577754
 72
     1
 10
1.783107660741493
 20
-6.242285794577754
 11
1.782654303166638
 21
-6.242335120656122
 72
     1
 10
1.782654303166638
 20
-6.242335120656122
 11
1.782589539121176
 21
-6.242342179375456
 72
     1
 10
1.782589539121176
 20
-6.242342179375456
 11
1.701627234392362
 21
-6.242342179375456
 72
     1
 10
1.701627234392362
 20
-6.242342179375456
 11
1.602903347326475
 21
-6.227813277658726
 72
     1
 10
1.602903347326475
 20
-6.227813277658726
 11
1.551058992435316
 21
-6.214204184569013
 72
     1
 10
1.551058992435316
 20
-6.214204184569013
 11
1.550735509653336
 21
-6.214119220280708
 72
     1
 10
1.550735509653336
 20
-6.214119220280708
 11
1.55059930119991
 21
-6.214083465561771
 72
     1
 10
1.55059930119991
 20
-6.214083465561771
 11
1.498222610568149
 21
-6.195668082643749
 72
     1
 10
1.498222610568149
 20
-6.195668082643749
 11
1.447358957778135
 21
-6.172228807353818
 72
     1
 10
1.447358957778135
 20
-6.172228807353818
 11
1.447242765996663
 21
-6.172175234052816
 72
     1
 10
1.447242765996663
 20
-6.172175234052816
 11
1.447226165591388
 21
-6.172167584150941
 72
     1
 10
1.447226165591388
 20
-6.172167584150941
 11
1.398554344873034
 21
-6.143291392048099
 72
     1
 10
1.398554344873034
 20
-6.143291392048099
 11
1.355520106969095
 21
-6.10925508588717
 72
     1
 10
1.355520106969095
 20
-6.10925508588717
 11
1.354990695903183
 21
-6.108836505998895
 72
     1
 10
1.354990695903183
 20
-6.108836505998895
 11
1.354604417241944
 21
-6.108530994693922
 72
     1
 10
1.354604417241944
 20
-6.108530994693922
 11
1.316175472231308
 21
-6.067632136418496
 72
     1
 10
1.316175472231308
 20
-6.067632136418496
 11
1.284802354267683
 21
-6.020463689925521
 72
     1
 10
1.284802354267683
 20
-6.020463689925521
 11
1.284730639339259
 21
-6.020355955757026
 72
     1
 10
1.284730639339259
 20
-6.020355955757026
 11
1.28472040005795
 21
-6.020340561364094
 72
     1
 10
1.28472040005795
 20
-6.020340561364094
 11
1.261583124095409
 21
-5.966002469010093
 72
     1
 10
1.261583124095409
 20
-5.966002469010093
 11
1.248541191175946
 21
-5.904560343453426
 72
     1
 10
1.248541191175946
 20
-5.904560343453426
 11
1.248511369084952
 21
-5.904419978699281
 72
     1
 10
1.248511369084952
 20
-5.904419978699281
 11
1.248507112570806
 21
-5.904399925788084
 72
     1
 10
1.248507112570806
 20
-5.904399925788084
 11
1.246618355288703
 21
-5.835387642710415
 72
     1
 10
1.246618355288703
 20
-5.835387642710415
 11
1.257394878399708
 21
-5.760059851147787
 72
     1
 10
1.257394878399708
 20
-5.760059851147787
 11
1.257527269101828
 21
-5.759133255466878
 72
     1
 10
1.257527269101828
 20
-5.759133255466878
 11
1.257623998386436
 21
-5.758457108190939
 72
     1
 10
1.257623998386436
 20
-5.758457108190939
 11
1.282831642825769
 21
-5.672881877168351
 72
     1
 10
1.282831642825769
 20
-5.672881877168351
 11
1.733954080504475
 21
-4.500980681238772
 72
     1
 10
1.733954080504475
 20
-4.500980681238772
 11
1.747605911267129
 21
-4.500979699884397
 72
     1
 10
1.747605911267129
 20
-4.500979699884397
 11
1.807119534658938
 21
-4.50098411825428
 72
     1
 10
1.807119534658938
 20
-4.50098411825428
 11
1.888817447633841
 21
-4.500976294297772
 72
     1
 10
1.888817447633841
 20
-4.500976294297772
 11
2.000592138218508
 21
-4.500985457192627
 72
     1
 10
2.000592138218508
 20
-4.500985457192627
 11
2.122605731753112
 21
-4.500975874623265
 72
     1
 10
2.122605731753112
 20
-4.500975874623265
 11
2.234380422336542
 21
-4.500985037517992
 72
     1
 10
2.234380422336542
 20
-4.500985037517992
 11
2.316078335495874
 21
-4.500977213561697
 72
     1
 10
2.316078335495874
 20
-4.500977213561697
 11
2.362580019744939
 21
-4.500983139636304
 72
     1
 10
2.362580019744939
 20
-4.500983139636304
 11
2.375591959071016
 21
-4.500980665907932
 72
     1
 10
2.375591959071016
 20
-4.500980665907932
 11
2.389243829673973
 21
-4.500980665907932
 72
     1
 10
2.389243829673973
 20
-4.500980665907932
 11
2.065703349921307
 21
-5.321246133736779
 72
     1
 10
2.065703349921307
 20
-5.321246133736779
 11
2.025472473871474
 21
-5.444891136987138
 72
     1
 10
2.025472473871474
 20
-5.444891136987138
 11
2.025380616724249
 21
-5.445173633388606
 72
     1
 10
2.025380616724249
 20
-5.445173633388606
 11
2.025367486560398
 21
-5.445213987507671
 72
     1
 10
2.025367486560398
 20
-5.445213987507671
 11
2.014071265482684
 21
-5.496392043749296
 72
     1
 10
2.014071265482684
 20
-5.496392043749296
 11
2.007753255840214
 21
-5.541453288866705
 72
     1
 10
2.007753255840214
 20
-5.541453288866705
 11
2.007751193241774
 21
-5.541467961276041
 72
     1
 10
2.007751193241774
 20
-5.541467961276041
 11
2.006552558856441
 21
-5.580260128818765
 72
     1
 10
2.006552558856441
 20
-5.580260128818765
 11
2.010074661235692
 21
-5.61352048424898
 72
     1
 10
2.010074661235692
 20
-5.61352048424898
 11
2.010075817515599
 21
-5.613531313718312
 72
     1
 10
2.010075817515599
 20
-5.613531313718312
 11
2.018030391221231
 21
-5.641790027524408
 72
     1
 10
2.018030391221231
 20
-5.641790027524408
 11
2.029650892894239
 21
-5.664299481003667
 72
     1
 10
2.029650892894239
 20
-5.664299481003667
 11
2.029891498999405
 21
-5.664765366769643
 72
     1
 10
2.029891498999405
 20
-5.664765366769643
 11
2.030143862995715
 21
-5.665254203775135
 72
     1
 10
2.030143862995715
 20
-5.665254203775135
 11
2.046089332576614
 21
-5.684722932085847
 72
     1
 10
2.046089332576614
 20
-5.684722932085847
 11
2.06418924593693
 21
-5.699243221017014
 72
     1
 10
2.06418924593693
 20
-5.699243221017014
 11
2.064765876308627
 21
-5.6997059801744
 72
     1
 10
2.064765876308627
 20
-5.6997059801744
 11
2.065558060890581
 21
-5.700341501387385
 72
     1
 10
2.065558060890581
 20
-5.700341501387385
 11
2.088350275436739
 21
-5.712654745575307
 72
     1
 10
2.088350275436739
 20
-5.712654745575307
 11
2.11392699940582
 21
-5.72211018658345
 72
     1
 10
2.11392699940582
 20
-5.72211018658345
 11
2.113985439436476
 21
-5.722131767965948
 72
     1
 10
2.113985439436476
 20
-5.722131767965948
 11
2.113993786933705
 21
-5.722134853938727
 72
     1
 10
2.113993786933705
 20
-5.722134853938727
 11
2.173326189267357
 21
-5.734484420374827
 72
     1
 10
2.173326189267357
 20
-5.734484420374827
 11
2.240564730953054
 21
-5.740824311067939
 72
     1
 10
2.240564730953054
 20
-5.740824311067939
 11
2.240718348465478
 21
-5.740838745740831
 72
     1
 10
2.240718348465478
 20
-5.740838745740831
 11
2.240740293160769
 21
-5.740840814879661
 72
     1
 10
2.240740293160769
 20
-5.740840814879661
 11
2.314147569007005
 21
-5.73986011401287
 72
     1
 10
2.314147569007005
 20
-5.73986011401287
 11
2.390987297934743
 21
-5.727583192377338
 72
     1
 10
2.390987297934743
 20
-5.727583192377338
 11
2.455837430630695
 21
-5.70778682503682
 72
     1
 10
2.455837430630695
 20
-5.70778682503682
 11
2.460118792924831
 21
-5.706480742713595
 72
     1
 10
2.460118792924831
 20
-5.706480742713595
 11
2.468807727623641
 21
-5.703828437791827
 72
     1
 10
2.468807727623641
 20
-5.703828437791827
 11
2.545683778764953
 21
-5.668450562170449
 72
     1
 10
2.545683778764953
 20
-5.668450562170449
 11
2.582676840115553
 21
-5.646560665630275
 72
     1
 10
2.582676840115553
 20
-5.646560665630275
 11
2.582907704594575
 21
-5.646424141801958
 72
     1
 10
2.582907704594575
 20
-5.646424141801958
 11
2.583004895001622
 21
-5.646366631566082
 72
     1
 10
2.583004895001622
 20
-5.646366631566082
 11
2.619181860242946
 21
-5.621485887412661
 72
     1
 10
2.619181860242946
 20
-5.621485887412661
 11
2.654014741004701
 21
-5.593699244262965
 72
     1
 10
2.654014741004701
 20
-5.593699244262965
 11
2.654094339259885
 21
-5.593635787124654
 72
     1
 10
2.654094339259885
 20
-5.593635787124654
 11
2.654105707699813
 21
-5.593626718384741
 72
     1
 10
2.654105707699813
 20
-5.593626718384741
 11
2.687122636841636
 21
-5.562934413564108
 72
     1
 10
2.687122636841636
 20
-5.562934413564108
 11
2.717744490278705
 21
-5.529858389448776
 72
     1
 10
2.717744490278705
 20
-5.529858389448776
 11
2.718121233327992
 21
-5.529451608945578
 72
     1
 10
2.718121233327992
 20
-5.529451608945578
 11
2.71839609773042
 21
-5.529154717081809
 72
     1
 10
2.71839609773042
 20
-5.529154717081809
 11
2.747108839734068
 21
-5.492323951283851
 72
     1
 10
2.747108839734068
 20
-5.492323951283851
 11
2.77331898882673
 21
-5.452828612319649
 72
     1
 10
2.77331898882673
 20
-5.452828612319649
 11
2.773482579879271
 21
-5.452582202714666
 72
     1
 10
2.773482579879271
 20
-5.452582202714666
 11
2.773551440819645
 21
-5.452478438358114
 72
     1
 10
2.773551440819645
 20
-5.452478438358114
 11
2.797288033929434
 21
-5.409581856055112
 72
     1
 10
2.797288033929434
 20
-5.409581856055112
 11
3.154709906635887
 21
-4.501276493154848
 72
     1
 10
3.154709906635887
 20
-4.501276493154848
 11
3.154826143728116
 21
-4.500980665907932
 72
     1
 10
3.154826143728116
 20
-4.500980665907932
 11
3.801616525233811
 21
-4.500980665907932
 97
        0
 75
     0
 76
     0
 47
0.322189
 98
        1
 10
0.0
 20
0.0
  0
HATCH
  5
C4
330
AB
100
AcDbEntity
  8
0
 62
     1
100
AcDbHatch
 10
0.0
 20
0.0
 30
0.0
210
0.0
220
0.0
230
1.0
  2
SOLID
 70
     1
 71
     0
 91
        2
 92
        5
 93
      100
 72
     1
 10
1.351226419060609
 20
-4.689493194178368
 11
1.324965471793007
 21
-4.658038044939346
 72
     1
 10
1.324965471793007
 20
-4.658038044939346
 11
1.295181205375656
 21
-4.628508079957783
 72
     1
 10
1.295181205375656
 20
-4.628508079957783
 11
1.261474138775441
 21
-4.600939462340989
 72
     1
 10
1.261474138775441
 20
-4.600939462340989
 11
1.223844272021779
 21
-4.575731883967904
 72
     1
 10
1.223844272021779
 20
-4.575731883967904
 11
1.182509532586778
 21
-4.55237663650729
 72
     1
 10
1.182509532586778
 20
-4.55237663650729
 11
1.087817457204665
 21
-4.511877338479977
 72
     1
 10
1.087817457204665
 20
-4.511877338479977
 11
0.9776521086515402
 21
-4.47995006573602
 72
     1
 10
0.9776521086515402
 20
-4.47995006573602
 11
0.8506694426164501
 21
-4.456304248281072
 72
     1
 10
0.8506694426164501
 20
-4.456304248281072
 11
0.7071965084740981
 21
-4.441484862996546
 72
     1
 10
0.7071965084740981
 20
-4.441484862996546
 11
0.5464342387825525
 21
-4.434983096108311
 72
     1
 10
0.5464342387825525
 20
-4.434983096108311
 11
0.4019443097114248
 21
-4.437997917799947
 72
     1
 10
0.4019443097114248
 20
-4.437997917799947
 11
0.2644646449918753
 21
-4.449621033304126
 72
     1
 10
0.2644646449918753
 20
-4.449621033304126
 11
0.1351210451517204
 21
-4.469307676625164
 72
     1
 10
0.1351210451517204
 20
-4.469307676625164
 11
0.0139137210525746
 21
-4.495459712872886
 72
     1
 10
0.0139137210525746
 20
-4.495459712872886
 11
-0.09981132062767983
 21
-4.527568539137945
 72
     1
 10
-0.09981132062767983
 20
-4.527568539137945
 11
-0.205291070098923
 21
-4.56461726593021
 72
     1
 10
-0.205291070098923
 20
-4.56461726593021
 11
-0.3027437711661065
 21
-4.6055524189333
 72
     1
 10
-0.3027437711661065
 20
-4.6055524189333
 11
-0.3920238225150001
 21
-4.64961130464792
 72
     1
 10
-0.3920238225150001
 20
-4.64961130464792
 11
-0.4732403460480725
 21
-4.69566791168883
 72
     1
 10
-0.4732403460480725
 20
-4.69566791168883
 11
-0.5461391457577065
 21
-4.742741619095085
 72
     1
 10
-0.5461391457577065
 20
-4.742741619095085
 11
-0.6102116187450548
 21
-4.78999688003293
 72
     1
 10
-0.6102116187450548
 20
-4.78999688003293
 11
-0.665893619954403
 21
-4.836307683096152
 72
     1
 10
-0.665893619954403
 20
-4.836307683096152
 11
-0.7130762383962832
 21
-4.880984082729512
 72
     1
 10
-0.7130762383962832
 20
-4.880984082729512
 11
-0.7513598876031153
 21
-4.922899962125911
 72
     1
 10
-0.7513598876031153
 20
-4.922899962125911
 11
-0.7809988690390526
 21
-4.96103832635238
 72
     1
 10
-0.7809988690390526
 20
-4.96103832635238
 11
-0.8017025072920063
 21
-4.994382180465422
 72
     1
 10
-0.8017025072920063
 20
-4.994382180465422
 11
-0.08604519880110217
 21
-4.994382180465422
 72
     1
 10
-0.08604519880110217
 20
-4.994382180465422
 11
-0.0256412245398252
 21
-4.941860180497827
 72
     1
 10
-0.0256412245398252
 20
-4.941860180497827
 11
0.03378191789364848
 21
-4.899472072164102
 72
     1
 10
0.03378191789364848
 20
-4.899472072164102
 11
0.09258765182921991
 21
-4.866455161996456
 72
     1
 10
0.09258765182921991
 20
-4.866455161996456
 11
0.1517565982477436
 21
-4.841792349619027
 72
     1
 10
0.1517565982477436
 20
-4.841792349619027
 11
0.211216220070952
 21
-4.824539282600057
 72
     1
 10
0.211216220070952
 20
-4.824539282600057
 11
0.2714748039089727
 21
-4.814042178481117
 72
     1
 10
0.2714748039089727
 20
-4.814042178481117
 11
0.3330773266232541
 21
-4.809175025887484
 72
     1
 10
0.3330773266232541
 20
-4.809175025887484
 11
0.3963870006894297
 21
-4.809356579408586
 72
     1
 10
0.3963870006894297
 20
-4.809356579408586
 11
0.4633289049388765
 21
-4.81582197232477
 72
     1
 10
0.4633289049388765
 20
-4.81582197232477
 11
0.5324139209410248
 21
-4.831077318017464
 72
     1
 10
0.5324139209410248
 20
-4.831077318017464
 11
0.5995373787147003
 21
-4.856575571806772
 72
     1
 10
0.5995373787147003
 20
-4.856575571806772
 11
0.6309924225213308
 21
-4.873646979872262
 72
     1
 10
0.6309924225213308
 20
-4.873646979872262
 11
0.6602681914889956
 21
-4.893696835667868
 72
     1
 10
0.6602681914889956
 20
-4.893696835667868
 11
0.6867834401986812
 21
-4.917161099591226
 72
     1
 10
0.6867834401986812
 20
-4.917161099591226
 11
0.7101749562041988
 21
-4.94363997434148
 72
     1
 10
0.7101749562041988
 20
-4.94363997434148
 11
0.7297889570229756
 21
-4.973969112195249
 72
     1
 10
0.7297889570229756
 20
-4.973969112195249
 11
0.7452986041640486
 21
-5.007748715851704
 72
     1
 10
0.7452986041640486
 20
-5.007748715851704
 11
0.7555051382980764
 21
-5.04552386759309
 72
     1
 10
0.7555051382980764
 20
-5.04552386759309
 11
0.7605903238109306
 21
-5.087221819506866
 72
     1
 10
0.7605903238109306
 20
-5.087221819506866
 11
0.7594279384662457
 21
-5.133278426558263
 72
     1
 10
0.7594279384662457
 20
-5.133278426558263
 11
0.7523451370510799
 21
-5.183403224185341
 72
     1
 10
0.7523451370510799
 20
-5.183403224185341
 11
-0.9029689920593569
 21
-5.183403224185341
 72
     1
 10
-0.9029689920593569
 20
-5.183403224185341
 11
-0.9310823756676285
 21
-5.242317869156523
 72
     1
 10
-0.9310823756676285
 20
-5.242317869156523
 11
-0.9559268469953679
 21
-5.302903396940991
 72
     1
 10
-0.9559268469953679
 20
-5.302903396940991
 11
-0.9771753566753318
 21
-5.364760221102614
 72
     1
 10
-0.9771753566753318
 20
-5.364760221102614
 11
-0.9949005471908379
 21
-5.427416112714582
 72
     1
 10
-0.9949005471908379
 20
-5.427416112714582
 11
-1.008594131953856
 21
-5.490435216790615
 72
     1
 10
-1.008594131953856
 20
-5.490435216790615
 11
-1.018909577114059
 21
-5.553054734441034
 72
     1
 10
-1.018909577114059
 20
-5.553054734441034
 11
-1.025011757563036
 21
-5.614984201093378
 72
     1
 10
-1.025011757563036
 20
-5.614984201093378
 11
-1.027191032409377
 21
-5.675569728877832
 72
     1
 10
-1.027191032409377
 20
-5.675569728877832
 11
-1.025011757563036
 21
-5.734557016339736
 72
     1
 10
-1.025011757563036
 20
-5.734557016339736
 11
-1.018619007136508
 21
-5.791292386453051
 72
     1
 10
-1.018619007136508
 20
-5.791292386453051
 11
-1.008376204467012
 21
-5.84519469926056
 72
     1
 10
-1.008376204467012
 20
-5.84519469926056
 11
-0.9931935012734385
 21
-5.895755246431037
 72
     1
 10
-0.9931935012734385
 20
-5.895755246431037
 11
-0.9734341100314055
 21
-5.942756205914208
 72
     1
 10
-0.9734341100314055
 20
-5.942756205914208
 11
-0.9490982415951805
 21
-5.985107940286383
 72
     1
 10
-0.9490982415951805
 20
-5.985107940286383
 11
-0.9200404001143596
 21
-6.022883092027783
 72
     1
 10
-0.9200404001143596
 20
-6.022883092027783
 11
-0.8864059760269072
 21
-6.055355236210275
 72
     1
 10
-0.8864059760269072
 20
-6.055355236210275
 11
-0.8220066645338875
 21
-6.104317648490564
 72
     1
 10
-0.8220066645338875
 20
-6.104317648490564
 11
-0.7550283863218539
 21
-6.146669382852252
 72
     1
 10
-0.7550283863218539
 20
-6.146669382852252
 11
-0.6811853396086178
 21
-6.18219251182316
 72
     1
 10
-0.6811853396086178
 20
-6.18219251182316
 11
-0.5969902629109782
 21
-6.2109960518451
 72
     1
 10
-0.5969902629109782
 20
-6.2109960518451
 11
-0.4989565273231733
 21
-6.233261661892499
 72
     1
 10
-0.4989565273231733
 20
-6.233261661892499
 11
-0.3824710708341286
 21
-6.2485896500759
 72
     1
 10
-0.3824710708341286
 20
-6.2485896500759
 11
-0.2445191771856514
 21
-6.257161675348769
 72
     1
 10
-0.2445191771856514
 20
-6.257161675348769
 11
-0.08092374475278064
 21
-6.259086754184352
 72
     1
 10
-0.08092374475278064
 20
-6.259086754184352
 11
0.01540294491762495
 21
-6.255091311531757
 72
     1
 10
0.01540294491762495
 20
-6.255091311531757
 11
0.1136908765203941
 21
-6.245211615899194
 72
     1
 10
0.1136908765203941
 20
-6.245211615899194
 11
0.2133228524265718
 21
-6.229120828805122
 72
     1
 10
0.2133228524265718
 20
-6.229120828805122
 11
0.3134633258044772
 21
-6.207218536675157
 72
     1
 10
0.3134633258044772
 20
-6.207218536675157
 11
0.4132768552348978
 21
-6.179504634066419
 72
     1
 10
0.4132768552348978
 20
-6.179504634066419
 11
0.5126545296989775
 21
-6.146160885385754
 72
     1
 10
0.5126545296989775
 20
-6.146160885385754
 11
0.6097076443132607
 21
-6.107259722248614
 72
     1
 10
0.6097076443132607
 20
-6.107259722248614
 11
0.7041091497104759
 21
-6.062837624059441
 72
     1
 10
0.7041091497104759
 20
-6.062837624059441
 11
0.7956775978081794
 21
-6.013003501838099
 72
     1
 10
0.7956775978081794
 20
-6.013003501838099
 11
0.8829236593068544
 21
-5.958011551606887
 72
     1
 10
0.8829236593068544
 20
-5.958011551606887
 11
0.965302462764825
 21
-5.89771659380628
 72
     1
 10
0.965302462764825
 20
-5.89771659380628
 11
1.042015046174626
 21
-5.832409198409607
 72
     1
 10
1.042015046174626
 20
-5.832409198409607
 11
1.112189699603505
 21
-5.762270918948474
 72
     1
 10
1.112189699603505
 20
-5.762270918948474
 11
1.175354088680905
 21
-5.687265486883206
 72
     1
 10
1.175354088680905
 20
-5.687265486883206
 11
1.230055363496931
 21
-5.607501813244198
 72
     1
 10
1.230055363496931
 20
-5.607501813244198
 11
1.276003059515858
 21
-5.522943629502265
 72
     1
 10
1.276003059515858
 20
-5.522943629502265
 11
1.332229932166882
 21
-5.396687493846571
 72
     1
 10
1.332229932166882
 20
-5.396687493846571
 11
1.376760941384333
 21
-5.277877372088994
 72
     1
 10
1.376760941384333
 20
-5.277877372088994
 11
1.408942515576683
 21
-5.166150157166371
 72
     1
 10
1.408942515576683
 20
-5.166150157166371
 11
1.42873817535417
 21
-5.062159526125697
 72
     1
 10
1.42873817535417
 20
-5.062159526125697
 11
1.43531247930494
 21
-4.965832836455292
 72
     1
 10
1.43531247930494
 20
-4.965832836455292
 11
1.42873817535417
 21
-4.876952371537271
 72
     1
 10
1.42873817535417
 20
-4.876952371537271
 11
1.42034770359821
 21
-4.835726543128459
 72
     1
 10
1.42034770359821
 20
-4.835726543128459
 11
1.408361375621567
 21
-4.796098955042197
 72
     1
 10
1.408361375621567
 20
-4.796098955042197
 11
1.392815459952388
 21
-4.758505462254263
 72
     1
 10
1.392815459952388
 20
-4.758505462254263
 11
1.373927884077489
 21
-4.723018601823
 72
     1
 10
1.373927884077489
 20
-4.723018601823
 11
1.351226419060609
 21
-4.689493194178368
 97
        0
 92
        5
 93
       31
 72
     1
 10
0.4296945862712107
 20
-5.738261889018972
 11
0.4641280778153032
 21
-5.710221147907703
 72
     1
 10
0.4641280778153032
 20
-5.710221147907703
 11
0.4957284066254033
 21
-5.681018021439172
 72
     1
 10
0.4957284066254033
 20
-5.681018021439172
 11
0.5233332927619472
 21
-5.65119748648425
 72
     1
 10
0.5233332927619472
 20
-5.65119748648425
 11
0.5475238762093966
 21
-5.620686795109378
 72
     1
 10
0.5475238762093966
 20
-5.620686795109378
 11
0.5679733184400675
 21
-5.590503047669415
 72
     1
 10
0.5679733184400675
 20
-5.590503047669415
 11
0.5842093905323509
 21
-5.560500853761027
 72
     1
 10
0.5842093905323509
 20
-5.560500853761027
 11
0.5960504335128576
 21
-5.531188710840226
 72
     1
 10
0.5960504335128576
 20
-5.531188710840226
 11
-0.3660534452249351
 21
-5.531188710840226
 72
     1
 10
-0.3660534452249351
 20
-5.531188710840226
 11
-0.374843397991981
 21
-5.601109062818722
 72
     1
 10
-0.374843397991981
 20
-5.601109062818722
 11
-0.3741896155388247
 21
-5.666779776111838
 72
     1
 10
-0.3741896155388247
 20
-5.666779776111838
 11
-0.36928608897
 21
-5.697508394979849
 72
     1
 10
-0.36928608897
 20
-5.697508394979849
 11
-0.3608229747159726
 21
-5.726384577502984
 72
     1
 10
-0.3608229747159726
 20
-5.726384577502984
 11
-0.3483281492749484
 21
-5.753589877202359
 72
     1
 10
-0.3483281492749484
 20
-5.753589877202359
 11
-0.3316199536808568
 21
-5.778434348533267
 72
     1
 10
-0.3316199536808568
 20
-5.778434348533267
 11
-0.3099354836074326
 21
-5.801390009568252
 72
     1
 10
-0.3099354836074326
 20
-5.801390009568252
 11
-0.2829843799167264
 21
-5.82180307783841
 72
     1
 10
-0.2829843799167264
 20
-5.82180307783841
 11
-0.2506212522001476
 21
-5.839673658776135
 72
     1
 10
-0.2506212522001476
 20
-5.839673658776135
 11
-0.2119743905103348
 21
-5.854638434484969
 72
     1
 10
-0.2119743905103348
 20
-5.854638434484969
 11
-0.1670800633901308
 21
-5.866624762463715
 72
     1
 10
-0.1670800633901308
 20
-5.866624762463715
 11
-0.1154298787875803
 21
-5.875378446700537
 72
     1
 10
-0.1154298787875803
 20
-5.875378446700537
 11
-0.05636984340257811
 21
-5.880826739261863
 72
     1
 10
-0.05636984340257811
 20
-5.880826739261863
 11
0.01009983191059405
 21
-5.882679175596238
 72
     1
 10
0.01009983191059405
 20
-5.882679175596238
 11
0.0638567542958981
 21
-5.880499900748845
 72
     1
 10
0.0638567542958981
 20
-5.880499900748845
 11
0.1163061117675284
 21
-5.873998239293002
 72
     1
 10
0.1163061117675284
 20
-5.873998239293002
 11
0.1671936028907481
 21
-5.863501029741684
 72
     1
 10
0.1671936028907481
 20
-5.863501029741684
 11
0.2163375686921256
 21
-5.84940806940628
 72
     1
 10
0.2163375686921256
 20
-5.84940806940628
 11
0.2638471310668251
 21
-5.832336555908398
 72
     1
 10
0.2638471310668251
 20
-5.832336555908398
 11
0.3091773131680498
 21
-5.812141415131364
 72
     1
 10
0.3091773131680498
 20
-5.812141415131364
 11
0.3518922600074461
 21
-5.789621609072157
 72
     1
 10
0.3518922600074461
 20
-5.789621609072157
 11
0.3920647195175491
 21
-5.764777137741248
 72
     1
 10
0.3920647195175491
 20
-5.764777137741248
 11
0.4296945862712107
 21
-5.738261889018972
 97
        0
 75
     0
 76
     0
 47
0.322189
 98
        1
 10
0.0
 20
0.0
  0
HATCH
  5
C5
330
AB
100
AcDbEntity
  8
0
 62
     1
100
AcDbHatch
 10
0.0
 20
0.0
 30
0.0
210
0.0
220
0.0
230
1.0
  2
SOLID
 70
     1
 71
     0
 91
        3
 92
        5
 93
      307
 72
     1
 10
-0.6962953469773225
 20
-4.500980665907932
 11
-1.537300821972863
 21
-6.644175278184122
 72
     1
 10
-1.537300821972863
 20
-6.644175278184122
 11
-1.548633367277731
 21
-6.671495666283249
 72
     1
 10
-1.548633367277731
 20
-6.671495666283249
 11
-1.567024833197763
 21
-6.709509692602751
 72
     1
 10
-1.567024833197763
 20
-6.709509692602751
 11
-1.588997817532473
 21
-6.739299960075741
 72
     1
 10
-1.588997817532473
 20
-6.739299960075741
 11
-1.616238274421278
 21
-6.763190676066927
 72
     1
 10
-1.616238274421278
 20
-6.763190676066927
 11
-1.648519564502067
 21
-6.780777222732041
 72
     1
 10
-1.648519564502067
 20
-6.780777222732041
 11
-1.693368112549692
 21
-6.794211100178217
 72
     1
 10
-1.693368112549692
 20
-6.794211100178217
 11
-1.75196066093558
 21
-6.802839664948252
 72
     1
 10
-1.75196066093558
 20
-6.802839664948252
 11
-1.93262012987033
 21
-6.808097611637749
 72
     1
 10
-1.93262012987033
 20
-6.808097611637749
 11
-2.109030583533183
 21
-6.80283993574605
 72
     1
 10
-2.109030583533183
 20
-6.80283993574605
 11
-2.160673582516253
 21
-6.794211419751235
 72
     1
 10
-2.160673582516253
 20
-6.794211419751235
 11
-2.194709409147691
 21
-6.780777222732041
 72
     1
 10
-2.194709409147691
 20
-6.780777222732041
 11
-2.212839538239621
 21
-6.763190676068604
 72
     1
 10
-2.212839538239621
 20
-6.763190676068604
 11
-2.22085981863772
 21
-6.739299960079705
 72
     1
 10
-2.22085981863772
 20
-6.739299960079705
 11
-2.218869075565038
 21
-6.709509692610496
 72
     1
 10
-2.218869075565038
 20
-6.709509692610496
 11
-2.206683645634456
 21
-6.671495667098782
 72
     1
 10
-2.206683645634456
 20
-6.671495667098782
 11
-2.196041225137293
 21
-6.644175278182601
 72
     1
 10
-2.196041225137293
 20
-6.644175278182601
 11
-1.953662822518439
 21
-5.999927454467155
 72
     1
 10
-1.953662822518439
 20
-5.999927454467155
 11
-1.998766236525157
 21
-6.035068326752423
 72
     1
 10
-1.998766236525157
 20
-6.035068326752423
 11
-1.998869308597605
 21
-6.035148572165582
 72
     1
 10
-1.998869308597605
 20
-6.035148572165582
 11
-1.998884029042429
 21
-6.035160041106551
 72
     1
 10
-1.998884029042429
 20
-6.035160041106551
 11
-2.044759036173417
 21
-6.067050980329285
 72
     1
 10
-2.044759036173417
 20
-6.067050980329285
 11
-2.091384030031833
 21
-6.095670853751884
 72
     1
 10
-2.091384030031833
 20
-6.095670853751884
 11
-2.091490560361024
 21
-6.095736220516614
 72
     1
 10
-2.091490560361024
 20
-6.095736220516614
 11
-2.09150577739922
 21
-6.095745561200502
 72
     1
 10
-2.09150577739922
 20
-6.095745561200502
 11
-2.138361485366033
 21
-6.121171139209295
 72
     1
 10
-2.138361485366033
 20
-6.121171139209295
 11
-2.232869446960848
 21
-6.163366571929672
 72
     1
 10
-2.232869446960848
 20
-6.163366571929672
 11
-2.233459106142945
 21
-6.163629962618899
 72
     1
 10
-2.233459106142945
 20
-6.163629962618899
 11
-2.233707402802921
 21
-6.163740821165689
 72
     1
 10
-2.233707402802921
 20
-6.163740821165689
 11
-2.329888732070927
 21
-6.195268537843305
 72
     1
 10
-2.329888732070927
 20
-6.195268537843305
 11
-2.424986342236096
 21
-6.217367459118918
 72
     1
 10
-2.424986342236096
 20
-6.217367459118918
 11
-2.425203612403053
 21
-6.217417900529114
 72
     1
 10
-2.425203612403053
 20
-6.217417900529114
 11
-2.42523464948556
 21
-6.217425112955908
 72
     1
 10
-2.42523464948556
 20
-6.217425112955908
 11
-2.519963088578749
 21
-6.231372858576648
 72
     1
 10
-2.519963088578749
 20
-6.231372858576648
 11
-2.612118959769205
 21
-6.238054000983269
 72
     1
 10
-2.612118959769205
 20
-6.238054000983269
 11
-2.612148969872067
 21
-6.23805615337244
 72
     1
 10
-2.612148969872067
 20
-6.23805615337244
 11
-2.701283781810787
 21
-6.23838305366138
 72
     1
 10
-2.701283781810787
 20
-6.23838305366138
 11
-2.788021324972846
 21
-6.233842771738438
 72
     1
 10
-2.788021324972846
 20
-6.233842771738438
 11
-2.86308840306063
 21
-6.224995850975645
 72
     1
 10
-2.86308840306063
 20
-6.224995850975645
 11
-2.865480199309147
 21
-6.224713565813943
 72
     1
 10
-2.865480199309147
 20
-6.224713565813943
 11
-2.868765696184937
 21
-6.224326341259641
 72
     1
 10
-2.868765696184937
 20
-6.224326341259641
 11
-2.942972061628808
 21
-6.210269628896569
 72
     1
 10
-2.942972061628808
 20
-6.210269628896569
 11
-3.010369683473158
 21
-6.191295955988863
 72
     1
 10
-3.010369683473158
 20
-6.191295955988863
 11
-3.010790250606391
 21
-6.191177649385978
 72
     1
 10
-3.010790250606391
 20
-6.191177649385978
 11
-3.010967321596013
 21
-6.191127800875634
 72
     1
 10
-3.010967321596013
 20
-6.191127800875634
 11
-3.073114698597351
 21
-6.16759098006294
 72
     1
 10
-3.073114698597351
 20
-6.16759098006294
 11
-3.128134667804972
 21
-6.139743315576652
 72
     1
 10
-3.128134667804972
 20
-6.139743315576652
 11
-3.128811363892453
 21
-6.139400618829626
 72
     1
 10
-3.128811363892453
 20
-6.139400618829626
 11
-3.129305225948883
 21
-6.139150655035053
 72
     1
 10
-3.129305225948883
 20
-6.139150655035053
 11
-3.179357292320134
 21
-6.105843147903755
 72
     1
 10
-3.179357292320134
 20
-6.105843147903755
 11
-3.223604961541867
 21
-6.067967932075391
 72
     1
 10
-3.223604961541867
 20
-6.067967932075391
 11
-3.223881092665309
 21
-6.067731644249989
 72
     1
 10
-3.223881092665309
 20
-6.067731644249989
 11
-3.223997342796793
 21
-6.06763213640761
 72
     1
 10
-3.223997342796793
 20
-6.06763213640761
 11
-3.262753188055214
 21
-6.024481298333129
 72
     1
 10
-3.262753188055214
 20
-6.024481298333129
 11
-3.295046786145548
 21
-5.977357016764941
 72
     1
 10
-3.295046786145548
 20
-5.977357016764941
 11
-3.295443926326058
 21
-5.976777302563008
 72
     1
 10
-3.295443926326058
 20
-5.976777302563008
 11
-3.295733794940716
 21
-5.976354311467389
 72
     1
 10
-3.295733794940716
 20
-5.976354311467389
 11
-3.323665608457418
 21
-5.923287497993997
 72
     1
 10
-3.323665608457418
 20
-5.923287497993997
 11
-3.34572827570932
 21
-5.865468151919032
 72
     1
 10
-3.34572827570932
 20
-5.865468151919032
 11
-3.345778660705719
 21
-5.865336050760533
 72
     1
 10
-3.345778660705719
 20
-5.865336050760533
 11
-3.345785861308869
 21
-5.86531718021439
 72
     1
 10
-3.345785861308869
 20
-5.86531718021439
 11
-3.36271203178049
 21
-5.802225424569713
 72
     1
 10
-3.36271203178049
 20
-5.802225424569713
 11
-3.374703417754915
 21
-5.734189874686834
 72
     1
 10
-3.374703417754915
 20
-5.734189874686834
 11
-3.374730784319354
 21
-5.734034435896689
 72
     1
 10
-3.374730784319354
 20
-5.734034435896689
 11
-3.374734697947673
 21
-5.734012231081096
 72
     1
 10
-3.374734697947673
 20
-5.734012231081096
 11
-3.381236381473627
 21
-5.660931855525774
 72
     1
 10
-3.381236381473627
 20
-5.660931855525774
 11
-3.382866592537326
 21
-5.582498959978793
 72
     1
 10
-3.382866592537326
 20
-5.582498959978793
 11
-3.382870350834423
 21
-5.582319773260494
 72
     1
 10
-3.382870350834423
 20
-5.582319773260494
 11
-3.3828708828987
 21
-5.5822941750572
 72
     1
 10
-3.3828708828987
 20
-5.5822941750572
 11
-3.445672060524714
 21
-5.666852382948406
 72
     1
 10
-3.445672060524714
 20
-5.666852382948406
 11
-3.510519527991946
 21
-5.744923045136972
 72
     1
 10
-3.510519527991946
 20
-5.744923045136972
 11
-3.510667731284812
 21
-5.745101360915911
 72
     1
 10
-3.510667731284812
 20
-5.745101360915911
 11
-3.510688895619168
 21
-5.745126840882676
 72
     1
 10
-3.510688895619168
 20
-5.745126840882676
 11
-3.578466222080792
 21
-5.817444449079204
 72
     1
 10
-3.578466222080792
 20
-5.817444449079204
 11
-3.64802399041163
 21
-5.883078008142405
 72
     1
 10
-3.64802399041163
 20
-5.883078008142405
 11
-3.648458070936982
 21
-5.883487482490097
 72
     1
 10
-3.648458070936982
 20
-5.883487482490097
 11
-3.648640817278732
 21
-5.883659918608601
 72
     1
 10
-3.648640817278732
 20
-5.883659918608601
 11
-3.721866481865817
 21
-5.944644983500126
 72
     1
 10
-3.721866481865817
 20
-5.944644983500126
 11
-3.798045749068677
 21
-5.999473756219771
 72
     1
 10
-3.798045749068677
 20
-5.999473756219771
 11
-3.798070571286615
 21
-5.999491587421645
 72
     1
 10
-3.798070571286615
 20
-5.999491587421645
 11
-3.87761630807529
 21
-6.048889853253712
 72
     1
 10
-3.87761630807529
 20
-6.048889853253712
 11
-3.958990338809187
 21
-6.091710623962456
 72
     1
 10
-3.958990338809187
 20
-6.091710623962456
 11
-3.960505167855075
 21
-6.092508033903471
 72
     1
 10
-3.960505167855075
 20
-6.092508033903471
 11
-3.960694573321192
 21
-6.09260761165713
 72
     1
 10
-3.960694573321192
 20
-6.09260761165713
 11
-3.960721625833486
 21
-6.092621847332296
 72
     1
 10
-3.960721625833486
 20
-6.092621847332296
 11
-4.04716859096142
 21
-6.131341370369057
 72
     1
 10
-4.04716859096142
 20
-6.131341370369057
 11
-4.137683647739323
 21
-6.164503590748254
 72
     1
 10
-4.137683647739323
 20
-6.164503590748254
 11
-4.139651146778363
 21
-6.165088384245948
 72
     1
 10
-4.139651146778363
 20
-6.165088384245948
 11
-4.148227827152908
 21
-6.167639013615272
 72
     1
 10
-4.148227827152908
 20
-6.167639013615272
 11
-4.160002164760996
 21
-6.171138346310244
 72
     1
 10
-4.160002164760996
 20
-6.171138346310244
 11
-4.176110300381879
 21
-6.17592890446258
 72
     1
 10
-4.176110300381879
 20
-6.17592890446258
 11
-4.193694857743068
 21
-6.181155375067704
 72
     1
 10
-4.193694857743068
 20
-6.181155375067704
 11
-4.209802993360597
 21
-6.185945933219813
 72
     1
 10
-4.209802993360597
 20
-6.185945933219813
 11
-4.221577330994819
 21
-6.189445265924121
 72
     1
 10
-4.221577330994819
 20
-6.189445265924121
 11
-4.228278713640236
 21
-6.191438599286443
 72
     1
 10
-4.228278713640236
 20
-6.191438599286443
 11
-4.230154054180318
 21
-6.191995751405813
 72
     1
 10
-4.230154054180318
 20
-6.191995751405813
 11
-4.232121509618409
 21
-6.192580691041528
 72
     1
 10
-4.232121509618409
 20
-6.192580691041528
 11
-4.330627463153775
 21
-6.215391066724578
 72
     1
 10
-4.330627463153775
 20
-6.215391066724578
 11
-4.433531227444661
 21
-6.233582570082632
 72
     1
 10
-4.433531227444661
 20
-6.233582570082632
 11
-4.433564731716302
 21
-6.233588516090805
 72
     1
 10
-4.433564731716302
 20
-6.233588516090805
 11
-4.541151248816234
 21
-6.246809816656395
 72
     1
 10
-4.541151248816234
 20
-6.246809816656395
 11
-4.653568344188699
 21
-6.255088564591375
 72
     1
 10
-4.653568344188699
 20
-6.255088564591375
 11
-4.653604947982714
 21
-6.255091290611063
 72
     1
 10
-4.653604947982714
 20
-6.255091290611063
 11
-4.771071118246596
 21
-6.259086738612353
 72
     1
 10
-4.771071118246596
 20
-6.259086738612353
 11
-4.925582107899231
 21
-6.256007297221103
 72
     1
 10
-4.925582107899231
 20
-6.256007297221103
 11
-4.925935104770318
 21
-6.256000351982891
 72
     1
 10
-4.925935104770318
 20
-6.256000351982891
 11
-4.925985532639587
 21
-6.255999346972601
 72
     1
 10
-4.925985532639587
 20
-6.255999346972601
 11
-5.06695220139602
 21
-6.242342179375669
 72
     1
 10
-5.06695220139602
 20
-6.242342179375669
 11
-5.193063068043827
 21
-6.218805357940724
 72
     1
 10
-5.193063068043827
 20
-6.218805357940724
 11
-5.269145357206412
 21
-6.19615564419928
 72
     1
 10
-5.269145357206412
 20
-6.19615564419928
 11
-5.27821960008653
 21
-6.193452567026327
 72
     1
 10
-5.27821960008653
 20
-6.193452567026327
 11
-5.304572388736318
 21
-6.185606818220364
 72
     1
 10
-5.304572388736318
 20
-6.185606818220364
 11
-5.400795032141645
 21
-6.143159930068762
 72
     1
 10
-5.400795032141645
 20
-6.143159930068762
 11
-5.400826362510486
 21
-6.143146102996496
 72
     1
 10
-5.400826362510486
 20
-6.143146102996496
 11
-5.443577655761288
 21
-6.118446970108565
 72
     1
 10
-5.443577655761288
 20
-6.118446970108565
 11
-5.482232584059588
 21
-6.091566056569008
 72
     1
 10
-5.482232584059588
 20
-6.091566056569008
 11
-5.482320885221157
 21
-6.09150463060395
 72
     1
 10
-5.482320885221157
 20
-6.09150463060395
 11
-5.482333501056218
 21
-6.0914958574553
 72
     1
 10
-5.482333501056218
 20
-6.0914958574553
 11
-5.51727550962579
 21
-6.062619665298954
 72
     1
 10
-5.51727550962579
 20
-6.062619665298954
 11
-5.547684109278976
 21
-6.032104493636638
 72
     1
 10
-5.547684109278976
 20
-6.032104493636638
 11
-5.548058088062135
 21
-6.031729077852887
 72
     1
 10
-5.548058088062135
 20
-6.031729077852887
 11
-5.548331037033336
 21
-6.031455171165703
 72
     1
 10
-5.548331037033336
 20
-6.031455171165703
 11
-5.575609049987037
 21
-5.998329275294964
 72
     1
 10
-5.575609049987037
 20
-5.998329275294964
 11
-5.598686950732187
 21
-5.963190310754698
 72
     1
 10
-5.598686950732187
 20
-5.963190310754698
 11
-5.598830983279967
 21
-5.962971074201235
 72
     1
 10
-5.598830983279967
 20
-5.962971074201235
 11
-5.598891614959555
 21
-5.962878755138348
 72
     1
 10
-5.598891614959555
 20
-5.962878755138348
 11
-5.622174179917479
 21
-5.917984448871209
 72
     1
 10
-5.622174179917479
 20
-5.917984448871209
 11
-5.640787793140419
 21
-5.872368650064175
 72
     1
 10
-5.640787793140419
 20
-5.872368650064175
 11
-5.640903882764462
 21
-5.8720839972557
 72
     1
 10
-5.640903882764462
 20
-5.8720839972557
 11
-5.64095278538278
 21
-5.871964152734364
 72
     1
 10
-5.64095278538278
 20
-5.871964152734364
 11
-5.654864208762916
 21
-5.82478154446315
 72
     1
 10
-5.654864208762916
 20
-5.82478154446315
 11
-5.664450174659777
 21
-5.77667022634472
 72
     1
 10
-5.664450174659777
 20
-5.77667022634472
 11
-5.664453283889003
 21
-5.776654557574858
 72
     1
 10
-5.664453283889003
 20
-5.776654557574858
 11
-5.66986529973363
 21
-5.727946414619225
 72
     1
 10
-5.66986529973363
 20
-5.727946414619225
 11
-5.671536989957986
 21
-5.679506152076698
 72
     1
 10
-5.671536989957986
 20
-5.679506152076698
 11
-5.671557441504319
 21
-5.678910307252949
 72
     1
 10
-5.671557441504319
 20
-5.678910307252949
 11
-5.671572445716549
 21
-5.678475504330919
 72
     1
 10
-5.671572445716549
 20
-5.678475504330919
 11
-5.666196752102849
 21
-5.578371371600056
 72
     1
 10
-5.666196752102849
 20
-5.578371371600056
 11
-5.649350840286587
 21
-5.477730926048523
 72
     1
 10
-5.649350840286587
 20
-5.477730926048523
 11
-5.649312401855127
 21
-5.477500995383821
 72
     1
 10
-5.649312401855127
 20
-5.477500995383821
 11
-5.649306903857635
 21
-5.4774681492828
 72
     1
 10
-5.649306903857635
 20
-5.4774681492828
 11
-5.624062937178451
 21
-5.376928149494631
 72
     1
 10
-5.624062937178451
 20
-5.376928149494631
 11
-5.593704078349575
 21
-5.278316468471218
 72
     1
 10
-5.593704078349575
 20
-5.278316468471218
 11
-5.593634796311022
 21
-5.278091157397967
 72
     1
 10
-5.593634796311022
 20
-5.278091157397967
 11
-5.593624888091938
 21
-5.278058973421352
 72
     1
 10
-5.593624888091938
 20
-5.278058973421352
 11
-5.559990480642497
 21
-5.181369132602555
 72
     1
 10
-5.559990480642497
 20
-5.181369132602555
 11
-3.89007484130137
 21
-5.181369128200686
 72
     1
 10
-3.89007484130137
 20
-5.181369128200686
 11
-3.88795096260111
 21
-5.164774850155823
 72
     1
 10
-3.88795096260111
 20
-5.164774850155823
 11
-3.88673375784289
 21
-5.155253359664883
 72
     1
 10
-3.88673375784289
 20
-5.155253359664883
 11
-3.885514344716171
 21
-5.145732151695029
 72
     1
 10
-3.885514344716171
 20
-5.145732151695029
 11
-3.884505891453287
 21
-5.137842905435633
 72
     1
 10
-3.884505891453287
 20
-5.137842905435633
 11
-3.884137760751486
 21
-5.134969557398591
 72
     1
 10
-3.884137760751486
 20
-5.134969557398591
 11
-3.883391546521494
 21
-5.129137730987281
 72
     1
 10
-3.883391546521494
 20
-5.129137730987281
 11
-3.881938656358315
 21
-5.081628222417578
 72
     1
 10
-3.881938656358315
 20
-5.081628222417578
 11
-3.885742537075643
 21
-5.03895203083502
 72
     1
 10
-3.885742537075643
 20
-5.03895203083502
 11
-3.885751251570866
 21
-5.038854535163523
 72
     1
 10
-3.885751251570866
 20
-5.038854535163523
 11
-3.885752493054184
 21
-5.03884060690325
 72
     1
 10
-3.885752493054184
 20
-5.03884060690325
 11
-3.894687767597503
 21
-5.000230050628744
 72
     1
 10
-3.894687767597503
 20
-5.000230050628744
 11
-3.907473201082993
 21
-4.966341387414644
 72
     1
 10
-3.907473201082993
 20
-4.966341387414644
 11
-3.924574670408703
 21
-4.936170881150815
 72
     1
 10
-3.924574670408703
 20
-4.936170881150815
 11
-3.924681341998337
 21
-4.935982604099394
 72
     1
 10
-3.924681341998337
 20
-4.935982604099394
 11
-3.924726271870171
 21
-4.935903338346606
 72
     1
 10
-3.924726271870171
 20
-4.935903338346606
 11
-3.945538923534286
 21
-4.909678670763185
 72
     1
 10
-3.945538923534286
 20
-4.909678670763185
 11
-3.969439028400956
 21
-4.887201314535759
 72
     1
 10
-3.969439028400956
 20
-4.887201314535759
 11
-3.969732950097082
 21
-4.886924764857071
 72
     1
 10
-3.969732950097082
 20
-4.886924764857071
 11
-3.969947478411029
 21
-4.886723006085333
 72
     1
 10
-3.969947478411029
 20
-4.886723006085333
 11
-3.997116524608543
 21
-4.867254277825651
 72
     1
 10
-3.997116524608543
 20
-4.867254277825651
 11
-4.026782989309822
 21
-4.851376910116841
 72
     1
 10
-4.026782989309822
 20
-4.851376910116841
 11
-4.0269681205925
 21
-4.851277877517987
 72
     1
 10
-4.0269681205925
 20
-4.851277877517987
 11
-4.027046062096346
 21
-4.851236163679033
 72
     1
 10
-4.027046062096346
 20
-4.851236163679033
 11
-4.093443142890976
 21
-4.827445087186149
 72
     1
 10
-4.093443142890976
 20
-4.827445087186149
 11
-4.165305139475251
 21
-4.814159851395303
 72
     1
 10
-4.165305139475251
 20
-4.814159851395303
 11
-4.16575356231823
 21
-4.814077078739345
 72
     1
 10
-4.16575356231823
 20
-4.814077078739345
 11
-4.16594236236898
 21
-4.814042175323081
 72
     1
 10
-4.16594236236898
 20
-4.814042175323081
 11
-4.242037485034302
 21
-4.809356604536276
 72
     1
 10
-4.242037485034302
 20
-4.809356604536276
 11
-4.322788951530654
 21
-4.81218233110755
 72
     1
 10
-4.322788951530654
 20
-4.81218233110755
 11
-4.322973434852912
 21
-4.812188818118401
 72
     1
 10
-4.322973434852912
 20
-4.812188818118401
 11
-4.322999789769824
 21
-4.812189740363152
 72
     1
 10
-4.322999789769824
 20
-4.812189740363152
 11
-4.398259500584715
 21
-4.822069393503995
 72
     1
 10
-4.398259500584715
 20
-4.822069393503995
 11
-4.467164512251742
 21
-4.838299418277046
 72
     1
 10
-4.467164512251742
 20
-4.838299418277046
 11
-4.467321939591855
 21
-4.838336466427222
 72
     1
 10
-4.467321939591855
 20
-4.838336466427222
 11
-4.467344428175053
 21
-4.838341763422648
 72
     1
 10
-4.467344428175053
 20
-4.838341763422648
 11
-4.531634818212254
 21
-4.860716272027716
 72
     1
 10
-4.531634818212254
 20
-4.860716272027716
 11
-4.590247701704158
 21
-4.888654666868007
 72
     1
 10
-4.590247701704158
 20
-4.888654666868007
 11
-4.590613456906766
 21
-4.88882894012248
 72
     1
 10
-4.590613456906766
 20
-4.88882894012248
 11
-4.590767448130578
 21
-4.888902341344661
 72
     1
 10
-4.590767448130578
 20
-4.888902341344661
 11
-4.645940952335735
 21
-4.921773981456283
 72
     1
 10
-4.645940952335735
 20
-4.921773981456283
 11
-4.696237199839089
 21
-4.958965049886174
 72
     1
 10
-4.696237199839089
 20
-4.958965049886174
 11
-4.696551000411859
 21
-4.959197159437153
 72
     1
 10
-4.696551000411859
 20
-4.959197159437153
 11
-4.696683141529405
 21
-4.959294870084619
 72
     1
 10
-4.696683141529405
 20
-4.959294870084619
 11
-4.744664839411598
 21
-5.000484306406506
 72
     1
 10
-4.744664839411598
 20
-5.000484306406506
 11
-5.435223537289971
 21
-5.000484324822239
 72
     1
 10
-5.435223537289971
 20
-5.000484324822239
 11
-5.43520569540064
 21
-5.000459926045238
 72
     1
 10
-5.43520569540064
 20
-5.000459926045238
 11
-5.380413255589104
 21
-4.925587818165354
 72
     1
 10
-5.380413255589104
 20
-4.925587818165354
 11
-5.322088455183788
 21
-4.857470039676144
 72
     1
 10
-5.322088455183788
 20
-4.857470039676144
 11
-5.321724438231016
 21
-4.857045075868939
 72
     1
 10
-5.321724438231016
 20
-4.857045075868939
 11
-5.321571203720822
 21
-4.856866113095464
 72
     1
 10
-5.321571203720822
 20
-4.856866113095464
 11
-5.257970936526405
 21
-4.794064935485892
 72
     1
 10
-5.257970936526405
 20
-4.794064935485892
 11
-5.190215677244851
 21
-4.737166485700627
 72
     1
 10
-5.190215677244851
 20
-4.737166485700627
 11
-5.190193610086567
 21
-4.737147963073454
 72
     1
 10
-5.190193610086567
 20
-4.737147963073454
 11
-5.118093935423943
 21
-4.685933584526794
 72
     1
 10
-5.118093935423943
 20
-4.685933584526794
 11
-5.043477342479264
 21
-4.641121151032891
 72
     1
 10
-5.043477342479264
 20
-4.641121151032891
 11
-5.042559608469048
 21
-4.64056978480096
 72
     1
 10
-5.042559608469048
 20
-4.64056978480096
 11
-5.041889845964079
 21
-4.64016754421165
 72
     1
 10
-5.041889845964079
 20
-4.64016754421165
 11
-4.961036508002323
 21
-4.599777197472037
 72
     1
 10
-4.961036508002323
 20
-4.599777197472037
 11
-4.875756570985416
 21
-4.56441902890306
 72
     1
 10
-4.875756570985416
 20
-4.56441902890306
 11
-4.875561754355857
 21
-4.564338217206256
 72
     1
 10
-4.875561754355857
 20
-4.564338217206256
 11
-4.875533921482628
 21
-4.564326677323379
 72
     1
 10
-4.875533921482628
 20
-4.564326677323379
 11
-4.785817953465411
 21
-4.53381598378526
 72
     1
 10
-4.785817953465411
 20
-4.53381598378526
 11
-4.692498161786944
 21
-4.508325757146025
 72
     1
 10
-4.692498161786944
 20
-4.508325757146025
 11
-4.691915845660759
 21
-4.508166796893875
 72
     1
 10
-4.691915845660759
 20
-4.508166796893875
 11
-4.691670670444495
 21
-4.508099827737581
 72
     1
 10
-4.691670670444495
 20
-4.508099827737581
 11
-4.592946783382033
 21
-4.486814986750602
 72
     1
 10
-4.592946783382033
 20
-4.486814986750602
 11
-4.489389438973717
 21
-4.470039545134057
 72
     1
 10
-4.489389438973717
 20
-4.470039545134057
 11
-4.489355714251275
 21
-4.470034105277904
 72
     1
 10
-4.489355714251275
 20
-4.470034105277904
 11
-4.381369652350273
 21
-4.4571033827946
 72
     1
 10
-4.381369652350273
 20
-4.4571033827946
 11
-4.268955215165278
 21
-4.448263737540231
 72
     1
 10
-4.268955215165278
 20
-4.448263737540231
 11
-4.268698386193407
 21
-4.448243637697303
 72
     1
 10
-4.268698386193407
 20
-4.448243637697303
 11
-4.268661697406003
 21
-4.448240752726576
 72
     1
 10
-4.268661697406003
 20
-4.448240752726576
 11
-4.150941271357553
 21
-4.44293770362863
 72
     1
 10
-4.150941271357553
 20
-4.44293770362863
 11
-4.029397455949649
 21
-4.44119871717011
 72
     1
 10
-4.029397455949649
 20
-4.44119871717011
 11
-4.029119776683288
 21
-4.441194802937304
 72
     1
 10
-4.029119776683288
 20
-4.441194802937304
 11
-4.029080108335933
 21
-4.441194235402065
 72
     1
 10
-4.029080108335933
 20
-4.441194235402065
 11
-3.871586813895149
 21
-4.44693315159202
 72
     1
 10
-3.871586813895149
 20
-4.44693315159202
 11
-3.791885947565561
 21
-4.454903205736272
 72
     1
 10
-3.791885947565561
 20
-4.454903205736272
 11
-3.791703866564646
 21
-4.454921446311758
 72
     1
 10
-3.791703866564646
 20
-4.454921446311758
 11
-3.791677854533603
 21
-4.454924047514865
 72
     1
 10
-3.791677854533603
 20
-4.454924047514865
 11
-3.713730296904501
 21
-4.467200969422834
 72
     1
 10
-3.713730296904501
 20
-4.467200969422834
 11
-3.637835958546106
 21
-4.483834448125435
 72
     1
 10
-3.637835958546106
 20
-4.483834448125435
 11
-3.637362378979304
 21
-4.483938150704461
 72
     1
 10
-3.637362378979304
 20
-4.483938150704461
 11
-3.63716298493776
 21
-4.483981850916635
 72
     1
 10
-3.63716298493776
 20
-4.483981850916635
 11
-3.563501453316277
 21
-4.506174748286767
 72
     1
 10
-3.563501453316277
 20
-4.506174748286767
 11
-3.494375633823793
 21
-4.534077012710668
 72
     1
 10
-3.494375633823793
 20
-4.534077012710668
 11
-3.493944336409541
 21
-4.534251188679775
 72
     1
 10
-3.493944336409541
 20
-4.534251188679775
 11
-3.493762725138268
 21
-4.534324495312717
 72
     1
 10
-3.493762725138268
 20
-4.534324495312717
 11
-3.429327046102017
 21
-4.568866959124733
 72
     1
 10
-3.429327046102017
 20
-4.568866959124733
 11
-3.370565744309815
 21
-4.610492505212505
 72
     1
 10
-3.370565744309815
 20
-4.610492505212505
 11
-3.370431527654191
 21
-4.610587643867987
 72
     1
 10
-3.370431527654191
 20
-4.610587643867987
 11
-3.370412349693126
 21
-4.610601229242377
 72
     1
 10
-3.370412349693126
 20
-4.610601229242377
 11
-3.318689459617929
 21
-4.659781561490945
 72
     1
 10
-3.318689459617929
 20
-4.659781561490945
 11
-3.295791582349921
 21
-4.687215893437696
 72
     1
 10
-3.295791582349921
 20
-4.687215893437696
 11
-3.295648664653612
 21
-4.687387042271524
 72
     1
 10
-3.295648664653612
 20
-4.687387042271524
 11
-3.295588505919923
 21
-4.687459119244664
 72
     1
 10
-3.295588505919923
 20
-4.687459119244664
 11
-3.274703209759267
 21
-4.717243367761029
 72
     1
 10
-3.274703209759267
 20
-4.717243367761029
 11
-3.24042824022446
 21
-4.782768804743057
 72
     1
 10
-3.24042824022446
 20
-4.782768804743057
 11
-3.240214472600144
 21
-4.783177718126012
 72
     1
 10
-3.240214472600144
 20
-4.783177718126012
 11
-3.240124423678054
 21
-4.783349870476812
 72
     1
 10
-3.240124423678054
 20
-4.783349870476812
 11
-3.21473516798298
 21
-4.858972803849213
 72
     1
 10
-3.21473516798298
 20
-4.858972803849213
 11
-3.201197940372879
 21
-4.943543872708474
 72
     1
 10
-3.201197940372879
 20
-4.943543872708474
 11
-3.201113565899576
 21
-4.944071589044754
 72
     1
 10
-3.201113565899576
 20
-4.944071589044754
 11
-3.201078000359019
 21
-4.944293779084532
 72
     1
 10
-3.201078000359019
 20
-4.944293779084532
 11
-3.198644409349782
 21
-5.0402571748225
 72
     1
 10
-3.198644409349782
 20
-5.0402571748225
 11
-3.209403945697304
 21
-5.146730290505701
 72
     1
 10
-3.209403945697304
 20
-5.146730290505701
 11
-3.209428607209702
 21
-5.146973530363084
 72
     1
 10
-3.209428607209702
 20
-5.146973530363084
 11
-3.209432118833888
 21
-5.147008280071816
 72
     1
 10
-3.209432118833888
 20
-5.147008280071816
 11
-3.168315327021787
 21
-5.074036871275439
 72
     1
 10
-3.168315327021787
 20
-5.074036871275439
 11
-3.121184372309941
 21
-5.00330416298057
 72
     1
 10
-3.121184372309941
 20
-5.00330416298057
 11
-3.121169040997856
 21
-5.003281119991812
 72
     1
 10
-3.121169040997856
 20
-5.003281119991812
 11
-3.067048882125505
 21
-4.934377803700983
 72
     1
 10
-3.067048882125505
 20
-4.934377803700983
 11
-3.007824013959265
 21
-4.868960240305995
 72
     1
 10
-3.007824013959265
 20
-4.868960240305995
 11
-3.007454373153166
 21
-4.868552136274346
 72
     1
 10
-3.007454373153166
 20
-4.868552136274346
 11
-3.007298773912964
 21
-4.868380267691109
 72
     1
 10
-3.007298773912964
 20
-4.868380267691109
 11
-2.942245616546202
 21
-4.805688056830562
 72
     1
 10
-2.942245616546202
 20
-4.805688056830562
 11
-2.872217505979307
 21
-4.746600775464557
 72
     1
 10
-2.872217505979307
 20
-4.746600775464557
 11
-2.872057554180856
 21
-4.746465744536351
 72
     1
 10
-2.872057554180856
 20
-4.746465744536351
 11
-2.8720346990645
 21
-4.746446460162446
 72
     1
 10
-2.8720346990645
 20
-4.746446460162446
 11
-2.797537755595215
 21
-4.691163989180851
 72
     1
 10
-2.797537755595215
 20
-4.691163989180851
 11
-2.718816732330737
 21
-4.64018415961084
 72
     1
 10
-2.718816732330737
 20
-4.64018415961084
 11
-2.718791108367483
 21
-4.64016754421165
 72
     1
 10
-2.718791108367483
 20
-4.64016754421165
 11
-2.636557524735622
 21
-4.593929314534407
 72
     1
 10
-2.636557524735622
 20
-4.593929314534407
 11
-2.550937520898472
 21
-4.552934856088299
 72
     1
 10
-2.550937520898472
 20
-4.552934856088299
 11
-2.550909649204513
 21
-4.5529214894907
 72
     1
 10
-2.550909649204513
 20
-4.5529214894907
 11
-2.462392315588787
 21
-4.517398324819084
 72
     1
 10
-2.462392315588787
 20
-4.517398324819084
 11
-2.371325747995954
 21
-4.487914278739041
 72
     1
 10
-2.371325747995954
 20
-4.487914278739041
 11
-2.371296101910531
 21
-4.487904654372926
 72
     1
 10
-2.371296101910531
 20
-4.487904654372926
 11
-2.278710675812008
 21
-4.464767378450475
 72
     1
 10
-2.278710675812008
 20
-4.464767378450475
 11
-2.185102851985675
 21
-4.448565923300862
 72
     1
 10
-2.185102851985675
 20
-4.448565923300862
 11
-2.184518746684745
 21
-4.448464929146809
 72
     1
 10
-2.184518746684745
 20
-4.448464929146809
 11
-2.184272814754749
 21
-4.448422364005182
 72
     1
 10
-2.184272814754749
 20
-4.448422364005182
 11
-2.088926897345914
 21
-4.43923283364559
 72
     1
 10
-2.088926897345914
 20
-4.43923283364559
 11
-1.993806927867695
 21
-4.437360779179315
 72
     1
 10
-1.993806927867695
 20
-4.437360779179315
 11
-1.993213406279665
 21
-4.437348995089621
 72
     1
 10
-1.993213406279665
 20
-4.437348995089621
 11
-1.992963501603299
 21
-4.437344076450913
 72
     1
 10
-1.992963501603299
 20
-4.437344076450913
 11
-1.891370156454101
 21
-4.442356547586002
 72
     1
 10
-1.891370156454101
 20
-4.442356547586002
 11
-1.799994485088661
 21
-4.453157303941055
 72
     1
 10
-1.799994485088661
 20
-4.453157303941055
 11
-1.799424342556421
 21
-4.453224847061733
 72
     1
 10
-1.799424342556421
 20
-4.453224847061733
 11
-1.799184275157245
 21
-4.45325322382304
 72
     1
 10
-1.799184275157245
 20
-4.45325322382304
 11
-1.715461479097783
 21
-4.471595962208994
 72
     1
 10
-1.715461479097783
 20
-4.471595962208994
 11
-1.641049863766483
 21
-4.498295775538409
 72
     1
 10
-1.641049863766483
 20
-4.498295775538409
 11
-1.640879854642975
 21
-4.498356749566341
 72
     1
 10
-1.640879854642975
 20
-4.498356749566341
 11
-1.640855568864922
 21
-4.498365463596741
 72
     1
 10
-1.640855568864922
 20
-4.498365463596741
 11
-1.574494810341548
 21
-4.535232551684558
 72
     1
 10
-1.574494810341548
 20
-4.535232551684558
 11
-1.544972316225895
 21
-4.557302371864054
 72
     1
 10
-1.544972316225895
 20
-4.557302371864054
 11
-1.544788125000309
 21
-4.557440110342895
 72
     1
 10
-1.544788125000309
 20
-4.557440110342895
 11
-1.544710561853222
 21
-4.557498093524799
 72
     1
 10
-1.544710561853222
 20
-4.557498093524799
 11
-1.516924037320919
 21
-4.582996315991849
 72
     1
 10
-1.516924037320919
 20
-4.582996315991849
 11
-1.491921538433161
 21
-4.611022029967671
 72
     1
 10
-1.491921538433161
 20
-4.611022029967671
 11
-1.491613917314808
 21
-4.611366692379434
 72
     1
 10
-1.491613917314808
 20
-4.611366692379434
 11
-1.491389492605507
 21
-4.611618252366895
 72
     1
 10
-1.491389492605507
 20
-4.611618252366895
 11
-1.467780027333063
 21
-4.643145969055837
 72
     1
 10
-1.467780027333063
 20
-4.643145969055837
 11
-1.446514402012355
 21
-4.678214357352758
 72
     1
 10
-1.446514402012355
 20
-4.678214357352758
 11
-1.446465804574359
 21
-4.6782944658828
 72
     1
 10
-1.446465804574359
 20
-4.6782944658828
 11
-1.44645886409154
 21
-4.678305911176466
 72
     1
 10
-1.44645886409154
 20
-4.678305911176466
 11
-1.42731703611075
 21
-4.716880145199127
 72
     1
 10
-1.42731703611075
 20
-4.716880145199127
 11
-1.337702868339207
 21
-4.501050956076114
 72
     1
 10
-1.337702868339207
 20
-4.501050956076114
 11
-1.337673712594608
 21
-4.500980665907932
 72
     1
 10
-1.337673712594608
 20
-4.500980665907932
 11
-0.6962953469773225
 21
-4.500980665907932
 97
        0
 92
        5
 93
       59
 72
     1
 10
-1.858498566846393
 20
-4.923553744584325
 11
-1.816909525969294
 21
-4.93532214508042
 72
     1
 10
-1.816909525969294
 20
-4.93532214508042
 11
-1.77877116174389
 21
-4.950504848271891
 72
     1
 10
-1.77877116174389
 20
-4.950504848271891
 11
-1.745318396600467
 21
-4.969283513122718
 72
     1
 10
-1.745318396600467
 20
-4.969283513122718
 11
-1.71644221407837
 21
-4.991621660217959
 72
     1
 10
-1.71644221407837
 20
-4.991621660217959
 11
-1.69221525666832
 21
-5.017119914007282
 72
     1
 10
-1.69221525666832
 20
-5.017119914007282
 11
-1.673000736853282
 21
-5.04668625295038
 72
     1
 10
-1.673000736853282
 20
-5.04668625295038
 11
-1.65836290508669
 21
-5.078976738168905
 72
     1
 10
-1.65836290508669
 20
-5.078976738168905
 11
-1.649609220855112
 21
-5.115190023559791
 72
     1
 10
-1.649609220855112
 20
-5.115190023559791
 11
-1.645940722136373
 21
-5.154563310201866
 72
     1
 10
-1.645940722136373
 20
-5.154563310201866
 11
-1.648047354492007
 21
-5.197786754504591
 72
     1
 10
-1.648047354492007
 20
-5.197786754504591
 11
-1.65600197128164
 21
-5.244424606945586
 72
     1
 10
-1.65600197128164
 20
-5.244424606945586
 11
-1.670312964535214
 21
-5.294767226622923
 72
     1
 10
-1.670312964535214
 20
-5.294767226622923
 11
-1.690762301338737
 21
-5.348342490063146
 72
     1
 10
-1.690762301338737
 20
-5.348342490063146
 11
-1.71564304119461
 21
-5.401917858925273
 72
     1
 10
-1.71564304119461
 20
-5.401917858925273
 11
-1.743865441263537
 21
-5.452296852574648
 72
     1
 10
-1.743865441263537
 20
-5.452296852574648
 11
-1.774630434096238
 21
-5.499552113502006
 72
     1
 10
-1.774630434096238
 20
-5.499552113502006
 11
-1.808264858191023
 21
-5.542920842796661
 72
     1
 10
-1.808264858191023
 20
-5.542920842796661
 11
-1.844005914641457
 21
-5.583238587302887
 72
     1
 10
-1.844005914641457
 20
-5.583238587302887
 11
-1.882216921357568
 21
-5.620105655152173
 72
     1
 10
-1.882216921357568
 20
-5.620105655152173
 11
-1.92275259334329
 21
-5.65337686676402
 72
     1
 10
-1.92275259334329
 20
-5.65337686676402
 11
-1.96503168521636
 21
-5.6830521167375
 72
     1
 10
-1.96503168521636
 20
-5.6830521167375
 11
-2.008909017415121
 21
-5.709494722958581
 72
     1
 10
-2.008909017415121
 20
-5.709494722958581
 11
-2.054457126995843
 21
-5.731905512555045
 72
     1
 10
-2.054457126995843
 20
-5.731905512555045
 11
-2.101203785029568
 21
-5.750647803444309
 72
     1
 10
-2.101203785029568
 20
-5.750647803444309
 11
-2.149403398392892
 21
-5.765612579153142
 72
     1
 10
-2.149403398392892
 20
-5.765612579153142
 11
-2.198293168179319
 21
-5.776654554689614
 72
     1
 10
-2.198293168179319
 20
-5.776654554689614
 11
-2.248381591845913
 21
-5.783882641094593
 72
     1
 10
-2.248381591845913
 20
-5.783882641094593
 11
-2.298615300501268
 21
-5.787042747778173
 72
     1
 10
-2.298615300501268
 20
-5.787042747778173
 11
-2.349866004092746
 21
-5.786207306376781
 72
     1
 10
-2.349866004092746
 20
-5.786207306376781
 11
-2.425888431094137
 21
-5.777635281093424
 72
     1
 10
-2.425888431094137
 20
-5.777635281093424
 11
-2.497007436953822
 21
-5.759401487670644
 72
     1
 10
-2.497007436953822
 20
-5.759401487670644
 11
-2.559844882083723
 21
-5.731070176575543
 72
     1
 10
-2.559844882083723
 20
-5.731070176575543
 11
-2.587086661179143
 21
-5.712909025653957
 72
     1
 10
-2.587086661179143
 20
-5.712909025653957
 11
-2.611640457102197
 21
-5.691696784511578
 72
     1
 10
-2.611640457102197
 20
-5.691696784511578
 11
-2.632816324284093
 21
-5.667724128554099
 72
     1
 10
-2.632816324284093
 20
-5.667724128554099
 11
-2.650069391305166
 21
-5.640664008403775
 72
     1
 10
-2.650069391305166
 20
-5.640664008403775
 11
-2.663508674618726
 21
-5.610516529503471
 72
     1
 10
-2.663508674618726
 20
-5.610516529503471
 11
-2.672080699898942
 21
-5.576991121869327
 72
     1
 10
-2.672080699898942
 20
-5.576991121869327
 11
-2.676257696082047
 21
-5.540523535034254
 72
     1
 10
-2.676257696082047
 20
-5.540523535034254
 11
-2.674841220142199
 21
-5.500278538451141
 72
     1
 10
-2.674841220142199
 20
-5.500278538451141
 11
-2.668230542228827
 21
-5.456837061233387
 72
     1
 10
-2.668230542228827
 20
-5.456837061233387
 11
-2.655808359278524
 21
-5.409581905727919
 72
     1
 10
-2.655808359278524
 20
-5.409581905727919
 11
-2.616289682221591
 21
-5.304501531831164
 72
     1
 10
-2.616289682221591
 20
-5.304501531831164
 11
-2.592970808714142
 21
-5.255575493512424
 72
     1
 10
-2.592970808714142
 20
-5.255575493512424
 11
-2.5671457164202
 21
-5.208647176530462
 72
     1
 10
-2.5671457164202
 20
-5.208647176530462
 11
-2.538124248909327
 21
-5.164660933306564
 72
     1
 10
-2.538124248909327
 20
-5.164660933306564
 11
-2.506741742158937
 21
-5.123253551376649
 72
     1
 10
-2.506741742158937
 20
-5.123253551376649
 11
-2.471981412101826
 21
-5.085042544659473
 72
     1
 10
-2.471981412101826
 20
-5.085042544659473
 11
-2.434496830329593
 21
-5.049882522730741
 72
     1
 10
-2.434496830329593
 20
-5.049882522730741
 11
-2.393343749853301
 21
-5.018391210384436
 72
     1
 10
-2.393343749853301
 20
-5.018391210384436
 11
-2.348885277699424
 21
-4.990241452820925
 72
     1
 10
-2.348885277699424
 20
-4.990241452820925
 11
-2.301375715317391
 21
-4.966014495408771
 72
     1
 10
-2.301375715317391
 20
-4.966014495408771
 11
-2.249834441755695
 21
-4.94563769566777
 72
     1
 10
-2.249834441755695
 20
-4.94563769566777
 11
-2.194443010509218
 21
-4.929583282535248
 72
     1
 10
-2.194443010509218
 20
-4.929583282535248
 11
-2.135964220513813
 21
-4.917742239548431
 72
     1
 10
-2.135964220513813
 20
-4.917742239548431
 11
-2.072836099971866
 21
-4.910768349155262
 72
     1
 10
-2.072836099971866
 20
-4.910768349155262
 11
-2.006039480711195
 21
-4.90786254392637
 72
     1
 10
-2.006039480711195
 20
-4.90786254392637
 11
-1.903937659966445
 21
-4.914981719300982
 72
     1
 10
-1.903937659966445
 20
-4.914981719300982
 11
-1.858498566846393
 21
-4.923553744584325
 97
        0
 92
        5
 93
       30
 72
     1
 10
-4.706199609927495
 20
-5.888999283530993
 11
-4.600937682501282
 21
-5.887473791131527
 72
     1
 10
-4.600937682501282
 20
-5.887473791131527
 11
-4.501124153063515
 21
-5.874107150323368
 72
     1
 10
-4.501124153063515
 20
-5.874107150323368
 11
-4.407085860141933
 21
-5.848463611542144
 72
     1
 10
-4.407085860141933
 20
-5.848463611542144
 11
-4.362118890523661
 21
-5.831246918484709
 72
     1
 10
-4.362118890523661
 20
-5.831246918484709
 11
-4.31907699973678
 21
-5.81065219126107
 72
     1
 10
-4.31907699973678
 20
-5.81065219126107
 11
-4.276943192852485
 21
-5.787260675260811
 72
     1
 10
-4.276943192852485
 20
-5.787260675260811
 11
-4.236589179818139
 21
-5.760636410086249
 72
     1
 10
-4.236589179818139
 20
-5.760636410086249
 11
-4.198051229154515
 21
-5.730852143660513
 72
     1
 10
-4.198051229154515
 20
-5.730852143660513
 11
-4.161184161314679
 21
-5.697907875983574
 72
     1
 10
-4.161184161314679
 20
-5.697907875983574
 11
-4.125915228366054
 21
-5.662057803077744
 72
     1
 10
-4.125915228366054
 20
-5.662057803077744
 11
-4.092644016746874
 21
-5.622793532898427
 72
     1
 10
-4.092644016746874
 20
-5.622793532898427
 11
-4.060898402947984
 21
-5.580405424564702
 72
     1
 10
-4.060898402947984
 20
-5.580405424564702
 11
-4.03075092404768
 21
-5.534929957481012
 72
     1
 10
-4.03075092404768
 20
-5.534929957481012
 11
-5.000918330608641
 21
-5.534929957481012
 72
     1
 10
-5.000918330608641
 20
-5.534929957481012
 11
-5.011161238705284
 21
-5.566748213772698
 72
     1
 10
-5.011161238705284
 20
-5.566748213772698
 11
-5.01682745875344
 21
-5.59820336301172
 72
     1
 10
-5.01682745875344
 20
-5.59820336301172
 11
-5.018135129094247
 21
-5.629440479335727
 72
     1
 10
-5.018135129094247
 20
-5.629440479335727
 11
-5.015701552791143
 21
-5.660132724242175
 72
     1
 10
-5.015701552791143
 20
-5.660132724242175
 11
-5.009345070900082
 21
-5.689808079637544
 72
     1
 10
-5.009345070900082
 20
-5.689808079637544
 11
-4.999138536766054
 21
-5.718611619669971
 72
     1
 10
-4.999138536766054
 20
-5.718611619669971
 11
-4.985154487452633
 21
-5.745744276878625
 72
     1
 10
-4.985154487452633
 20
-5.745744276878625
 11
-4.967065979027012
 21
-5.771351547120204
 72
     1
 10
-4.967065979027012
 20
-5.771351547120204
 11
-4.946180681822682
 21
-5.795360471617329
 72
     1
 10
-4.946180681822682
 20
-5.795360471617329
 11
-4.921299941959461
 21
-5.816899656705118
 72
     1
 10
-4.921299941959461
 20
-5.816899656705118
 11
-4.893259200849258
 21
-5.83625935608076
 72
     1
 10
-4.893259200849258
 20
-5.83625935608076
 11
-4.862022084514763
 21
-5.852895014602865
 72
     1
 10
-4.862022084514763
 20
-5.852895014602865
 11
-4.827733877966793
 21
-5.866915332447547
 72
     1
 10
-4.827733877966793
 20
-5.866915332447547
 11
-4.79006763725053
 21
-5.877630469471015
 72
     1
 10
-4.79006763725053
 20
-5.877630469471015
 11
-4.749459428193887
 21
-5.88514912585984
 72
     1
 10
-4.749459428193887
 20
-5.88514912585984
 11
-4.706199609927495
 21
-5.888999283530993
 97
        0
 75
     0
 76
     0
 47
0.322189
 98
        1
 10
0.0
 20
0.0
  0
HATCH
  5
C6
330
AB
100
AcDbEntity
  8
0
 62
     1
100
AcDbHatch
 10
0.0
 20
0.0
 30
0.0
210
0.0
220
0.0
230
1.0
  2
SOLID
 70
     1
 71
     0
 91
        2
 92
        5
 93
      266
 72
     1
 10
-5.878308736828643
 20
-5.706443640103032
 11
-5.875479631949759
 21
-5.668577763138956
 72
     1
 10
-5.875479631949759
 20
-5.668577763138956
 11
-5.888870279153466
 21
-5.635845392035535
 72
     1
 10
-5.888870279153466
 20
-5.635845392035535
 11
-5.918390665643173
 21
-5.608499345335133
 72
     1
 10
-5.918390665643173
 20
-5.608499345335133
 11
-5.963662202561565
 21
-5.586899161727956
 72
     1
 10
-5.963662202561565
 20
-5.586899161727956
 11
-6.025879674365285
 21
-5.571072894519091
 72
     1
 10
-6.025879674365285
 20
-5.571072894519091
 11
-6.101779942834853
 21
-5.56228844504048
 72
     1
 10
-6.101779942834853
 20
-5.56228844504048
 11
-6.273428272316806
 21
-5.567562474103596
 72
     1
 10
-6.273428272316806
 20
-5.567562474103596
 11
-6.351429526464756
 21
-5.582140792335991
 72
     1
 10
-6.351429526464756
 20
-5.582140792335991
 11
-6.415089242967326
 21
-5.604535010043321
 72
     1
 10
-6.415089242967326
 20
-5.604535010043321
 11
-6.46408236311963
 21
-5.634344412431034
 72
     1
 10
-6.46408236311963
 20
-5.634344412431034
 11
-6.503087832258132
 21
-5.674461895235311
 72
     1
 10
-6.503087832258132
 20
-5.674461895235311
 11
-6.511365522659759
 21
-5.684738929458788
 72
     1
 10
-6.511365522659759
 20
-5.684738929458788
 11
-6.517938337252289
 21
-5.692895155498007
 72
     1
 10
-6.517938337252289
 20
-5.692895155498007
 11
-6.523052586322336
 21
-5.699235978244488
 72
     1
 10
-6.523052586322336
 20
-5.699235978244488
 11
-6.526954580156527
 21
-5.70406680258975
 72
     1
 10
-6.526954580156527
 20
-5.70406680258975
 11
-6.529890629041489
 21
-5.707693033425329
 72
     1
 10
-6.529890629041489
 20
-5.707693033425329
 11
-6.532107043263849
 21
-5.71042007564273
 72
     1
 10
-6.532107043263849
 20
-5.71042007564273
 11
-6.533850133110235
 21
-5.712553334133474
 72
     1
 10
-6.533850133110235
 20
-5.712553334133474
 11
-6.535366208867259
 21
-5.714398213789082
 72
     1
 10
-6.535366208867259
 20
-5.714398213789082
 11
-6.536856059769988
 21
-5.716203992628863
 72
     1
 10
-6.536856059769988
 20
-5.716203992628863
 11
-6.538338390830759
 21
-5.717995441204863
 72
     1
 10
-6.538338390830759
 20
-5.717995441204863
 11
-6.53978638601032
 21
-5.719741203195966
 72
     1
 10
-6.53978638601032
 20
-5.719741203195966
 11
-6.541173229269447
 21
-5.721409922280998
 72
     1
 10
-6.541173229269447
 20
-5.721409922280998
 11
-6.542472104568887
 21
-5.722970242138842
 72
     1
 10
-6.542472104568887
 20
-5.722970242138842
 11
-6.543656195869403
 21
-5.724390806448355
 72
     1
 10
-6.543656195869403
 20
-5.724390806448355
 11
-6.544698687131785
 21
-5.725640258888376
 72
     1
 10
-6.544698687131785
 20
-5.725640258888376
 11
-6.546776607812177
 21
-5.72812923267611
 72
     1
 10
-6.546776607812177
 20
-5.72812923267611
 11
-6.547146821257087
 21
-5.728572453263851
 72
     1
 10
-6.547146821257087
 20
-5.728572453263851
 11
-6.547651170891712
 21
-5.729176499919248
 72
     1
 10
-6.547651170891712
 20
-5.729176499919248
 11
-6.547662675303641
 21
-5.729188630984623
 72
     1
 10
-6.547662675303641
 20
-5.729188630984623
 11
-6.570501936161904
 21
-5.751483235374849
 72
     1
 10
-6.570501936161904
 20
-5.751483235374849
 11
-6.596892127730484
 21
-5.772329005422634
 72
     1
 10
-6.596892127730484
 20
-5.772329005422634
 11
-6.597056814633547
 21
-5.772459053443583
 72
     1
 10
-6.597056814633547
 20
-5.772459053443583
 11
-6.597126148519834
 21
-5.772513820592636
 72
     1
 10
-6.597126148519834
 20
-5.772513820592636
 11
-6.626983041530167
 21
-5.7919462265899
 72
     1
 10
-6.626983041530167
 20
-5.7919462265899
 11
-6.69380459507714
 21
-5.825933159095342
 72
     1
 10
-6.69380459507714
 20
-5.825933159095342
 11
-6.694221587854656
 21
-5.826145142421837
 72
     1
 10
-6.694221587854656
 20
-5.826145142421837
 11
-6.694397145416929
 21
-5.82623443463018
 72
     1
 10
-6.694397145416929
 20
-5.82623443463018
 11
-6.767768099010695
 21
-5.853875670126399
 72
     1
 10
-6.767768099010695
 20
-5.853875670126399
 11
-6.843983694915607
 21
-5.87366484684037
 72
     1
 10
-6.843983694915607
 20
-5.87366484684037
 11
-6.844008510689775
 21
-5.87367129869449
 72
     1
 10
-6.844008510689775
 20
-5.87367129869449
 11
-6.917633720067357
 21
-5.885584998037757
 72
     1
 10
-6.917633720067357
 20
-5.885584998037757
 11
-6.984212405068149
 21
-5.888928299261494
 72
     1
 10
-6.984212405068149
 20
-5.888928299261494
 11
-6.985031365435489
 21
-5.888969281558573
 72
     1
 10
-6.985031365435489
 20
-5.888969281558573
 11
-6.985628980025027
 21
-5.888999289983474
 72
     1
 10
-6.985628980025027
 20
-5.888999289983474
 11
-7.061833069453044
 21
-5.884495330478444
 72
     1
 10
-7.061833069453044
 20
-5.884495330478444
 11
-7.134055108570379
 21
-5.874090386982985
 72
     1
 10
-7.134055108570379
 20
-5.874090386982985
 11
-7.13450576554537
 21
-5.874025535252883
 72
     1
 10
-7.13450576554537
 20
-5.874025535252883
 11
-7.134695511488289
 21
-5.873998198972899
 72
     1
 10
-7.134695511488289
 20
-5.873998198972899
 11
-7.20101994775959
 21
-5.857180995293533
 72
     1
 10
-7.20101994775959
 20
-5.857180995293533
 11
-7.256932591564251
 21
-5.834066963467691
 72
     1
 10
-7.256932591564251
 20
-5.834066963467691
 11
-7.257281511579947
 21
-5.833922834296232
 72
     1
 10
-7.257281511579947
 20
-5.833922834296232
 11
-7.257428408613436
 21
-5.833862108027347
 72
     1
 10
-7.257428408613436
 20
-5.833862108027347
 11
-7.280928907107324
 21
-5.819987006895801
 72
     1
 10
-7.280928907107324
 20
-5.819987006895801
 11
-7.300514566308863
 21
-5.804073696924149
 72
     1
 10
-7.300514566308863
 20
-5.804073696924149
 11
-7.300636756905476
 21
-5.803974378949874
 72
     1
 10
-7.300636756905476
 20
-5.803974378949874
 11
-7.300688213432451
 21
-5.803932570521852
 72
     1
 10
-7.300688213432451
 20
-5.803932570521852
 11
-7.316524716277897
 21
-5.786207310439608
 72
     1
 10
-7.316524716277897
 20
-5.786207310439608
 11
-7.327577672999027
 21
-5.767125730023196
 72
     1
 10
-7.327577672999027
 20
-5.767125730023196
 11
-7.327646609456537
 21
-5.767006647969737
 72
     1
 10
-7.327646609456537
 20
-5.767006647969737
 11
-7.327675648342051
 21
-5.766956515691831
 72
     1
 10
-7.327675648342051
 20
-5.766956515691831
 11
-7.334177331858797
 21
-5.745744319203226
 72
     1
 10
-7.334177331858797
 20
-5.745744319203226
 11
-7.334976155646203
 21
-5.722796126865504
 72
     1
 10
-7.334976155646203
 20
-5.722796126865504
 11
-7.334976421449255
 21
-5.722788654516521
 72
     1
 10
-7.334976421449255
 20
-5.722788654516521
 11
-7.330181883903364
 21
-5.697907910351887
 72
     1
 10
-7.330181883903364
 20
-5.697907910351887
 11
-7.319236924436737
 21
-5.671229693226195
 72
     1
 10
-7.319236924436737
 20
-5.671229693226195
 11
-7.319168673712696
 21
-5.671063210544133
 72
     1
 10
-7.319168673712696
 20
-5.671063210544133
 11
-7.319139918594885
 21
-5.670993119944058
 72
     1
 10
-7.319139918594885
 20
-5.670993119944058
 11
-7.301487302968695
 21
-5.645276963974879
 72
     1
 10
-7.301487302968695
 20
-5.645276963974879
 11
-7.278660027709449
 21
-5.62467813291893
 72
     1
 10
-7.278660027709449
 20
-5.62467813291893
 11
-7.277932557615486
 21
-5.624021942187511
 72
     1
 10
-7.277932557615486
 20
-5.624021942187511
 11
-7.276933459150868
 21
-5.623120388838373
 72
     1
 10
-7.276933459150868
 20
-5.623120388838373
 11
-7.245986898509472
 21
-5.604305461158347
 72
     1
 10
-7.245986898509472
 20
-5.604305461158347
 11
-7.211026005745609
 21
-5.58886994027597
 72
     1
 10
-7.211026005745609
 20
-5.58886994027597
 11
-7.210595934101903
 21
-5.588680152329829
 72
     1
 10
-7.210595934101903
 20
-5.588680152329829
 11
-7.210282122594904
 21
-5.588541602793626
 72
     1
 10
-7.210282122594904
 20
-5.588541602793626
 11
-7.169637520081096
 21
-5.575538235783213
 72
     1
 10
-7.169637520081096
 20
-5.575538235783213
 11
-7.12478767735621
 21
-5.564923502000937
 72
     1
 10
-7.12478767735621
 20
-5.564923502000937
 11
-7.124685206997725
 21
-5.564899279601463
 72
     1
 10
-7.124685206997725
 20
-5.564899279601463
 11
-7.124670569318454
 21
-5.564895815271868
 72
     1
 10
-7.124670569318454
 20
-5.564895815271868
 11
-7.026709449591508
 21
-5.550221624546822
 72
     1
 10
-7.026709449591508
 20
-5.550221624546822
 11
-6.921881235613682
 21
-5.541942856821947
 72
     1
 10
-6.921881235613682
 20
-5.541942856821947
 11
-6.92184710155982
 21
-5.541940150585731
 72
     1
 10
-6.92184710155982
 20
-5.541940150585731
 11
-6.815277607576149
 21
-5.537290902005111
 72
     1
 10
-6.815277607576149
 20
-5.537290902005111
 11
-6.623343435135681
 21
-5.531204748920089
 72
     1
 10
-6.623343435135681
 20
-5.531204748920089
 11
-6.622904946238165
 21
-5.53119074969365
 72
     1
 10
-6.622904946238165
 20
-5.53119074969365
 11
-6.622842304537954
 21
-5.531188763320358
 72
     1
 10
-6.622842304537954
 20
-5.531188763320358
 11
-6.408323070906405
 21
-5.515461227247869
 72
     1
 10
-6.408323070906405
 20
-5.515461227247869
 11
-6.277823387001689
 21
-5.500537608012124
 72
     1
 10
-6.277823387001689
 20
-5.500537608012124
 11
-6.277780889116741
 21
-5.500532780731902
 72
     1
 10
-6.277780889116741
 20
-5.500532780731902
 11
-6.141427146647317
 21
-5.479574840038168
 72
     1
 10
-6.141427146647317
 20
-5.479574840038168
 11
-6.007151181885746
 21
-5.450671701895431
 72
     1
 10
-6.007151181885746
 20
-5.450671701895431
 11
-6.007107450413713
 21
-5.45066232564551
 72
     1
 10
-6.007107450413713
 20
-5.45066232564551
 11
-5.942562804616586
 21
-5.433009710044033
 72
     1
 10
-5.942562804616586
 20
-5.433009710044033
 11
-5.881825685344737
 21
-5.413100139342149
 72
     1
 10
-5.881825685344737
 20
-5.413100139342149
 11
-5.881446733660766
 21
-5.412975811304335
 72
     1
 10
-5.881446733660766
 20
-5.412975811304335
 11
-5.881287161673967
 21
-5.41292350347473
 72
     1
 10
-5.881287161673967
 20
-5.41292350347473
 11
-5.824697089551535
 21
-5.390294739054937
 72
     1
 10
-5.824697089551535
 20
-5.390294739054937
 11
-5.772674145059668
 21
-5.364754270811133
 72
     1
 10
-5.772674145059668
 20
-5.364754270811133
 11
-5.772555311205338
 21
-5.36469588549592
 72
     1
 10
-5.772555311205338
 20
-5.36469588549592
 11
-5.772538332443261
 21
-5.364687549822321
 72
     1
 10
-5.772538332443261
 20
-5.364687549822321
 11
-5.726590680797813
 21
-5.336356191516472
 72
     1
 10
-5.726590680797813
 20
-5.336356191516472
 11
-5.688211495138575
 21
-5.305105538194226
 72
     1
 10
-5.688211495138575
 20
-5.305105538194226
 11
-5.687971989863726
 21
-5.304910578240182
 72
     1
 10
-5.687971989863726
 20
-5.304910578240182
 11
-5.687871157772534
 21
-5.304828474811316
 72
     1
 10
-5.687871157772534
 20
-5.304828474811316
 11
-5.627321959920906
 21
-5.243879732185008
 72
     1
 10
-5.627321959920906
 20
-5.243879732185008
 11
-5.566061025600504
 21
-5.172185142647194
 72
     1
 10
-5.566061025600504
 20
-5.172185142647194
 11
-5.565921021781094
 21
-5.172021390011267
 72
     1
 10
-5.565921021781094
 20
-5.172021390011267
 11
-5.565901027988133
 21
-5.171997991006975
 72
     1
 10
-5.565901027988133
 20
-5.171997991006975
 11
-5.508657155281654
 21
-5.090781430486288
 72
     1
 10
-5.508657155281654
 20
-5.090781430486288
 11
-5.482759389195962
 21
-5.047267369176026
 72
     1
 10
-5.482759389195962
 20
-5.047267369176026
 11
-5.482556639311724
 21
-5.046869615050838
 72
     1
 10
-5.482556639311724
 20
-5.046869615050838
 11
-5.480184380614574
 21
-5.042214078058208
 72
     1
 10
-5.480184380614574
 20
-5.042214078058208
 11
-5.477308259439539
 21
-5.036571899679217
 72
     1
 10
-5.477308259439539
 20
-5.036571899679217
 11
-5.473374702421808
 21
-5.028851862560543
 72
     1
 10
-5.473374702421808
 20
-5.028851862560543
 11
-5.469079442139105
 21
-5.020425348452562
 72
     1
 10
-5.469079442139105
 20
-5.020425348452562
 11
-5.465145885121601
 21
-5.012705311338067
 72
     1
 10
-5.465145885121601
 20
-5.012705311338067
 11
-5.462269763934728
 21
-5.007063132943173
 72
     1
 10
-5.462269763934728
 20
-5.007063132943173
 11
-5.460633432792051
 21
-5.00385128600044
 72
     1
 10
-5.460633432792051
 20
-5.00385128600044
 11
-5.460175269702972
 21
-5.002952706277682
 72
     1
 10
-5.460175269702972
 20
-5.002952706277682
 11
-5.459694756547748
 21
-5.002009841094036
 72
     1
 10
-5.459694756547748
 20
-5.002009841094036
 11
-5.440407639534072
 21
-4.955590000157329
 72
     1
 10
-5.440407639534072
 20
-4.955590000157329
 11
-5.425264498945978
 21
-4.90798684083812
 72
     1
 10
-5.425264498945978
 20
-4.90798684083812
 11
-5.425229879544503
 21
-4.90787809434606
 72
     1
 10
-5.425229879544503
 20
-4.90787809434606
 11
-5.425224937258605
 21
-4.907862558069354
 72
     1
 10
-5.425224937258605
 20
-4.907862558069354
 11
-5.414873094827073
 21
-4.859444993142134
 72
     1
 10
-5.414873094827073
 20
-4.859444993142134
 11
-5.409858258093962
 21
-4.81104030224148
 72
     1
 10
-5.409858258093962
 20
-4.81104030224148
 11
-5.409796669586299
 21
-4.810444888787714
 72
     1
 10
-5.409796669586299
 20
-4.810444888787714
 11
-5.409751656948842
 21
-4.81001040510381
 72
     1
 10
-5.409751656948842
 20
-4.81001040510381
 11
-5.410913969109657
 21
-4.760285239028434
 72
     1
 10
-5.410913969109657
 20
-4.760285239028434
 11
-5.41816924710615
 21
-4.711240344857785
 72
     1
 10
-5.41816924710615
 20
-4.711240344857785
 11
-5.418258584287941
 21
-4.710637080393411
 72
     1
 10
-5.418258584287941
 20
-4.710637080393411
 11
-5.418323708954887
 21
-4.710196850415372
 72
     1
 10
-5.418323708954887
 20
-4.710196850415372
 11
-5.433579055744588
 21
-4.660072139546372
 72
     1
 10
-5.433579055744588
 20
-4.660072139546372
 11
-5.456527236928451
 21
-4.609963740298554
 72
     1
 10
-5.456527236928451
 20
-4.609963740298554
 11
-5.456534720422752
 21
-4.609947428675071
 72
     1
 10
-5.456534720422752
 20
-4.609947428675071
 11
-5.478800262279776
 21
-4.578928223538526
 72
     1
 10
-5.478800262279776
 20
-4.578928223538526
 11
-5.50864744096873
 21
-4.551550164015765
 72
     1
 10
-5.50864744096873
 20
-4.551550164015765
 11
-5.508657155282037
 21
-4.551541243829945
 72
     1
 10
-5.508657155282037
 20
-4.551541243829945
 11
-5.545596887848589
 21
-4.527568556004127
 72
     1
 10
-5.545596887848589
 20
-4.527568556004127
 11
-5.588332490974551
 21
-4.507190898405227
 72
     1
 10
-5.588332490974551
 20
-4.507190898405227
 11
-5.588599126271774
 21
-4.507063697607663
 72
     1
 10
-5.588599126271774
 20
-4.507063697607663
 11
-5.588711403656646
 21
-4.507010160118412
 72
     1
 10
-5.588711403656646
 20
-4.507010160118412
 11
-5.63702000180686
 21
-4.489648122545447
 72
     1
 10
-5.63702000180686
 20
-4.489648122545447
 11
-5.688554500028474
 21
-4.475315317010882
 72
     1
 10
-5.688554500028474
 20
-4.475315317010882
 11
-5.689188371552248
 21
-4.475138907257346
 72
     1
 10
-5.689188371552248
 20
-4.475138907257346
 11
-5.689650948229428
 21
-4.47501025411654
 72
     1
 10
-5.689650948229428
 20
-4.47501025411654
 11
-5.804610882952176
 21
-4.453761735401656
 72
     1
 10
-5.804610882952176
 20
-4.453761735401656
 11
-5.9268792458153
 21
-4.441516717845801
 72
     1
 10
-5.9268792458153
 20
-4.441516717845801
 11
-5.927158586239543
 21
-4.441488809837495
 72
     1
 10
-5.927158586239543
 20
-4.441488809837495
 11
-5.927198491059883
 21
-4.441484813443637
 72
     1
 10
-5.927198491059883
 20
-4.441484813443637
 11
-6.050149321700104
 21
-4.436036475273269
 72
     1
 10
-6.050149321700104
 20
-4.436036475273269
 11
-6.166585037462113
 21
-4.435710526015157
 72
     1
 10
-6.166585037462113
 20
-4.435710526015157
 11
-6.166851045664544
 21
-4.435709681429756
 72
     1
 10
-6.166851045664544
 20
-4.435709681429756
 11
-6.166889046877174
 21
-4.435709575016915
 72
     1
 10
-6.166889046877174
 20
-4.435709575016915
 11
-6.271315527861432
 21
-4.43923283365713
 72
     1
 10
-6.271315527861432
 20
-4.43923283365713
 11
-6.367101468465933
 21
-4.447492808489614
 72
     1
 10
-6.367101468465933
 20
-4.447492808489614
 11
-6.367320306378616
 21
-4.447511611851326
 72
     1
 10
-6.367320306378616
 20
-4.447511611851326
 11
-6.367351568110465
 21
-4.44751430764363
 72
     1
 10
-6.367351568110465
 20
-4.44751430764363
 11
-6.463641864131049
 21
-4.462406431920726
 72
     1
 10
-6.463641864131049
 20
-4.462406431920726
 11
-6.556925697467904
 21
-4.48314408043538
 72
     1
 10
-6.556925697467904
 20
-4.48314408043538
 11
-6.557507744280827
 21
-4.483273566957507
 72
     1
 10
-6.557507744280827
 20
-4.483273566957507
 11
-6.557752824907709
 21
-4.483328050338827
 72
     1
 10
-6.557752824907709
 20
-4.483328050338827
 11
-6.648122593489205
 21
-4.509407428908844
 72
     1
 10
-6.648122593489205
 20
-4.509407428908844
 11
-6.732895346517722
 21
-4.539766165285613
 72
     1
 10
-6.732895346517722
 20
-4.539766165285613
 11
-6.733089001108084
 21
-4.539835569736624
 72
     1
 10
-6.733089001108084
 20
-4.539835569736624
 11
-6.733116668450208
 21
-4.539845477955694
 72
     1
 10
-6.733116668450208
 20
-4.539845477955694
 11
-6.810410425502226
 21
-4.573697818930498
 72
     1
 10
-6.810410425502226
 20
-4.573697818930498
 11
-6.87838355557588
 21
-4.610516588206437
 72
     1
 10
-6.87838355557588
 20
-4.610516588206437
 11
-6.878405685468508
 21
-4.610528584737224
 72
     1
 10
-6.878405685468508
 20
-4.610528584737224
 11
-6.935685880434235
 21
-4.648921207473705
 72
     1
 10
-6.935685880434235
 20
-4.648921207473705
 11
-6.909506029465604
 21
-4.501028829033146
 72
     1
 10
-6.909506029465604
 20
-4.501028829033146
 11
-6.909497535108812
 21
-4.500980665907932
 72
     1
 10
-6.909497535108812
 20
-4.500980665907932
 11
-7.592210626074774
 21
-4.500980665907932
 72
     1
 10
-7.592210626074774
 20
-4.500980665907932
 11
-7.581822461352317
 21
-4.525171287241079
 72
     1
 10
-7.581822461352317
 20
-4.525171287241079
 11
-7.576714386147188
 21
-4.555312708896366
 72
     1
 10
-7.576714386147188
 20
-4.555312708896366
 11
-7.57670269064819
 21
-4.555381565503922
 72
     1
 10
-7.57670269064819
 20
-4.555381565503922
 11
-7.576701023513493
 21
-4.555391402781098
 72
     1
 10
-7.576701023513493
 20
-4.555391402781098
 11
-7.576374123202811
 21
-4.590442378135379
 72
     1
 10
-7.576374123202811
 20
-4.590442378135379
 11
-7.580478519927794
 21
-4.629793668774511
 72
     1
 10
-7.580478519927794
 20
-4.629793668774511
 11
-7.580504077040743
 21
-4.630039216039961
 72
     1
 10
-7.580504077040743
 20
-4.630039216039961
 11
-7.580514860209973
 21
-4.630142602039712
 72
     1
 10
-7.580514860209973
 20
-4.630142602039712
 11
-7.599838299409527
 21
-4.721020882187773
 72
     1
 10
-7.599838299409527
 20
-4.721020882187773
 11
-7.630981080463116
 21
-4.821937281968388
 72
     1
 10
-7.630981080463116
 20
-4.821937281968388
 11
-7.631175229739753
 21
-4.822567027316865
 72
     1
 10
-7.631175229739753
 20
-4.822567027316865
 11
-7.631257049401157
 21
-4.822832160855057
 72
     1
 10
-7.631257049401157
 20
-4.822832160855057
 11
-7.67030347271205
 21
-4.930890867263571
 72
     1
 10
-7.67030347271205
 20
-4.930890867263571
 11
-7.713512909852369
 21
-5.040548357951451
 72
     1
 10
-7.713512909852369
 20
-5.040548357951451
 11
-7.713526955287676
 21
-5.040584075110729
 72
     1
 10
-7.713526955287676
 20
-5.040584075110729
 11
-7.797431362609217
 21
-5.245005722061592
 72
     1
 10
-7.797431362609217
 20
-5.245005722061592
 11
-7.882107312469913
 21
-5.445221425539927
 72
     1
 10
-7.882107312469913
 20
-5.445221425539927
 11
-7.882134859532528
 21
-5.445286632012824
 72
     1
 10
-7.882134859532528
 20
-5.445286632012824
 11
-7.92532201983056
 21
-5.551674514730877
 72
     1
 10
-7.92532201983056
 20
-5.551674514730877
 11
-7.964210523961185
 21
-5.657991443488882
 72
     1
 10
-7.964210523961185
 20
-5.657991443488882
 11
-7.964223154154084
 21
-5.658026075182519
 72
     1
 10
-7.964223154154084
 20
-5.658026075182519
 11
-7.994007402593169
 21
-5.76081805473099
 72
     1
 10
-7.994007402593169
 20
-5.76081805473099
 11
-8.010352906874914
 21
-5.855901995945686
 72
     1
 10
-8.010352906874914
 20
-5.855901995945686
 11
-8.01045476257147
 21
-5.856495318121176
 72
     1
 10
-8.01045476257147
 20
-5.856495318121176
 11
-8.010497706069927
 21
-5.856745128208345
 72
     1
 10
-8.010497706069927
 20
-5.856745128208345
 11
-8.012386463256036
 21
-5.900876667127236
 72
     1
 10
-8.012386463256036
 20
-5.900876667127236
 11
-8.009576883185389
 21
-5.941350259133813
 72
     1
 10
-8.009576883185389
 20
-5.941350259133813
 11
-8.009542225051703
 21
-5.941848098979506
 72
     1
 10
-8.009542225051703
 20
-5.941848098979506
 11
-8.009517005205339
 21
-5.942211392464017
 72
     1
 10
-8.009517005205339
 20
-5.942211392464017
 11
-8.000981275463047
 21
-5.980168148163472
 72
     1
 10
-8.000981275463047
 20
-5.980168148163472
 11
-7.986796052673299
 21
-6.013866956286336
 72
     1
 10
-7.986796052673299
 20
-6.013866956286336
 11
-7.986707575424276
 21
-6.014077242648568
 72
     1
 10
-7.986707575424276
 20
-6.014077242648568
 11
-7.986670307277962
 21
-6.014165778143308
 72
     1
 10
-7.986670307277962
 20
-6.014165778143308
 11
-7.969671492304045
 21
-6.040608379255559
 72
     1
 10
-7.969671492304045
 20
-6.040608379255559
 11
-7.948723342354327
 21
-6.064792906592174
 72
     1
 10
-7.948723342354327
 20
-6.064792906592174
 11
-7.948465716043984
 21
-6.065090429915387
 72
     1
 10
-7.948465716043984
 20
-6.065090429915387
 11
-7.948277684530439
 21
-6.065307512137991
 72
     1
 10
-7.948277684530439
 20
-6.065307512137991
 11
-7.92256152851806
 21
-6.088408465843131
 72
     1
 10
-7.92256152851806
 20
-6.088408465843131
 11
-7.8921697022774
 21
-6.109759004977491
 72
     1
 10
-7.8921697022774
 20
-6.109759004977491
 11
-7.89215980170971
 21
-6.109765951344372
 72
     1
 10
-7.89215980170971
 20
-6.109765951344372
 11
-7.857217793112795
 21
-6.129416290891982
 72
     1
 10
-7.857217793112795
 20
-6.129416290891982
 11
-7.817566806113945
 21
-6.147353650729514
 72
     1
 10
-7.817566806113945
 20
-6.147353650729514
 11
-7.817553891467682
 21
-6.147359484494373
 72
     1
 10
-7.817553891467682
 20
-6.147359484494373
 11
-7.722462229840517
 21
-6.178523978679436
 72
     1
 10
-7.722462229840517
 20
-6.178523978679436
 11
-7.607185780159668
 21
-6.203122471960029
 72
     1
 10
-7.607185780159668
 20
-6.203122471960029
 11
-7.606922439648059
 21
-6.203178761027431
 72
     1
 10
-7.606922439648059
 20
-6.203178761027431
 11
-7.60688481679226
 21
-6.203186789286107
 72
     1
 10
-7.60688481679226
 20
-6.203186789286107
 11
-7.468787606120358
 21
-6.221747461214534
 72
     1
 10
-7.468787606120358
 20
-6.221747461214534
 11
-7.30756929228366
 21
-6.234129292563807
 72
     1
 10
-7.30756929228366
 20
-6.234129292563807
 11
-7.30751679723312
 21
-6.234133349905633
 72
     1
 10
-7.30751679723312
 20
-6.234133349905633
 11
-7.121764788977174
 21
-6.240417099929545
 72
     1
 10
-7.121764788977174
 20
-6.240417099929545
 11
-6.990548186103183
 21
-6.240489464287407
 72
     1
 10
-6.990548186103183
 20
-6.240489464287407
 11
-6.990248409324295
 21
-6.240489720757708
 72
     1
 10
-6.990248409324295
 20
-6.240489720757708
 11
-6.990205584062267
 21
-6.240489744405025
 72
     1
 10
-6.990205584062267
 20
-6.240489744405025
 11
-6.831259399449493
 21
-6.232535170728426
 72
     1
 10
-6.831259399449493
 20
-6.232535170728426
 11
-6.74485642140958
 21
-6.223188404329974
 72
     1
 10
-6.74485642140958
 20
-6.223188404329974
 11
-6.744659022449099
 21
-6.223167079626649
 72
     1
 10
-6.744659022449099
 20
-6.223167079626649
 11
-6.744630823042698
 21
-6.223164029124831
 72
     1
 10
-6.744630823042698
 20
-6.223164029124831
 11
-6.654696921521023
 21
-6.209797439545397
 72
     1
 10
-6.654696921521023
 20
-6.209797439545397
 11
-6.562787326975695
 21
-6.190922866492343
 72
     1
 10
-6.562787326975695
 20
-6.190922866492343
 11
-6.562577359070062
 21
-6.190879705213774
 72
     1
 10
-6.562577359070062
 20
-6.190879705213774
 11
-6.562547362468791
 21
-6.190873545091876
 72
     1
 10
-6.562547362468791
 20
-6.190873545091876
 11
-6.469998258642491
 21
-6.166101767672942
 72
     1
 10
-6.469998258642491
 20
-6.166101767672942
 11
-6.377327870740032
 21
-6.134366393506767
 72
     1
 10
-6.377327870740032
 20
-6.134366393506767
 11
-6.377116177143989
 21
-6.134293830477205
 72
     1
 10
-6.377116177143989
 20
-6.134293830477205
 11
-6.377085932246075
 21
-6.134283472959382
 72
     1
 10
-6.377085932246075
 20
-6.134283472959382
 11
-6.285735462807168
 21
-6.095237049633298
 72
     1
 10
-6.285735462807168
 20
-6.095237049633298
 11
-6.197557309966129
 21
-6.047416561460267
 72
     1
 10
-6.197557309966129
 20
-6.047416561460267
 11
-6.197355874711235
 21
-6.047307281240819
 72
     1
 10
-6.197355874711235
 20
-6.047307281240819
 11
-6.19732709594598
 21
-6.047291674022176
 72
     1
 10
-6.19732709594598
 20
-6.047291674022176
 11
-6.112151409722415
 21
-5.990338379345644
 72
     1
 10
-6.112151409722415
 20
-5.990338379345644
 11
-6.071648862489695
 21
-5.958530511978253
 72
     1
 10
-6.071648862489695
 20
-5.958530511978253
 11
-6.071556348306331
 21
-5.958457821279666
 72
     1
 10
-6.071556348306331
 20
-5.958457821279666
 11
-6.071543129465113
 21
-5.958447440114554
 72
     1
 10
-6.071543129465113
 20
-5.958447440114554
 11
-6.032460383871012
 21
-5.923578076048642
 72
     1
 10
-6.032460383871012
 20
-5.923578076048642
 11
-5.994638730208095
 21
-5.886191096722584
 72
     1
 10
-5.994638730208095
 20
-5.886191096722584
 11
-5.994552294329978
 21
-5.886105711648497
 72
     1
 10
-5.994552294329978
 20
-5.886105711648497
 11
-5.994539950438877
 21
-5.886093509641199
 72
     1
 10
-5.994539950438877
 20
-5.886093509641199
 11
-5.958508274231321
 21
-5.845739485163222
 72
     1
 10
-5.958508274231321
 20
-5.845739485163222
 11
-5.924454245686292
 21
-5.802664809911079
 72
     1
 10
-5.924454245686292
 20
-5.802664809911079
 11
-5.924376469452099
 21
-5.8025663831815
 72
     1
 10
-5.924376469452099
 20
-5.8025663831815
 11
-5.924365355220658
 21
-5.802552324861097
 72
     1
 10
-5.924365355220658
 20
-5.802552324861097
 11
-5.9002473784019
 21
-5.768591017120556
 72
     1
 10
-5.9002473784019
 20
-5.768591017120556
 11
-5.896033992688217
 21
-5.757612617400326
 72
     1
 10
-5.896033992688217
 20
-5.757612617400326
 11
-5.894271232500415
 21
-5.753009816448
 72
     1
 10
-5.894271232500415
 20
-5.753009816448
 11
-5.892201999078793
 21
-5.747550074397964
 72
     1
 10
-5.892201999078793
 20
-5.747550074397964
 11
-5.889914832131666
 21
-5.741405672044095
 72
     1
 10
-5.889914832131666
 20
-5.741405672044095
 11
-5.887498267153745
 21
-5.734748891797409
 72
     1
 10
-5.887498267153745
 20
-5.734748891797409
 11
-5.885040839639771
 21
-5.727752016068934
 72
     1
 10
-5.885040839639771
 20
-5.727752016068934
 11
-5.882631085084455
 21
-5.720587327269698
 72
     1
 10
-5.882631085084455
 20
-5.720587327269698
 11
-5.880357538982509
 21
-5.71342710781073
 72
     1
 10
-5.880357538982509
 20
-5.71342710781073
 11
-5.878308736828643
 21
-5.706443640103032
 97
        0
 92
        5
 93
       39
 72
     1
 10
-6.980325948179626
 20
-4.978690979807467
 11
-7.026237270235953
 21
-5.018500121414817
 72
     1
 10
-7.026237270235953
 20
-5.018500121414817
 11
-7.06771729465973
 21
-5.062885951074833
 72
     1
 10
-7.06771729465973
 20
-5.062885951074833
 11
-7.104729647495702
 21
-5.112647430805453
 72
     1
 10
-7.104729647495702
 20
-5.112647430805453
 11
-7.135639925309846
 21
-5.167711918094994
 72
     1
 10
-7.135639925309846
 20
-5.167711918094994
 11
-7.159866882712549
 21
-5.228297445879463
 72
     1
 10
-7.159866882712549
 20
-5.228297445879463
 11
-7.177301503257851
 21
-5.294767226622923
 72
     1
 10
-7.177301503257851
 20
-5.294767226622923
 11
-7.024021621419678
 21
-5.259389382654405
 72
     1
 10
-7.024021621419678
 20
-5.259389382654405
 11
-6.880221848764307
 21
-5.236869576595197
 72
     1
 10
-6.880221848764307
 20
-5.236869576595197
 11
-6.748299387639605
 21
-5.223793505760398
 72
     1
 10
-6.748299387639605
 20
-5.223793505760398
 11
-6.630324707278192
 21
-5.21631111790073
 72
     1
 10
-6.630324707278192
 20
-5.21631111790073
 11
-6.528259155076242
 21
-5.211008110331321
 72
     1
 10
-6.528259155076242
 20
-5.211008110331321
 11
-6.444536307307516
 21
-5.204179504930067
 72
     1
 10
-6.444536307307516
 20
-5.204179504930067
 11
-6.381226633248673
 21
-5.192229445480507
 72
     1
 10
-6.381226633248673
 20
-5.192229445480507
 11
-6.358125687228068
 21
-5.183403224185341
 72
     1
 10
-6.358125687228068
 20
-5.183403224185341
 11
-6.340872620206994
 21
-5.171344148283509
 72
     1
 10
-6.340872620206994
 20
-5.171344148283509
 11
-6.319842038013888
 21
-5.155217092649778
 72
     1
 10
-6.319842038013888
 20
-5.155217092649778
 11
-6.296704823465149
 21
-5.140579260886341
 72
     1
 10
-6.296704823465149
 20
-5.140579260886341
 11
-6.272986363526826
 21
-5.125941323690526
 72
     1
 10
-6.272986363526826
 20
-5.125941323690526
 11
-6.249522205030615
 21
-5.108760899162263
 72
     1
 10
-6.249522205030615
 20
-5.108760899162263
 11
-6.227510896444187
 21
-5.087185550977694
 72
     1
 10
-6.227510896444187
 20
-5.087185550977694
 11
-6.207388398146321
 21
-5.058745223419834
 72
     1
 10
-6.207388398146321
 20
-5.058745223419834
 11
-6.190825382121219
 21
-5.021914424110193
 72
     1
 10
-6.190825382121219
 20
-5.021914424110193
 11
-6.178693769148467
 21
-4.973969112195249
 72
     1
 10
-6.178693769148467
 20
-4.973969112195249
 11
-6.17615117639204
 21
-4.939462872724931
 72
     1
 10
-6.17615117639204
 20
-4.939462872724931
 11
-6.181563200425245
 21
-4.90786254392637
 72
     1
 10
-6.181563200425245
 20
-4.90786254392637
 11
-6.197072847551624
 21
-4.879821802815116
 72
     1
 10
-6.197072847551624
 20
-4.879821802815116
 11
-6.223697007302192
 21
-4.85577639892405
 72
     1
 10
-6.223697007302192
 20
-4.85577639892405
 11
-6.262234957958469
 21
-4.836307683096152
 72
     1
 10
-6.262234957958469
 20
-4.836307683096152
 11
-6.314539030441324
 21
-4.822069437768818
 72
     1
 10
-6.314539030441324
 20
-4.822069437768818
 11
-6.382207359641996
 21
-4.812916167095892
 72
     1
 10
-6.382207359641996
 20
-4.812916167095892
 11
-6.466402330905169
 21
-4.80971979188314
 72
     1
 10
-6.466402330905169
 20
-4.80971979188314
 11
-6.557534924036546
 21
-4.815422385888667
 72
     1
 10
-6.557534924036546
 20
-4.815422385888667
 11
-6.661089594676398
 21
-4.833438251818308
 72
     1
 10
-6.661089594676398
 20
-4.833438251818308
 11
-6.715246103507269
 21
-4.847894530060657
 72
     1
 10
-6.715246103507269
 20
-4.847894530060657
 11
-6.770310696226048
 21
-4.865801379538041
 72
     1
 10
-6.770310696226048
 20
-4.865801379538041
 11
-6.825193630000797
 21
-4.887522118146919
 72
     1
 10
-6.825193630000797
 20
-4.887522118146919
 11
-6.879059463412276
 21
-4.913528869402711
 72
     1
 10
-6.879059463412276
 20
-4.913528869402711
 11
-6.930891306966203
 21
-4.943785259333396
 72
     1
 10
-6.930891306966203
 20
-4.943785259333396
 11
-6.980325948179626
 21
-4.978690979807467
 97
        0
 75
     0
 76
     0
 47
0.322189
 98
        1
 10
0.0
 20
0.0
  0
TEXT
  5
C7
330
AB
100
AcDbEntity
  8
0
  6
CONTINUOUS
 62
     1
100
AcDbText
 10
18.5
 20
1.5
 40
1.5
 41
0.7236842105263159
 50
180.0
 51
0.0
  7
STANDARD
  1
S/N :T******
100
AcDbText
  0
TEXT
  5
C8
330
AB
100
AcDbEntity
  8
0
  6
CONTINUOUS
 62
     1
100
AcDbText
 10
18.5
 20
4.5
 40
1.5
 41
0.7236842105263158
 50
180.0
 51
0.0
  7
STANDARD
  1
OIML:C3
100
AcDbText
  0
TEXT
  5
C9
330
AB
100
AcDbEntity
  8
0
  6
CONTINUOUS
 62
     1
100
AcDbText
 10
4.5
 20
1.5
 40
1.5
 41
0.7236842105263158
 50
180.0
 51
0.0
  7
STANDARD
  1
Emax:***kg
100
AcDbText
  0
TEXT
  5
CA
330
AB
100
AcDbEntity
  8
0
  6
CONTINUOUS
 62
     1
100
AcDbText
 10
4.5
 20
4.5
 40
1.5
 41
0.7236842105263158
 50
180.0
 51
0.0
  7
STANDARD
  1
Vmin: ** g
100
AcDbText
  0
TEXT
  5
CB
330
AB
100
AcDbEntity
  8
0
  6
CONTINUOUS
 62
     1
100
AcDbText
 10
-7.5
 20
1.5
 40
1.5
 41
0.7236842105263159
 50
180.0
 51
0.0
  7
STANDARD
  1

100
AcDbText
  0
TEXT
  5
CC
330
AB
100
AcDbEntity
  8
0
  6
CONTINUOUS
 62
     1
100
AcDbText
 10
-7.5
 20
4.5
 40
1.5
 41
0.7236842105263158
 50
180.0
 51
0.0
  7
STANDARD
  1
YEAR:****
100
AcDbText
  0
TEXT
  5
CD
330
AB
100
AcDbEntity
  8
0
  6
CONTINUOUS
 62
     1
100
AcDbText
 10
5.40625
 20
7.25
 40
1.0
 41
0.7236842105263158
 50
180.0
 51
0.0
  7
STANDARD
  1
MINEBEA CO.,LTD.
100
AcDbText
  0
TEXT
  5
CE
330
AB
100
AcDbEntity
  8
0
  6
CONTINUOUS
 62
     1
100
AcDbText
 10
18.5
 20
-1.5
 40
2.0
 41
0.7236842105263157
 50
180.0
 51
0.0
  7
STANDARD
  1
TYPE:    C2B1B-***K
100
AcDbText
  0
LINE
  5
CF
330
AB
100
AcDbEntity
  8
0
  6
CONTINUOUS
 62
     1
100
AcDbLine
 10
-19.0
 20
-1.0
 11
19.0
 21
-1.0
  0
LINE
  5
D0
330
AB
100
AcDbEntity
  8
0
  6
CONTINUOUS
 62
     1
100
AcDbLine
 10
-6.75
 20
2.0
 11
-19.0
 21
2.0
  0
LINE
  5
D1
330
AB
100
AcDbEntity
  8
0
  6
CONTINUOUS
 62
     1
100
AcDbLine
 10
-19.0
 20
5.0
 11
-6.75
 21
5.0
  0
LINE
  5
D2
330
AB
100
AcDbEntity
  8
0
  6
CONTINUOUS
 62
     1
100
AcDbLine
 10
5.25
 20
2.0
 11
-6.25
 21
2.0
  0
LINE
  5
D3
330
AB
100
AcDbEntity
  8
0
  6
CONTINUOUS
 62
     1
100
AcDbLine
 10
-6.25
 20
5.0
 11
5.25
 21
5.0
  0
LINE
  5
D4
330
AB
100
AcDbEntity
  8
0
  6
CONTINUOUS
 62
     1
100
AcDbLine
 10
19.0
 20
2.0
 11
5.75
 21
2.0
  0
LINE
  5
D5
330
AB
100
AcDbEntity
  8
0
  6
CONTINUOUS
 62
     1
100
AcDbLine
 10
5.75
 20
5.0
 11
19.0
 21
5.0
  0
TEXT
  5
D6
330
AB
100
AcDbEntity
  8
0
  6
CONTINUOUS
 62
     1
100
AcDbText
 10
-7.59375
 20
7.25
 40
1.0
 41
0.7236842105263158
 50
180.0
 51
0.0
  7
STANDARD
  1
MADE IN THAILAND
100
AcDbText
  0
ENDBLK
  5
D7
330
AB
100
AcDbEntity
  8
0
100
AcDbBlockEnd
  0
ENDSEC
  0
SECTION
  2
ENTITIES
  0
CIRCLE
  5
24
330
20
100
AcDbEntity
  8
0
  6
CONTINUOUS
 62
     1
100
AcDbCircle
 10
0.0
 20
5.0
 40
10.0
  0
LINE
  5
25
330
20
100
AcDbEntity
  8
0
  6
CONTINUOUS
 62
     1
100
AcDbLine
 10
114.25
 20
20.1
 11
114.25
 21
-16.40000000000001
  0
LINE
  5
26
330
20
100
AcDbEntity
  8
0
  6
CONTINUOUS
 62
     1
100
AcDbLine
 10
-57.25
 20
20.1
 11
-57.25
 21
-10.1
  0
LINE
  5
27
330
20
100
AcDbEntity
  8
0
  6
CONTINUOUS
 62
     1
100
AcDbLine
 10
-57.25
 20
20.1
 11
114.25
 21
20.1
  0
LINE
  5
28
330
20
100
AcDbEntity
  8
0
  6
CONTINUOUS
 62
     1
100
AcDbLine
 10
38.25
 20
-16.4
 11
114.25
 21
-16.40000000000001
  0
LINE
  5
29
330
20
100
AcDbEntity
  8
0
  6
CONTINUOUS
 62
     1
100
AcDbLine
 10
-57.25
 20
41.0
 11
-57.25
 21
79.0
  0
LINE
  5
2A
330
20
100
AcDbEntity
  8
0
  6
CONTINUOUS
 62
     1
100
AcDbLine
 10
114.25
 20
41.0
 11
114.25
 21
79.0
  0
LINE
  5
2B
330
20
100
AcDbEntity
  8
0
  6
CONTINUOUS
 62
     1
100
AcDbLine
 10
-57.25
 20
41.0
 11
114.25
 21
41.0
  0
LINE
  5
2C
330
20
100
AcDbEntity
  8
0
  6
CONTINUOUS
 62
     1
100
AcDbLine
 10
-57.25
 20
79.0
 11
114.25
 21
79.0
  0
LINE
  5
2D
330
20
100
AcDbEntity
  8
0
  6
DASHED
 62
     1
100
AcDbLine
 10
-53.34999999999999
 20
3.100000000000001
 11
-53.34999999999999
 21
20.1
  0
LINE
  5
2E
330
20
100
AcDbEntity
  8
0
  6
DASHED
 62
     1
100
AcDbLine
 10
-23.15
 20
3.100000000000001
 11
-23.15
 21
20.1
  0
LINE
  5
2F
330
20
100
AcDbEntity
  8
0
  6
DASHED
 62
     1
100
AcDbLine
 10
-53.34999999999999
 20
3.100000000000001
 11
-23.15
 21
3.100000000000001
  0
CIRCLE
  5
30
330
20
100
AcDbEntity
  8
0
  6
CONTINUOUS
 62
     1
100
AcDbCircle
 10
0.0
 20
5.0
 40
10.5
  0
CIRCLE
  5
31
330
20
100
AcDbEntity
  8
0
  6
CONTINUOUS
 62
     1
100
AcDbCircle
 10
76.05
 20
1.85
 40
12.5
  0
CIRCLE
  5
32
330
20
100
AcDbEntity
  8
0
  6
CONTINUOUS
 62
     1
100
AcDbCircle
 10
76.05
 20
1.85
 40
13.1
  0
CIRCLE
  5
33
330
20
100
AcDbEntity
  8
0
  6
CONTINUOUS
 62
     1
100
AcDbCircle
 10
0.0
 20
5.0
 40
12.5
  0
ARC
  5
34
330
20
100
AcDbEntity
  8
0
  6
CONTINUOUS
 62
     1
100
AcDbCircle
 10
28.95968245967879
 20
-20.1
 40
10.0
100
AcDbArc
 50
21.71561728326446
 51
90.0
  0
LINE
  5
35
330
20
100
AcDbEntity
  8
0
  6
CONTINUOUS
 62
     1
100
AcDbLine
 10
-57.25
 20
-10.1
 11
28.95968245967879
 21
-10.1
  0
CIRCLE
  5
36
330
20
100
AcDbEntity
  8
0
  6
CONTINUOUS
 62
     1
100
AcDbCircle
 10
-38.25
 20
60.0
 40
16.0
  0
CIRCLE
  5
37
330
20
100
AcDbEntity
  8
0
  6
CONTINUOUS
 62
     1
100
AcDbCircle
 10
-38.25
 20
60.0
 40
10.0
  0
CIRCLE
  5
38
330
20
100
AcDbEntity
  8
0
  6
CONTINUOUS
 62
     1
100
AcDbCircle
 10
-38.25
 20
60.0
 40
9.0
  0
LINE
  5
39
330
20
100
AcDbEntity
  8
0
  6
DASHED
 62
     1
100
AcDbLine
 10
-29.25
 20
-10.1
 11
-29.25
 21
3.100000000000001
  0
LINE
  5
3A
330
20
100
AcDbEntity
  8
0
  6
DASHED
 62
     1
100
AcDbLine
 10
-47.25
 20
-10.1
 11
-47.25
 21
3.100000000000001
  0
LINE
  5
3B
330
20
100
AcDbEntity
  8
0
  6
DASHED
 62
     1
100
AcDbLine
 10
-48.25
 20
-10.1
 11
-48.25
 21
3.100000000000001
  0
LINE
  5
3C
330
20
100
AcDbEntity
  8
0
  6
DASHED
 62
     1
100
AcDbLine
 10
-28.25
 20
-10.1
 11
-28.25
 21
3.100000000000001
  0
LINE
  5
3D
330
20
100
AcDbEntity
  8
0
  6
CONTINUOUS
 62
     1
100
AcDbLine
 10
120.25
 20
42.0
 11
120.25
 21
51.0
  0
ARC
  5
3E
330
20
100
AcDbEntity
  8
0
  6
CONTINUOUS
 62
     1
100
AcDbCircle
 10
119.25
 20
51.0
 40
1.0
100
AcDbArc
 50
0.0
 51
90.0
  0
ARC
  5
3F
330
20
100
AcDbEntity
  8
0
  6
CONTINUOUS
 62
     1
100
AcDbCircle
 10
119.25
 20
42.0
 40
1.0
100
AcDbArc
 50
270.0
 51
0.0
  0
LINE
  5
40
330
20
100
AcDbEntity
  8
0
  6
CONTINUOUS
 62
     1
100
AcDbLine
 10
115.25
 20
41.0
 11
115.25
 21
52.0
  0
LINE
  5
41
330
20
100
AcDbEntity
  8
0
  6
CONTINUOUS
 62
     1
100
AcDbLine
 10
119.25
 20
52.0
 11
115.25
 21
52.0
  0
LINE
  5
42
330
20
100
AcDbEntity
  8
0
  6
CONTINUOUS
 62
     1
100
AcDbLine
 10
115.25
 20
51.0
 11
114.25
 21
51.0
  0
LINE
  5
43
330
20
100
AcDbEntity
  8
0
  6
CONTINUOUS
 62
     1
100
AcDbLine
 10
119.25
 20
41.0
 11
115.25
 21
41.0
  0
LINE
  5
44
330
20
100
AcDbEntity
  8
0
  6
CONTINUOUS
 62
     1
100
AcDbLine
 10
115.25
 20
42.0
 11
114.25
 21
42.0
  0
LINE
  5
45
330
20
100
AcDbEntity
  8
0
  6
CONTINUOUS
 62
     1
100
AcDbLine
 10
115.25
 20
-1.25
 11
115.25
 21
11.25
  0
LINE
  5
46
330
20
100
AcDbEntity
  8
0
  6
CONTINUOUS
 62
     1
100
AcDbLine
 10
115.25
 20
2.031414478240521
 11
120.25
 21
2.031414478240521
  0
LINE
  5
47
330
20
100
AcDbEntity
  8
0
  6
CONTINUOUS
 62
     1
100
AcDbLine
 10
120.25
 20
7.968585521759479
 11
115.25
 21
7.968585521759479
  0
LINE
  5
48
330
20
100
AcDbEntity
  8
0
  6
CONTINUOUS
 62
     1
100
AcDbLine
 10
120.25
 20
-0.25
 11
120.25
 21
10.25
  0
LINE
  5
49
330
20
100
AcDbEntity
  8
0
  6
CONTINUOUS
 62
     1
100
AcDbLine
 10
115.25
 20
11.25
 11
119.25
 21
11.25
  0
LINE
  5
4A
330
20
100
AcDbEntity
  8
0
  6
CONTINUOUS
 62
     1
100
AcDbLine
 10
115.25
 20
-1.25
 11
119.25
 21
-1.25
  0
LINE
  5
4B
330
20
100
AcDbEntity
  8
0
  6
CONTINUOUS
 62
     1
100
AcDbLine
 10
115.25
 20
2.031414478240521
 11
120.25
 21
7.968585521759479
  0
LINE
  5
4C
330
20
100
AcDbEntity
  8
0
  6
CONTINUOUS
 62
     1
100
AcDbLine
 10
120.25
 20
2.031414478240521
 11
115.25
 21
7.968585521759479
  0
LINE
  5
4D
330
20
100
AcDbEntity
  8
0
  6
CONTINUOUS
 62
     1
100
AcDbLine
 10
114.25
 20
8.5
 11
115.25
 21
8.5
  0
LINE
  5
4E
330
20
100
AcDbEntity
  8
0
  6
CONTINUOUS
 62
     1
100
AcDbLine
 10
114.25
 20
1.5
 11
115.25
 21
1.5
  0
LINE
  5
4F
330
20
100
AcDbEntity
  8
0
  6
CONTINUOUS
 62
     1
100
AcDbLine
 10
120.25
 20
7.350000000000001
 11
130.25
 21
7.350000000000001
  0
LINE
  5
50
330
20
100
AcDbEntity
  8
0
  6
CONTINUOUS
 62
     1
100
AcDbLine
 10
120.25
 20
2.649999999999999
 11
130.25
 21
2.649999999999999
  0
POLYLINE
  5
51
330
20
100
AcDbEntity
  8
0
  6
CONTINUOUS
 62
     1
100
AcDb2dPolyline
 66
     1
 10
0.0
 20
0.0
 70
     0
 40
0.0
 41
0.0
  0
VERTEX
  5
52
330
20
100
AcDbEntity
  8
0
100
AcDbVertex
100
AcDb2dVertex
 10
130.25
 20
7.350000000000048
  0
VERTEX
  5
53
330
20
100
AcDbEntity
  8
0
100
AcDbVertex
100
AcDb2dVertex
 10
129.7485790339502
 20
6.99688707233218
  0
VERTEX
  5
54
330
20
100
AcDbEntity
  8
0
100
AcDbVertex
100
AcDb2dVertex
 10
129.3984824788966
 20
6.694455020028183
  0
VERTEX
  5
55
330
20
100
AcDbEntity
  8
0
100
AcDbVertex
100
AcDb2dVertex
 10
129.1722354521879
 20
6.419204821939693
  0
VERTEX
  5
56
330
20
100
AcDbEntity
  8
0
100
AcDbVertex
100
AcDb2dVertex
 10
129.075
 20
6.174999999999976
  0
VERTEX
  5
57
330
20
100
AcDbEntity
  8
0
100
AcDbVertex
100
AcDb2dVertex
 10
129.1151575364237
 20
5.919796121817178
  0
VERTEX
  5
58
330
20
100
AcDbEntity
  8
0
100
AcDbVertex
100
AcDb2dVertex
 10
129.3097800221486
 20
5.654583528883852
  0
VERTEX
  5
59
330
20
100
AcDbEntity
  8
0
100
AcDbVertex
100
AcDb2dVertex
 10
129.6567738791423
 20
5.37334307992201
  0
VERTEX
  5
5A
330
20
100
AcDbEntity
  8
0
100
AcDbVertex
100
AcDb2dVertex
 10
130.25
 20
4.999999999999986
  0
VERTEX
  5
5B
330
20
100
AcDbEntity
  8
0
100
AcDbVertex
100
AcDb2dVertex
 10
130.8432261208577
 20
4.626656920077966
  0
VERTEX
  5
5C
330
20
100
AcDbEntity
  8
0
100
AcDbVertex
100
AcDb2dVertex
 10
131.1902199778513
 20
4.345416471116165
  0
VERTEX
  5
5D
330
20
100
AcDbEntity
  8
0
100
AcDbVertex
100
AcDb2dVertex
 10
131.3848424635762
 20
4.0802038781829
  0
VERTEX
  5
5E
330
20
100
AcDbEntity
  8
0
100
AcDbVertex
100
AcDb2dVertex
 10
131.425
 20
3.824999999999982
  0
VERTEX
  5
5F
330
20
100
AcDbEntity
  8
0
100
AcDbVertex
100
AcDb2dVertex
 10
131.3277645478121
 20
3.580795178060187
  0
VERTEX
  5
60
330
20
100
AcDbEntity
  8
0
100
AcDbVertex
100
AcDb2dVertex
 10
131.1015175211032
 20
3.305544979971587
  0
VERTEX
  5
61
330
20
100
AcDbEntity
  8
0
100
AcDbVertex
100
AcDb2dVertex
 10
130.7514209660495
 20
3.003112927667443
  0
VERTEX
  5
62
330
20
100
AcDbEntity
  8
0
100
AcDbVertex
100
AcDb2dVertex
 10
130.25
 20
2.649999999999999
  0
SEQEND
  5
63
330
20
100
AcDbEntity
  8
0
  0
SPLINE
  5
64
330
20
100
AcDbEntity
  8
0
  6
CONTINUOUS
 62
     1
100
AcDbSpline
210
0.0
220
0.0
230
1.0
 70
     8
 71
     3
 72
     9
 73
     5
 74
     0
 42
1.000000000000000E-007
 43
1.000000000000000E-007
 40
0.0
 40
0.0
 40
0.0
 40
0.0
 40
1.71977586267127
 40
3.439551725342556
 40
3.439551725342556
 40
3.439551725342556
 40
3.439551725342556
 10
130.25
 20
7.350000000000005
 30
0.0
 10
130.6416666666667
 20
7.115000000000151
 30
0.0
 10
132.2083333333333
 20
6.174999999999999
 30
0.0
 10
130.6416666666667
 20
5.235000000000039
 30
0.0
 10
130.25
 20
5.000000000000004
 30
0.0
  0
ARC
  5
65
330
20
100
AcDbEntity
  8
0
  6
CONTINUOUS
 62
     1
100
AcDbCircle
 10
119.25
 20
10.25
 40
1.0
100
AcDbArc
 50
0.0
 51
90.0
  0
ARC
  5
66
330
20
100
AcDbEntity
  8
0
  6
CONTINUOUS
 62
     1
100
AcDbCircle
 10
119.25
 20
-0.25
 40
1.0
100
AcDbArc
 50
270.0
 51
0.0
  0
LINE
  5
67
330
20
100
AcDbEntity
  8
0
  6
CONTINUOUS
 62
     1
100
AcDbLine
 10
120.25
 20
48.84999999999999
 11
130.25
 21
48.84999999999999
  0
POLYLINE
  5
68
330
20
100
AcDbEntity
  8
0
  6
CONTINUOUS
 62
     1
100
AcDb2dPolyline
 66
     1
 10
0.0
 20
0.0
 70
     0
 40
0.0
 41
0.0
  0
VERTEX
  5
69
330
20
100
AcDbEntity
  8
0
100
AcDbVertex
100
AcDb2dVertex
 10
130.25
 20
48.85000000000005
  0
VERTEX
  5
6A
330
20
100
AcDbEntity
  8
0
100
AcDbVertex
100
AcDb2dVertex
 10
129.7485790339502
 20
48.4968870723322
  0
VERTEX
  5
6B
330
20
100
AcDbEntity
  8
0
100
AcDbVertex
100
AcDb2dVertex
 10
129.3984824788966
 20
48.19445502002819
  0
VERTEX
  5
6C
330
20
100
AcDbEntity
  8
0
100
AcDbVertex
100
AcDb2dVertex
 10
129.1722354521879
 20
47.9192048219397
  0
VERTEX
  5
6D
330
20
100
AcDbEntity
  8
0
100
AcDbVertex
100
AcDb2dVertex
 10
129.075
 20
47.67499999999998
  0
VERTEX
  5
6E
330
20
100
AcDbEntity
  8
0
100
AcDbVertex
100
AcDb2dVertex
 10
129.1151575364237
 20
47.41979612181719
  0
VERTEX
  5
6F
330
20
100
AcDbEntity
  8
0
100
AcDbVertex
100
AcDb2dVertex
 10
129.3097800221486
 20
47.15458352888386
  0
VERTEX
  5
70
330
20
100
AcDbEntity
  8
0
100
AcDbVertex
100
AcDb2dVertex
 10
129.6567738791423
 20
46.87334307992201
  0
VERTEX
  5
71
330
20
100
AcDbEntity
  8
0
100
AcDbVertex
100
AcDb2dVertex
 10
130.25
 20
46.49999999999999
  0
VERTEX
  5
72
330
20
100
AcDbEntity
  8
0
100
AcDbVertex
100
AcDb2dVertex
 10
130.8432261208576
 20
46.126656920078
  0
VERTEX
  5
73
330
20
100
AcDbEntity
  8
0
100
AcDbVertex
100
AcDb2dVertex
 10
131.1902199778513
 20
45.84541647111618
  0
VERTEX
  5
74
330
20
100
AcDbEntity
  8
0
100
AcDbVertex
100
AcDb2dVertex
 10
131.3848424635762
 20
45.58020387818289
  0
VERTEX
  5
75
330
20
100
AcDbEntity
  8
0
100
AcDbVertex
100
AcDb2dVertex
 10
131.425
 20
45.32499999999999
  0
VERTEX
  5
76
330
20
100
AcDbEntity
  8
0
100
AcDbVertex
100
AcDb2dVertex
 10
131.3277645478121
 20
45.08079517806019
  0
VERTEX
  5
77
330
20
100
AcDbEntity
  8
0
100
AcDbVertex
100
AcDb2dVertex
 10
131.1015175211032
 20
44.80554497997159
  0
VERTEX
  5
78
330
20
100
AcDbEntity
  8
0
100
AcDbVertex
100
AcDb2dVertex
 10
130.7514209660495
 20
44.50311292766747
  0
VERTEX
  5
79
330
20
100
AcDbEntity
  8
0
100
AcDbVertex
100
AcDb2dVertex
 10
130.25
 20
44.15000000000001
  0
SEQEND
  5
7A
330
20
100
AcDbEntity
  8
0
  0
SPLINE
  5
7B
330
20
100
AcDbEntity
  8
0
  6
CONTINUOUS
 62
     1
100
AcDbSpline
210
0.0
220
0.0
230
1.0
 70
     8
 71
     3
 72
     9
 73
     5
 74
     0
 42
1.000000000000000E-007
 43
1.000000000000000E-007
 40
0.0
 40
0.0
 40
0.0
 40
0.0
 40
1.719775862671278
 40
3.439551725342561
 40
3.439551725342561
 40
3.439551725342561
 40
3.439551725342561
 10
130.25
 20
48.85000000000001
 30
0.0
 10
130.6416666666667
 20
48.61500000000015
 30
0.0
 10
132.2083333333333
 20
47.67499999999998
 30
0.0
 10
130.6416666666667
 20
46.73500000000004
 30
0.0
 10
130.25
 20
46.5
 30
0.0
  0
LINE
  5
7C
330
20
100
AcDbEntity
  8
0
  6
CONTINUOUS
 62
     1
100
AcDbLine
 10
120.25
 20
44.15000000000001
 11
130.25
 21
44.15000000000001
  0
CIRCLE
  5
7D
330
20
100
AcDbEntity
  8
0
  6
CONTINUOUS
 62
     1
100
AcDbCircle
 10
0.0
 20
120.0
 40
10.0
  0
LINE
  5
7E
330
20
100
AcDbEntity
  8
0
  6
CONTINUOUS
 62
     1
100
AcDbLine
 10
-57.25
 20
104.9
 11
-57.25
 21
135.1
  0
LINE
  5
7F
330
20
100
AcDbEntity
  8
0
  6
CONTINUOUS
 62
     1
100
AcDbLine
 10
-57.25
 20
104.9
 11
114.25
 21
104.9
  0
LINE
  5
80
330
20
100
AcDbEntity
  8
0
  6
CONTINUOUS
 62
     1
100
AcDbLine
 10
38.25
 20
141.4
 11
114.25
 21
141.4
  0
CIRCLE
  5
81
330
20
100
AcDbEntity
  8
0
  6
CONTINUOUS
 62
     1
100
AcDbCircle
 10
0.0
 20
120.0
 40
10.5
  0
CIRCLE
  5
82
330
20
100
AcDbEntity
  8
0
  6
CONTINUOUS
 62
     1
100
AcDbCircle
 10
0.0
 20
120.0
 40
12.5
  0
ARC
  5
83
330
20
100
AcDbEntity
  8
0
  6
CONTINUOUS
 62
     1
100
AcDbCircle
 10
28.95968245967878
 20
145.1
 40
10.0
100
AcDbArc
 50
270.0
 51
338.2843827167357
  0
LINE
  5
84
330
20
100
AcDbEntity
  8
0
  6
CONTINUOUS
 62
     1
100
AcDbLine
 10
-57.25
 20
135.1
 11
28.95968245967879
 21
135.1
  0
LINE
  5
85
330
20
100
AcDbEntity
  8
0
  6
CONTINUOUS
 62
     1
100
AcDbLine
 10
114.25
 20
104.9
 11
114.25
 21
141.4
  0
LINE
  5
86
330
20
100
AcDbEntity
  8
0
  6
CONTINUOUS
 62
     1
100
AcDbLine
 10
115.25
 20
126.25
 11
115.25
 21
113.75
  0
LINE
  5
87
330
20
100
AcDbEntity
  8
0
  6
CONTINUOUS
 62
     1
100
AcDbLine
 10
115.25
 20
122.9685855217595
 11
120.25
 21
117.0314144782405
  0
LINE
  5
88
330
20
100
AcDbEntity
  8
0
  6
CONTINUOUS
 62
     1
100
AcDbLine
 10
120.25
 20
122.9685855217595
 11
115.25
 21
117.0314144782405
  0
LINE
  5
89
330
20
100
AcDbEntity
  8
0
  6
CONTINUOUS
 62
     1
100
AcDbLine
 10
114.25
 20
116.5
 11
115.25
 21
116.5
  0
LINE
  5
8A
330
20
100
AcDbEntity
  8
0
  6
CONTINUOUS
 62
     1
100
AcDbLine
 10
120.25
 20
117.65
 11
130.25
 21
117.65
  0
POLYLINE
  5
8B
330
20
100
AcDbEntity
  8
0
  6
CONTINUOUS
 62
     1
100
AcDb2dPolyline
 66
     1
 10
0.0
 20
0.0
 70
     0
 40
0.0
 41
0.0
  0
VERTEX
  5
8C
330
20
100
AcDbEntity
  8
0
100
AcDbVertex
100
AcDb2dVertex
 10
130.25
 20
117.65
  0
VERTEX
  5
8D
330
20
100
AcDbEntity
  8
0
100
AcDbVertex
100
AcDb2dVertex
 10
129.7485790339502
 20
118.0031129276678
  0
VERTEX
  5
8E
330
20
100
AcDbEntity
  8
0
100
AcDbVertex
100
AcDb2dVertex
 10
129.3984824788966
 20
118.3055449799718
  0
VERTEX
  5
8F
330
20
100
AcDbEntity
  8
0
100
AcDbVertex
100
AcDb2dVertex
 10
129.1722354521879
 20
118.5807951780603
  0
VERTEX
  5
90
330
20
100
AcDbEntity
  8
0
100
AcDbVertex
100
AcDb2dVertex
 10
129.075
 20
118.825
  0
VERTEX
  5
91
330
20
100
AcDbEntity
  8
0
100
AcDbVertex
100
AcDb2dVertex
 10
129.1151575364237
 20
119.0802038781828
  0
VERTEX
  5
92
330
20
100
AcDbEntity
  8
0
100
AcDbVertex
100
AcDb2dVertex
 10
129.3097800221486
 20
119.3454164711161
  0
VERTEX
  5
93
330
20
100
AcDbEntity
  8
0
100
AcDbVertex
100
AcDb2dVertex
 10
129.6567738791423
 20
119.626656920078
  0
VERTEX
  5
94
330
20
100
AcDbEntity
  8
0
100
AcDbVertex
100
AcDb2dVertex
 10
130.25
 20
120.0
  0
VERTEX
  5
95
330
20
100
AcDbEntity
  8
0
100
AcDbVertex
100
AcDb2dVertex
 10
130.8432261208576
 20
120.373343079922
  0
VERTEX
  5
96
330
20
100
AcDbEntity
  8
0
100
AcDbVertex
100
AcDb2dVertex
 10
131.1902199778513
 20
120.6545835288838
  0
VERTEX
  5
97
330
20
100
AcDbEntity
  8
0
100
AcDbVertex
100
AcDb2dVertex
 10
131.3848424635762
 20
120.9197961218171
  0
VERTEX
  5
98
330
20
100
AcDbEntity
  8
0
100
AcDbVertex
100
AcDb2dVertex
 10
131.425
 20
121.175
  0
VERTEX
  5
99
330
20
100
AcDbEntity
  8
0
100
AcDbVertex
100
AcDb2dVertex
 10
131.3277645478121
 20
121.4192048219398
  0
VERTEX
  5
9A
330
20
100
AcDbEntity
  8
0
100
AcDbVertex
100
AcDb2dVertex
 10
131.1015175211032
 20
121.6944550200284
  0
VERTEX
  5
9B
330
20
100
AcDbEntity
  8
0
100
AcDbVertex
100
AcDb2dVertex
 10
130.7514209660495
 20
121.9968870723326
  0
VERTEX
  5
9C
330
20
100
AcDbEntity
  8
0
100
AcDbVertex
100
AcDb2dVertex
 10
130.25
 20
122.35
  0
SEQEND
  5
9D
330
20
100
AcDbEntity
  8
0
  0
SPLINE
  5
9E
330
20
100
AcDbEntity
  8
0
  6
CONTINUOUS
 62
     1
100
AcDbSpline
210
0.0
220
0.0
230
1.0
 70
     8
 71
     3
 72
     9
 73
     5
 74
     0
 42
1.000000000000000E-007
 43
1.000000000000000E-007
 40
0.0
 40
0.0
 40
0.0
 40
0.0
 40
1.719775862671278
 40
3.439551725342664
 40
3.439551725342664
 40
3.439551725342664
 40
3.439551725342664
 10
130.25
 20
117.65
 30
0.0
 10
130.6416666666667
 20
117.8849999999999
 30
0.0
 10
132.2083333333333
 20
118.825
 30
0.0
 10
130.6416666666667
 20
119.765
 30
0.0
 10
130.25
 20
120.0
 30
0.0
  0
LINE
  5
9F
330
20
100
AcDbEntity
  8
0
  6
CONTINUOUS
 62
     1
100
AcDbLine
 10
120.25
 20
117.0314144782405
 11
115.25
 21
117.0314144782405
  0
LINE
  5
A0
330
20
100
AcDbEntity
  8
0
  6
CONTINUOUS
 62
     1
100
AcDbLine
 10
114.25
 20
123.5
 11
115.25
 21
123.5
  0
LINE
  5
A1
330
20
100
AcDbEntity
  8
0
  6
CONTINUOUS
 62
     1
100
AcDbLine
 10
120.25
 20
122.35
 11
130.25
 21
122.35
  0
LINE
  5
A2
330
20
100
AcDbEntity
  8
0
  6
CONTINUOUS
 62
     1
100
AcDbLine
 10
115.25
 20
122.9685855217595
 11
120.25
 21
122.9685855217595
  0
LINE
  5
A3
330
20
100
AcDbEntity
  8
0
  6
CONTINUOUS
 62
     1
100
AcDbLine
 10
115.25
 20
113.75
 11
119.25
 21
113.75
  0
LINE
  5
A4
330
20
100
AcDbEntity
  8
0
  6
CONTINUOUS
 62
     1
100
AcDbLine
 10
120.25
 20
125.25
 11
120.25
 21
114.75
  0
LINE
  5
A5
330
20
100
AcDbEntity
  8
0
  6
CONTINUOUS
 62
     1
100
AcDbLine
 10
115.25
 20
126.25
 11
119.25
 21
126.25
  0
ARC
  5
A6
330
20
100
AcDbEntity
  8
0
  6
CONTINUOUS
 62
     1
100
AcDbCircle
 10
119.25
 20
125.25
 40
1.0
100
AcDbArc
 50
0.0
 51
90.0
  0
ARC
  5
A7
330
20
100
AcDbEntity
  8
0
  6
CONTINUOUS
 62
     1
100
AcDbCircle
 10
119.25
 20
114.75
 40
1.0
100
AcDbArc
 50
270.0
 51
0.0
  0
CIRCLE
  5
A8
330
20
100
AcDbEntity
  8
0
  6
CONTINUOUS
 62
     1
100
AcDbCircle
 10
76.05
 20
1.85
 40
14.6
  0
CIRCLE
  5
A9
330
20
100
AcDbEntity
  8
0
  6
CONTINUOUS
 62
     1
100
AcDbCircle
 10
57.0
 20
60.0
 40
10.25
  0
CIRCLE
  5
AA
330
20
100
AcDbEntity
  8
0
  6
CONTINUOUS
 62
     1
100
AcDbCircle
 10
95.09999999999998
 20
60.0
 40
10.25
  0
INSERT
  5
AC
330
20
100
AcDbEntity
  8
0
  6
CONTINUOUS
 62
     1
100
AcDbBlockReference
  2
OIMLNAME_SMALL_0001
 10
80.0
 20
122.5
 41
1.0
 42
1.0
 50
0.0
  0
ENDSEC
  0
SECTION
  2
OBJECTS
  0
DICTIONARY
  5
C
100
AcDbDictionary
281
     1
  3
ACAD_GROUP
350
D
  3
ACAD_MLINESTYLE
350
E
  3
ACDBVARIABLEDICTIONARY
350
D8
  3
ACAD_PLOTSTYLENAME
350
D9
  3
ACAD_LAYOUT
350
DA
  3
ACAD_PLOTSETTINGS
350
DB
  0
DICTIONARY
  5
D
102
{ACAD_REACTORS
330
C
102
}
330
C
100
AcDbDictionary
281
     1
  0
DICTIONARY
  5
E
102
{ACAD_REACTORS
330
C
102
}
330
C
100
AcDbDictionary
281
     1
  3
STANDARD
350
13
  0
DICTIONARY
  5
D8
102
{ACAD_REACTORS
330
C
102
}
330
C
100
AcDbDictionary
281
     1
  3
SORTENTS
350
DC
  0
ACDBDICTIONARYWDFLT
  5
D9
102
{ACAD_REACTORS
330
C
102
}
330
C
100
AcDbDictionary
281
     1
  3
Normal
350
DD
100
AcDbDictionaryWithDefault
340
DD
  0
DICTIONARY
  5
DA
102
{ACAD_REACTORS
330
C
102
}
330
C
100
AcDbDictionary
281
     1
  3
Model
350
DE
  0
DICTIONARY
  5
DB
102
{ACAD_REACTORS
330
C
102
}
330
C
100
AcDbDictionary
281
     1
  0
MLINESTYLE
  5
13
102
{ACAD_REACTORS
330
E
102
}
330
E
100
AcDbMlineStyle
  2
STANDARD
 70
     0
  3

 62
   256
 51
90.0
 52
90.0
 71
     2
 49
0.5
 62
   256
  6
BYLAYER
 49
-0.5
 62
   256
  6
BYLAYER
  0
DICTIONARYVAR
  5
DC
102
{ACAD_REACTORS
330
D8
102
}
330
D8
100
DictionaryVariables
280
     0
  1
96
  0
ACDBPLACEHOLDER
  5
DD
102
{ACAD_REACTORS
330
D9
102
}
330
D9
  0
LAYOUT
  5
DE
102
{ACAD_REACTORS
330
DA
102
}
330
DA
100
AcDbPlotSettings
  1

  2

  4

  6

 40
0.0
 41
0.0
 42
0.0
 43
0.0
 44
0.0
 45
0.0
 46
0.0
 47
0.0
 48
0.0
 49
0.0
140
0.0
141
0.0
142
1.0
143
1.0
 70
  1712
 72
     0
 73
     0
 74
     0
  7

 75
     0
147
1.0
148
0.0
149
0.0
100
AcDbLayout
  1
Model
 70
     1
 71
     0
 10
0.0
 20
0.0
 11
297.0
 21
210.0
 12
0.0
 22
0.0
 32
0.0
 14
0.0
 24
0.0
 34
0.0
 15
0.0
 25
0.0
 35
0.0
146
0.0
 13
0.0
 23
0.0
 33
0.0
 16
1.0
 26
0.0
 36
0.0
 17
0.0
 27
1.0
 37
0.0
 76
     0
330
20
  0
ENDSEC
  0
EOF
