  0
SECTION
  2
HEADER
  9
$ACADVER
  1
AC1006
  9
$INSBASE
 10
0.0
 20
0.0
 30
0.0
  9
$EXTMIN
 10
-185.0
 20
-26.5
  9
$EXTMAX
 10
26.5
 20
161.735
  9
$LIMMIN
 10
-185.0
 20
-26.5
  9
$LIMMAX
 10
26.5
 20
161.735
  9
$ORTHOMODE
 70
     0
  9
$REGENMODE
 70
     1
  9
$FILLMODE
 70
     1
  9
$QTEXTMODE
 70
     0
  9
$MIRRTEXT
 70
     1
  9
$DRAGMODE
 70
     2
  9
$LTSCALE
 40
1.0
  9
$OSMODE
 70
     0
  9
$ATTMODE
 70
     1
  9
$TEXTSIZE
 40
3.0
  9
$TRACEWID
 40
0.5
  9
$TEXTSTYLE
  7
STANDARD
  9
$CLAYER
  8
0
  9
$CELTYPE
  6
BYLAYER
  9
$CECOLOR
 62
   256
  9
$DIMSCALE
 40
1.0
  9
$DIMASZ
 40
3.0
  9
$DIMEXO
 40
1.0
  9
$DIMDLI
 40
5.0
  9
$DIMRND
 40
0.0
  9
$DIMDLE
 40
5.0
  9
$DIMEXE
 40
2.0
  9
$DIMTP
 40
0.0
  9
$DIMTM
 40
0.0
  9
$DIMTXT
 40
3.0
  9
$DIMCEN
 40
2.0
  9
$DIMTSZ
 40
0.0
  9
$DIMTOL
 70
     0
  9
$DIMLIM
 70
     0
  9
$DIMTIH
 70
     0
  9
$DIMTOH
 70
     0
  9
$DIMSE1
 70
     0
  9
$DIMSE2
 70
     0
  9
$DIMTAD
 70
     1
  9
$DIMZIN
 70
     8
  9
$DIMBLK
  1

  9
$DIMASO
 70
     1
  9
$DIMSHO
 70
     0
  9
$DIMPOST
  1

  9
$DIMAPOST
  1

  9
$DIMALT
 70
     0
  9
$DIMALTD
 70
     4
  9
$DIMALTF
 40
0.0393700787401575
  9
$DIMLFAC
 40
1.0
  9
$DIMTOFL
 70
     1
  9
$DIMTVP
 40
1.0
  9
$DIMTIX
 70
     0
  9
$DIMSOXD
 70
     0
  9
$DIMSAH
 70
     0
  9
$DIMBLK1
  1

  9
$DIMBLK2
  1

  9
$LUNITS
 70
     2
  9
$LUPREC
 70
     4
  9
$AXISMODE
 70
     0
  9
$AXISUNIT
 10
0.0
 20
0.0
  9
$SKETCHINC
 40
1.0
  9
$FILLETRAD
 40
0.0
  9
$AUNITS
 70
     0
  9
$AUPREC
 70
     0
  9
$MENU
  1
acad
  9
$ELEVATION
 40
0.0
  9
$THICKNESS
 40
0.0
  9
$LIMCHECK
 70
     0
  9
$BLIPMODE
 70
     1
  9
$CHAMFERA
 40
0.0
  9
$CHAMFERB
 40
0.0
  9
$SKPOLY
 70
     0
  9
$TDCREATE
 40
2457344.67479167
  9
$TDUPDATE
 40
2457344.67479167
  9
$TDINDWG
 40
0.0
  9
$TDUSRTIMER
 40
0.0
  9
$USRTIMER
 70
     1
  9
$ANGBASE
 50
0.0
  9
$ANGDIR
 70
     0
  9
$PDMODE
 70
     0
  9
$PDSIZE
 40
0.0
  9
$PLINEWID
 40
0.0
  9
$COORDS
 70
     0
  9
$SPLFRAME
 70
     0
  9
$SPLINETYPE
 70
     6
  9
$SPLINESEGS
 70
     8
  9
$ATTDIA
 70
     0
  9
$ATTREQ
 70
     1
  9
$HANDLING
 70
     0
  9
$HANDSEED
  5
0
  9
$SURFTAB1
 70
     6
  9
$SURFTAB2
 70
     6
  9
$SURFTYPE
 70
     6
  9
$SURFU
 70
     6
  9
$SURFV
 70
     6
  9
$FLATLAND
 70
     0
  9
$UCSNAME
  2

  9
$UCSORG
 10
0.0
 20
0.0
 30
0.0
  9
$UCSXDIR
 10
1.0
 20
0.0
 30
0.0
  9
$UCSYDIR
 10
0.0
 20
1.0
 30
0.0
  9
$USERI1
 70
     0
  9
$USERI2
 70
     0
  9
$USERI3
 70
     0
  9
$USERI4
 70
     0
  9
$USERI5
 70
     0
  9
$USERR1
 40
0.0
  9
$USERR2
 40
0.0
  9
$USERR3
 40
0.0
  9
$USERR4
 40
0.0
  9
$USERR5
 40
0.0
  9
$WORLDVIEW
 70
     1
  0
ENDSEC
  0
SECTION
  2
TABLES
  0
TABLE
  2
VPORT
 70
     1
  0
VPORT
  2
*ACTIVE
 70
     0
 10
0.0
 20
0.0
 11
1.0
 21
1.0
 12
-79.25
 22
67.6175
 13
0.0
 23
0.0
 14
0.0
 24
0.0
 15
0.0
 25
0.0
 16
0.0
 26
0.0
 36
1.0
 17
0.0
 27
0.0
 37
0.0
 40
188.235
 41
1.5
 42
50.0
 43
0.0
 44
0.0
 50
0.0
 51
0.0
 71
     0
 72
   100
 73
     1
 74
     1
 75
     0
 76
     0
 77
     0
 78
     0
  0
ENDTAB
  0
TABLE
  2
LTYPE
 70
    20
  0
LTYPE
  2
CONTINUOUS
 70
    64
  3
solid line
 72
    65
 73
     0
 40
0.0
  0
LTYPE
  2
CENTER
 70
    64
  3
--- - --- - --- - --- - --- -
 72
    65
 73
     4
 40
6.0
 49
3.0
 49
-1.0
 49
1.0
 49
-1.0
  0
ENDTAB
  0
TABLE
  2
LAYER
 70
    20
  0
LAYER
  2
0
 70
    64
 62
     0
  6
CONTINUOUS
  0
ENDTAB
  0
TABLE
  2
STYLE
 70
     4
  0
STYLE
  2
STANDARD
 70
    64
 40
0.0
 41
1.0
 50
0.0
 71
     0
 42
3.0
  3
txt
  4

  0
ENDTAB
  0
TABLE
  2
VIEW
 70
     0
  0
ENDTAB
  0
TABLE
  2
UCS
 70
     0
  0
ENDTAB
  0
TABLE
  2
DWGMGR
 70
     0
  0
ENDTAB
  0
ENDSEC
  0
SECTION
  2
BLOCKS
  0
ENDSEC
  0
SECTION
  2
ENTITIES
  0
CIRCLE
  8
0
  6
CONTINUOUS
 10
0.0
 20
0.0
 40
13.0
  0
LINE
  8
0
  6
CONTINUOUS
 10
-8.30662386291806
 20
10.0
 11
8.30662386291806
 21
10.0
  0
LINE
  8
0
  6
CONTINUOUS
 10
-8.30662386291806
 20
-10.0
 11
8.30662386291806
 21
-10.0
  0
LINE
  8
0
  6
CONTINUOUS
 10
-144.5
 20
53.018370452904
 11
-104.5
 21
53.018370452904
  0
LINE
  8
0
  6
CENTER
 10
-184.5
 20
60.485
 11
-158.270513892174
 21
60.485
  0
CIRCLE
  8
0
  6
CONTINUOUS
 10
0.0
 20
0.0
 40
21.5
  0
LINE
  8
0
  6
CENTER
 10
-26.5
 20
0.0
 11
26.5
 21
0.0
  0
LINE
  8
0
  6
CENTER
 10
0.0
 20
-26.5
 11
0.0
 21
26.5
  0
CIRCLE
  8
0
  6
CONTINUOUS
 10
0.0
 20
0.0
 40
19.0
  0
LINE
  8
0
  6
CONTINUOUS
 10
-180.0
 20
3.135
 11
-170.0
 21
3.135
  0
LINE
  8
0
  6
CONTINUOUS
 10
-180.0
 20
-3.165
 11
-170.0
 21
-3.165
  0
LINE
  8
0
  6
CONTINUOUS
 10
-179.5
 20
63.635
 11
-169.5
 21
63.635
  0
LINE
  8
0
  6
CONTINUOUS
 10
-179.5
 20
57.335
 11
-169.5
 21
57.335
  0
LINE
  8
0
  6
CONTINUOUS
 10
-170.0
 20
3.735
 11
-165.0
 21
3.735
  0
LINE
  8
0
  6
CONTINUOUS
 10
-170.0
 20
-3.765
 11
-165.0
 21
-3.765
  0
LINE
  8
0
  6
CONTINUOUS
 10
-169.5
 20
64.235
 11
-164.5
 21
64.235
  0
LINE
  8
0
  6
CONTINUOUS
 10
-169.5
 20
56.735
 11
-164.5
 21
56.735
  0
LINE
  8
0
  6
CONTINUOUS
 10
-170.0
 20
-3.765
 11
-170.0
 21
3.735
  0
LINE
  8
0
  6
CONTINUOUS
 10
-169.5
 20
56.735
 11
-169.5
 21
64.235
  0
POLYLINE
  8
0
  6
CONTINUOUS
 66
     1
 10
0.0
 20
0.0
 70
     0
 40
0.0
 41
0.0
  0
VERTEX
  8
0
 10
-179.5
 20
63.635
  0
VERTEX
  8
0
 10
-179.926741247702
 20
63.1616784161043
  0
VERTEX
  8
0
 10
-180.224695762641
 20
62.7562907715268
  0
VERTEX
  8
0
 10
-180.41724642367
 20
62.3873383783445
  0
VERTEX
  8
0
 10
-180.5
 20
62.06
  0
VERTEX
  8
0
 10
-180.465823373256
 20
61.7179182058398
  0
VERTEX
  8
0
 10
-180.300187215192
 20
61.3624204748865
  0
VERTEX
  8
0
 10
-180.004873294347
 20
60.9854385964907
  0
VERTEX
  8
0
 10
-179.5
 20
60.485
  0
VERTEX
  8
0
 10
-178.995126705653
 20
59.9845614035092
  0
VERTEX
  8
0
 10
-178.699812784808
 20
59.6075795251134
  0
VERTEX
  8
0
 10
-178.534176626744
 20
59.2520817941601
  0
VERTEX
  8
0
 10
-178.5
 20
58.91
  0
VERTEX
  8
0
 10
-178.58275357633
 20
58.5826616216553
  0
VERTEX
  8
0
 10
-178.775304237359
 20
58.2137092284729
  0
VERTEX
  8
0
 10
-179.073258752298
 20
57.8083215838953
  0
VERTEX
  8
0
 10
-179.5
 20
57.335
  0
SEQEND
  8
0
  0
POLYLINE
  8
0
  6
CONTINUOUS
 66
     1
 10
0.0
 20
0.0
 70
     0
 40
0.0
 41
0.0
  0
VERTEX
  8
0
 10
-179.5
 20
60.485
  0
VERTEX
  8
0
 10
-179.947777848891
 20
60.0315580042287
  0
VERTEX
  8
0
 10
-180.252493286206
 20
59.6325594312961
  0
VERTEX
  8
0
 10
-180.438093142784
 20
59.2570385279073
  0
VERTEX
  8
0
 10
-180.5
 20
58.9100000000001
  0
VERTEX
  8
0
 10
-180.438093142784
 20
58.5629614720929
  0
VERTEX
  8
0
 10
-180.252493286206
 20
58.1874405687042
  0
VERTEX
  8
0
 10
-179.947777848891
 20
57.7884419957715
  0
VERTEX
  8
0
 10
-179.5
 20
57.335
  0
SEQEND
  8
0
  0
POLYLINE
  8
0
  6
CONTINUOUS
 66
     1
 10
0.0
 20
0.0
 70
     0
 40
0.0
 41
0.0
  0
VERTEX
  8
0
 10
-180.0
 20
3.13500000000005
  0
VERTEX
  8
0
 10
-180.426741247702
 20
2.66167841610427
  0
VERTEX
  8
0
 10
-180.724695762641
 20
2.25629077152678
  0
VERTEX
  8
0
 10
-180.91724642367
 20
1.88733837834451
  0
VERTEX
  8
0
 10
-181.0
 20
1.55999999999996
  0
VERTEX
  8
0
 10
-180.965823373256
 20
1.21791820583982
  0
VERTEX
  8
0
 10
-180.800187215192
 20
0.862420474886524
  0
VERTEX
  8
0
 10
-180.504873294347
 20
0.485438596490737
  0
VERTEX
  8
0
 10
-180.0
 20
-0.015000000000029
  0
VERTEX
  8
0
 10
-179.495126705653
 20
-0.515438596490764
  0
VERTEX
  8
0
 10
-179.199812784808
 20
-0.892420474886573
  0
VERTEX
  8
0
 10
-179.034176626744
 20
-1.2479182058399
  0
VERTEX
  8
0
 10
-179.0
 20
-1.59000000000003
  0
VERTEX
  8
0
 10
-179.08275357633
 20
-1.9173383783447
  0
VERTEX
  8
0
 10
-179.275304237359
 20
-2.28629077152711
  0
VERTEX
  8
0
 10
-179.573258752298
 20
-2.69167841610475
  0
VERTEX
  8
0
 10
-180.0
 20
-3.16499999999999
  0
SEQEND
  8
0
  0
POLYLINE
  8
0
  6
CONTINUOUS
 66
     1
 10
0.0
 20
0.0
 70
     0
 40
0.0
 41
0.0
  0
VERTEX
  8
0
 10
-180.0
 20
-0.0150000000000006
  0
VERTEX
  8
0
 10
-180.447777848891
 20
-0.468441995771287
  0
VERTEX
  8
0
 10
-180.752493286206
 20
-0.867440568703955
  0
VERTEX
  8
0
 10
-180.938093142784
 20
-1.24296147209271
  0
VERTEX
  8
0
 10
-181.0
 20
-1.58999999999995
  0
VERTEX
  8
0
 10
-180.938093142784
 20
-1.93703852790712
  0
VERTEX
  8
0
 10
-180.752493286206
 20
-2.31255943129581
  0
VERTEX
  8
0
 10
-180.447777848891
 20
-2.71155800422838
  0
VERTEX
  8
0
 10
-180.0
 20
-3.16499999999999
  0
SEQEND
  8
0
  0
LINE
  8
0
  6
CENTER
 10
-185.0
 20
-0.0150000000000006
 11
-40.0
 21
-0.0150000000000006
  0
LINE
  8
0
  6
CENTER
 10
-54.5
 20
54.985
 11
-54.5
 21
84.985
  0
LINE
  8
0
  6
CONTINUOUS
 10
-101.5
 20
54.0
 11
-101.5
 21
87.985
  0
LINE
  8
0
  6
CONTINUOUS
 10
-101.95
 20
51.985
 11
-101.95
 21
87.985
  0
ARC
  8
0
  6
CONTINUOUS
 10
-102.248048438871
 20
87.486951561129
 40
0.301951561128712
 50
210.000000000112
 51
9.22240095428152
  0
LINE
  8
0
  6
CONTINUOUS
 10
-102.884260469323
 20
87.985
 11
-102.509546161521
 21
87.335975780564
  0
LINE
  8
0
  6
CONTINUOUS
 10
-101.95
 20
87.985
 11
-101.5
 21
87.985
  0
LINE
  8
0
  6
CONTINUOUS
 10
-164.0
 20
87.985
 11
-102.884260469323
 21
87.985
  0
LINE
  8
0
  6
CONTINUOUS
 10
-102.884260469323
 20
51.985
 11
-102.884260469323
 21
87.985
  0
LINE
  8
0
  6
CONTINUOUS
 10
-104.5
 20
51.985
 11
-102.884260469323
 21
51.985
  0
LINE
  8
0
  6
CONTINUOUS
 10
-102.884260469323
 20
51.985
 11
-102.509546161521
 21
52.634024219436
  0
LINE
  8
0
  6
CONTINUOUS
 10
-101.95
 20
51.985
 11
-101.5
 21
51.985
  0
ARC
  8
0
  6
CONTINUOUS
 10
-102.248048438871
 20
52.483048438871
 40
0.301951561128712
 50
350.777599045718
 51
149.999999999888
  0
LINE
  8
0
  6
CONTINUOUS
 10
-44.5
 20
57.485
 11
-44.5
 21
82.485
  0
LINE
  8
0
  6
CONTINUOUS
 10
-44.5
 20
66.985
 11
-44.5
 21
72.985
  0
LINE
  8
0
  6
CONTINUOUS
 10
-44.5
 20
72.985
 11
-44.5
 21
79.485
  0
LINE
  8
0
  6
CONTINUOUS
 10
-68.5
 20
82.47
 11
-68.5
 21
83.584914703891
  0
LINE
  8
0
  6
CONTINUOUS
 10
-164.0
 20
87.985
 11
-164.5
 21
87.485
  0
LINE
  8
0
  6
CONTINUOUS
 10
-104.5
 20
51.985
 11
-102.884260469323
 21
51.985
  0
LINE
  8
0
  6
CONTINUOUS
 10
-164.0
 20
84.951629547096
 11
-164.0
 21
87.985
  0
LINE
  8
0
  6
CONTINUOUS
 10
-104.5
 20
51.985
 11
-104.5
 21
55.018370452904
  0
LINE
  8
0
  6
CONTINUOUS
 10
-104.5
 20
51.985
 11
-104.5
 21
84.951629547096
  0
LINE
  8
0
  6
CONTINUOUS
 10
-101.95
 20
52.434655532837
 11
-101.95
 21
51.985
  0
LINE
  8
0
  6
CONTINUOUS
 10
-101.5
 20
51.985
 11
-101.5
 21
54.0
  0
LINE
  8
0
  6
CONTINUOUS
 10
-144.5
 20
51.985
 11
-144.5
 21
55.018370452904
  0
LINE
  8
0
  6
CONTINUOUS
 10
-144.5
 20
51.985
 11
-164.0
 21
51.985
  0
LINE
  8
0
  6
CONTINUOUS
 10
-68.5
 20
82.985
 11
-45.0
 21
82.985
  0
LINE
  8
0
  6
CONTINUOUS
 10
-68.5
 20
56.985
 11
-45.0
 21
56.985
  0
LINE
  8
0
  6
CONTINUOUS
 10
-44.5
 20
82.485
 11
-45.0
 21
82.985
  0
LINE
  8
0
  6
CONTINUOUS
 10
-44.5
 20
57.485
 11
-45.0
 21
56.985
  0
LINE
  8
0
  6
CONTINUOUS
 10
-68.5
 20
78.291623862918
 11
-44.5
 21
78.291623862918
  0
LINE
  8
0
  6
CONTINUOUS
 10
-68.5
 20
61.678376137082
 11
-44.5
 21
61.678376137082
  0
LINE
  8
0
  6
CONTINUOUS
 10
-45.0
 20
78.291623862918
 11
-45.0
 21
82.985
  0
LINE
  8
0
  6
CONTINUOUS
 10
-45.0
 20
56.985
 11
-45.0
 21
61.678376137082
  0
LINE
  8
0
  6
CENTER
 10
-119.5
 20
78.285
 11
-119.5
 21
61.685
  0
LINE
  8
0
  6
CENTER
 10
-139.5
 20
78.285
 11
-139.5
 21
61.685
  0
LINE
  8
0
  6
CONTINUOUS
 10
-164.5
 20
52.485
 11
-164.5
 21
87.485
  0
LINE
  8
0
  6
CENTER
 10
-99.5
 20
69.985
 11
-39.5
 21
69.985
  0
LINE
  8
0
  6
CENTER
 10
-116.2
 20
69.985
 11
-99.5
 21
69.985
  0
LINE
  8
0
  6
CENTER
 10
-122.8
 20
69.985
 11
-116.2
 21
69.985
  0
LINE
  8
0
  6
CENTER
 10
-134.2
 20
69.985
 11
-122.8
 21
69.985
  0
LINE
  8
0
  6
CENTER
 10
-140.8
 20
69.985
 11
-134.2
 21
69.985
  0
LINE
  8
0
  6
CENTER
 10
-169.5
 20
69.985
 11
-164.5
 21
69.985
  0
CIRCLE
  8
0
  6
CONTINUOUS
 10
-54.5
 20
69.985
 40
5.05
  0
LINE
  8
0
  6
CONTINUOUS
 10
-164.5
 20
84.951629547096
 11
-104.5
 21
84.951629547096
  0
LINE
  8
0
  6
CENTER
 10
-164.5
 20
69.985
 11
-143.7
 21
69.985
  0
LINE
  8
0
  6
CENTER
 10
-143.7
 20
69.985
 11
-140.8
 21
69.985
  0
ARC
  8
0
  6
CONTINUOUS
 10
-139.5
 20
69.985
 40
4.2
 50
0.0
 51
180.0
  0
ARC
  8
0
  6
CONTINUOUS
 10
-139.5
 20
69.985
 40
4.2
 50
180.0
 51
0.0
  0
ARC
  8
0
  6
CONTINUOUS
 10
-119.5
 20
69.985
 40
4.2
 50
0.0
 51
180.0
  0
ARC
  8
0
  6
CONTINUOUS
 10
-119.5
 20
69.985
 40
4.2
 50
180.0
 51
0.0
  0
LINE
  8
0
  6
CONTINUOUS
 10
-144.5
 20
55.018370452904
 11
-141.0
 21
55.018370452904
  0
LINE
  8
0
  6
CONTINUOUS
 10
-164.5
 20
55.018370452904
 11
-108.0
 21
55.018370452904
  0
LINE
  8
0
  6
CONTINUOUS
 10
-108.0
 20
55.018370452904
 11
-104.5
 21
55.018370452904
  0
LINE
  8
0
  6
CONTINUOUS
 10
-164.0
 20
51.985
 11
-164.5
 21
52.485
  0
LINE
  8
0
  6
CONTINUOUS
 10
-164.0
 20
55.018370452904
 11
-164.0
 21
51.985
  0
LINE
  8
0
  6
CONTINUOUS
 10
-70.0
 20
88.985
 11
-68.5
 21
88.985
  0
LINE
  8
0
  6
CONTINUOUS
 10
-70.0
 20
50.985
 11
-68.5
 21
50.985
  0
LINE
  8
0
  6
CONTINUOUS
 10
-95.5
 20
49.235
 11
-95.5
 21
54.235
  0
ARC
  8
0
  6
CONTINUOUS
 10
-94.75
 20
49.235
 40
0.75
 50
180.0
 51
0.0
  0
ARC
  8
0
  6
CONTINUOUS
 10
-93.25
 20
54.235
 40
0.75
 50
0.0
 51
180.0
  0
LINE
  8
0
  6
CONTINUOUS
 10
-94.0
 20
49.235
 11
-94.0
 21
85.735
  0
LINE
  8
0
  6
CONTINUOUS
 10
-92.5
 20
49.235
 11
-92.5
 21
54.235
  0
ARC
  8
0
  6
CONTINUOUS
 10
-96.25
 20
54.235
 40
0.75
 50
0.0
 51
180.0
  0
LINE
  8
0
  6
CONTINUOUS
 10
-92.5
 20
49.235
 11
-92.5
 21
85.735
  0
ARC
  8
0
  6
CONTINUOUS
 10
-91.75
 20
49.235
 40
0.75
 50
180.0
 51
0.0
  0
LINE
  8
0
  6
CONTINUOUS
 10
-91.0
 20
49.235
 11
-91.0
 21
85.735
  0
ARC
  8
0
  6
CONTINUOUS
 10
-90.25
 20
54.235
 40
0.75
 50
0.0
 51
180.0
  0
LINE
  8
0
  6
CONTINUOUS
 10
-89.5
 20
49.235
 11
-89.5
 21
85.735
  0
ARC
  8
0
  6
CONTINUOUS
 10
-88.75
 20
49.235
 40
0.75
 50
180.0
 51
0.0
  0
LINE
  8
0
  6
CONTINUOUS
 10
-88.0
 20
49.235
 11
-88.0
 21
85.735
  0
ARC
  8
0
  6
CONTINUOUS
 10
-87.25
 20
54.235
 40
0.75
 50
0.0
 51
180.0
  0
LINE
  8
0
  6
CONTINUOUS
 10
-86.5
 20
49.235
 11
-86.5
 21
85.735
  0
ARC
  8
0
  6
CONTINUOUS
 10
-85.75
 20
49.235
 40
0.75
 50
180.0
 51
0.0
  0
LINE
  8
0
  6
CONTINUOUS
 10
-85.0
 20
49.235
 11
-85.0
 21
85.735
  0
ARC
  8
0
  6
CONTINUOUS
 10
-84.25
 20
54.235
 40
0.75
 50
0.0
 51
180.0
  0
LINE
  8
0
  6
CONTINUOUS
 10
-80.5
 20
49.235
 11
-80.5
 21
54.235
  0
LINE
  8
0
  6
CONTINUOUS
 10
-82.0
 20
49.235
 11
-82.0
 21
85.735
  0
ARC
  8
0
  6
CONTINUOUS
 10
-81.25
 20
54.235
 40
0.75
 50
0.0
 51
180.0
  0
LINE
  8
0
  6
CONTINUOUS
 10
-80.5
 20
49.235
 11
-80.5
 21
85.735
  0
LINE
  8
0
  6
CONTINUOUS
 10
-79.0
 20
49.235
 11
-79.0
 21
85.735
  0
ARC
  8
0
  6
CONTINUOUS
 10
-78.25
 20
54.235
 40
0.75
 50
0.0
 51
180.0
  0
LINE
  8
0
  6
CONTINUOUS
 10
-77.5
 20
49.235
 11
-77.5
 21
85.735
  0
LINE
  8
0
  6
CONTINUOUS
 10
-76.0
 20
49.235
 11
-76.0
 21
85.735
  0
ARC
  8
0
  6
CONTINUOUS
 10
-75.25
 20
54.235
 40
0.75
 50
0.0
 51
180.0
  0
LINE
  8
0
  6
CONTINUOUS
 10
-74.5
 20
49.235
 11
-74.5
 21
85.735
  0
LINE
  8
0
  6
CONTINUOUS
 10
-73.0
 20
49.235
 11
-73.0
 21
85.735
  0
ARC
  8
0
  6
CONTINUOUS
 10
-72.25
 20
54.235
 40
0.75
 50
0.0
 51
180.0
  0
ARC
  8
0
  6
CONTINUOUS
 10
-73.75
 20
49.235
 40
0.75
 50
180.0
 51
0.0
  0
ARC
  8
0
  6
CONTINUOUS
 10
-76.75
 20
49.235
 40
0.75
 50
180.0
 51
0.0
  0
ARC
  8
0
  6
CONTINUOUS
 10
-79.75
 20
49.235
 40
0.75
 50
180.0
 51
0.0
  0
ARC
  8
0
  6
CONTINUOUS
 10
-82.75
 20
49.235
 40
0.75
 50
180.0
 51
0.0
  0
LINE
  8
0
  6
CONTINUOUS
 10
-83.5
 20
49.235
 11
-83.5
 21
85.735
  0
ARC
  8
0
  6
CONTINUOUS
 10
-94.75
 20
90.735
 40
0.75
 50
0.0
 51
180.0
  0
LINE
  8
0
  6
CONTINUOUS
 10
-95.5
 20
90.735
 11
-95.5
 21
85.735
  0
LINE
  8
0
  6
CONTINUOUS
 10
-92.5
 20
90.735
 11
-92.5
 21
85.735
  0
LINE
  8
0
  6
CONTINUOUS
 10
-94.0
 20
90.735
 11
-94.0
 21
85.735
  0
ARC
  8
0
  6
CONTINUOUS
 10
-93.25
 20
85.735
 40
0.75
 50
180.0
 51
0.0
  0
ARC
  8
0
  6
CONTINUOUS
 10
-96.25
 20
85.735
 40
0.75
 50
180.0
 51
0.0
  0
LINE
  8
0
  6
CONTINUOUS
 10
-92.5
 20
90.735
 11
-92.5
 21
85.735
  0
ARC
  8
0
  6
CONTINUOUS
 10
-91.75
 20
90.735
 40
0.75
 50
0.0
 51
180.0
  0
LINE
  8
0
  6
CONTINUOUS
 10
-91.0
 20
90.735
 11
-91.0
 21
85.735
  0
ARC
  8
0
  6
CONTINUOUS
 10
-90.25
 20
85.735
 40
0.75
 50
180.0
 51
0.0
  0
LINE
  8
0
  6
CONTINUOUS
 10
-89.5
 20
90.735
 11
-89.5
 21
85.735
  0
ARC
  8
0
  6
CONTINUOUS
 10
-88.75
 20
90.735
 40
0.75
 50
0.0
 51
180.0
  0
LINE
  8
0
  6
CONTINUOUS
 10
-88.0
 20
90.735
 11
-88.0
 21
85.735
  0
ARC
  8
0
  6
CONTINUOUS
 10
-87.25
 20
85.735
 40
0.75
 50
180.0
 51
0.0
  0
LINE
  8
0
  6
CONTINUOUS
 10
-86.5
 20
90.735
 11
-86.5
 21
85.735
  0
ARC
  8
0
  6
CONTINUOUS
 10
-85.75
 20
90.735
 40
0.75
 50
0.0
 51
180.0
  0
LINE
  8
0
  6
CONTINUOUS
 10
-85.0
 20
90.735
 11
-85.0
 21
85.735
  0
ARC
  8
0
  6
CONTINUOUS
 10
-84.25
 20
85.735
 40
0.75
 50
180.0
 51
0.0
  0
LINE
  8
0
  6
CONTINUOUS
 10
-80.5
 20
90.735
 11
-80.5
 21
85.735
  0
LINE
  8
0
  6
CONTINUOUS
 10
-82.0
 20
90.735
 11
-82.0
 21
85.735
  0
ARC
  8
0
  6
CONTINUOUS
 10
-81.25
 20
85.735
 40
0.75
 50
180.0
 51
0.0
  0
LINE
  8
0
  6
CONTINUOUS
 10
-80.5
 20
90.735
 11
-80.5
 21
85.735
  0
LINE
  8
0
  6
CONTINUOUS
 10
-79.0
 20
90.735
 11
-79.0
 21
85.735
  0
ARC
  8
0
  6
CONTINUOUS
 10
-78.25
 20
85.735
 40
0.75
 50
180.0
 51
0.0
  0
LINE
  8
0
  6
CONTINUOUS
 10
-77.5
 20
90.735
 11
-77.5
 21
85.735
  0
LINE
  8
0
  6
CONTINUOUS
 10
-76.0
 20
90.735
 11
-76.0
 21
85.735
  0
ARC
  8
0
  6
CONTINUOUS
 10
-75.25
 20
85.735
 40
0.75
 50
180.0
 51
0.0
  0
LINE
  8
0
  6
CONTINUOUS
 10
-74.5
 20
90.735
 11
-74.5
 21
85.735
  0
LINE
  8
0
  6
CONTINUOUS
 10
-73.0
 20
90.735
 11
-73.0
 21
85.735
  0
ARC
  8
0
  6
CONTINUOUS
 10
-72.25
 20
85.735
 40
0.75
 50
180.0
 51
0.0
  0
ARC
  8
0
  6
CONTINUOUS
 10
-73.75
 20
90.735
 40
0.75
 50
0.0
 51
180.0
  0
ARC
  8
0
  6
CONTINUOUS
 10
-76.75
 20
90.735
 40
0.75
 50
0.0
 51
180.0
  0
ARC
  8
0
  6
CONTINUOUS
 10
-79.75
 20
90.735
 40
0.75
 50
0.0
 51
180.0
  0
ARC
  8
0
  6
CONTINUOUS
 10
-82.75
 20
90.735
 40
0.75
 50
0.0
 51
180.0
  0
LINE
  8
0
  6
CONTINUOUS
 10
-83.5
 20
90.735
 11
-83.5
 21
85.735
  0
LINE
  8
0
  6
CONTINUOUS
 10
-101.55
 20
87.685
 11
-101.55
 21
87.985
  0
ARC
  8
0
  6
CONTINUOUS
 10
-101.05
 20
87.685
 40
0.5
 50
180.0
 51
0.0
  0
LINE
  8
0
  6
CONTINUOUS
 10
-100.55
 20
87.685
 11
-100.55
 21
87.985
  0
LINE
  8
0
  6
CONTINUOUS
 10
-100.55
 20
87.985
 11
-99.0
 21
87.985
  0
LINE
  8
0
  6
CONTINUOUS
 10
-102.0
 20
87.985
 11
-101.55
 21
87.985
  0
LINE
  8
0
  6
CONTINUOUS
 10
-68.5
 20
88.985
 11
-68.5
 21
50.985
  0
LINE
  8
0
  6
CONTINUOUS
 10
-71.5
 20
84.985
 11
-71.5
 21
91.735
  0
LINE
  8
0
  6
CONTINUOUS
 10
-97.0
 20
84.985
 11
-97.0
 21
91.735
  0
LINE
  8
0
  6
CONTINUOUS
 10
-71.5
 20
48.235
 11
-71.5
 21
54.985
  0
LINE
  8
0
  6
CONTINUOUS
 10
-71.5
 20
54.985
 11
-71.5
 21
84.985
  0
LINE
  8
0
  6
CONTINUOUS
 10
-97.0
 20
48.235
 11
-97.0
 21
54.985
  0
LINE
  8
0
  6
CONTINUOUS
 10
-97.0
 20
54.985
 11
-97.0
 21
84.985
  0
LINE
  8
0
  6
CONTINUOUS
 10
-102.0
 20
84.985
 11
-102.0
 21
87.985
  0
LINE
  8
0
  6
CONTINUOUS
 10
-70.0
 20
50.985
 11
-71.5
 21
48.235
  0
LINE
  8
0
  6
CONTINUOUS
 10
-70.0
 20
88.985
 11
-71.5
 21
91.735
  0
LINE
  8
0
  6
CONTINUOUS
 10
-99.0
 20
87.985
 11
-97.0
 21
91.735
  0
LINE
  8
0
  6
CONTINUOUS
 10
-101.55
 20
52.285
 11
-101.55
 21
51.985
  0
ARC
  8
0
  6
CONTINUOUS
 10
-101.05
 20
52.285
 40
0.5
 50
0.0
 51
180.0
  0
LINE
  8
0
  6
CONTINUOUS
 10
-100.55
 20
52.285
 11
-100.55
 21
51.985
  0
LINE
  8
0
  6
CONTINUOUS
 10
-100.55
 20
51.985
 11
-99.0
 21
51.985
  0
LINE
  8
0
  6
CONTINUOUS
 10
-102.0
 20
54.985
 11
-102.0
 21
51.985
  0
LINE
  8
0
  6
CONTINUOUS
 10
-102.0
 20
51.985
 11
-101.55
 21
51.985
  0
LINE
  8
0
  6
CONTINUOUS
 10
-99.0
 20
51.985
 11
-97.0
 21
48.235
  0
LINE
  8
0
  6
CONTINUOUS
 10
-102.0
 20
54.985
 11
-102.0
 21
84.985
  0
LINE
  8
0
  6
CONTINUOUS
 10
-101.55
 20
51.985
 11
-101.55
 21
87.985
  0
LINE
  8
0
  6
CONTINUOUS
 10
-100.55
 20
51.985
 11
-100.55
 21
87.985
  0
LINE
  8
0
  6
CONTINUOUS
 10
-99.0
 20
51.985
 11
-99.0
 21
87.985
  0
LINE
  8
0
  6
CONTINUOUS
 10
-70.0
 20
50.985
 11
-70.0
 21
88.985
  0
LINE
  8
0
  6
CONTINUOUS
 10
-164.5
 20
-9.515
 11
-164.5
 21
9.485
  0
LINE
  8
0
  6
CONTINUOUS
 10
-104.5
 20
-18.015
 11
-104.5
 21
17.985
  0
LINE
  8
0
  6
CONTINUOUS
 10
-164.0
 20
9.985
 11
-104.5
 21
9.985
  0
LINE
  8
0
  6
CONTINUOUS
 10
-164.0
 20
-10.015
 11
-104.5
 21
-10.015
  0
LINE
  8
0
  6
CONTINUOUS
 10
-144.5
 20
-10.015
 11
-144.5
 21
9.985
  0
LINE
  8
0
  6
CENTER
 10
-54.5
 20
-15.015
 11
-54.5
 21
14.985
  0
LINE
  8
0
  6
CONTINUOUS
 10
-68.5
 20
9.985
 11
-62.9482787617
 21
9.985
  0
LINE
  8
0
  6
CONTINUOUS
 10
-68.5
 20
-10.015
 11
-63.349109240617
 21
-10.015
  0
LINE
  8
0
  6
CONTINUOUS
 10
-101.5
 20
-18.015
 11
-101.5
 21
17.985
  0
LINE
  8
0
  6
CONTINUOUS
 10
-101.95
 20
-18.015
 11
-101.95
 21
17.985
  0
ARC
  8
0
  6
CONTINUOUS
 10
-102.248048438871
 20
17.4869515611287
 40
0.301951561128712
 50
209.999999999996
 51
9.22240095435738
  0
LINE
  8
0
  6
CONTINUOUS
 10
-102.884260469323
 20
17.985
 11
-102.509546161521
 21
17.3359757805642
  0
LINE
  8
0
  6
CONTINUOUS
 10
-101.95
 20
17.985
 11
-101.5
 21
17.985
  0
LINE
  8
0
  6
CONTINUOUS
 10
-104.5
 20
17.985
 11
-102.884260469323
 21
17.985
  0
LINE
  8
0
  6
CONTINUOUS
 10
-102.884260469323
 20
-18.015
 11
-102.884260469323
 21
17.985
  0
LINE
  8
0
  6
CONTINUOUS
 10
-104.5
 20
-18.015
 11
-102.884260469323
 21
-18.015
  0
LINE
  8
0
  6
CONTINUOUS
 10
-102.884260469323
 20
-18.015
 11
-102.509546161521
 21
-17.3659757805642
  0
LINE
  8
0
  6
CONTINUOUS
 10
-101.95
 20
-18.015
 11
-101.5
 21
-18.015
  0
ARC
  8
0
  6
CONTINUOUS
 10
-102.248048438871
 20
-17.5169515611287
 40
0.301951561128712
 50
350.777599045643
 51
150.000000000004
  0
LINE
  8
0
  6
CONTINUOUS
 10
-164.0
 20
9.985
 11
-164.5
 21
9.485
  0
LINE
  8
0
  6
CONTINUOUS
 10
-164.5
 20
-9.515
 11
-164.0
 21
-10.015
  0
LINE
  8
0
  6
CONTINUOUS
 10
-45.0
 20
9.985
 11
-44.5
 21
9.485
  0
LINE
  8
0
  6
CONTINUOUS
 10
-44.5
 20
-9.515
 11
-45.0
 21
-10.015
  0
LINE
  8
0
  6
CONTINUOUS
 10
-164.0
 20
-10.015
 11
-164.0
 21
9.985
  0
LINE
  8
0
  6
CONTINUOUS
 10
-62.9482787617
 20
9.985
 11
-58.55
 21
9.985
  0
LINE
  8
0
  6
CONTINUOUS
 10
-63.349109240617
 20
-10.015
 11
-58.55
 21
-10.015
  0
LINE
  8
0
  6
CONTINUOUS
 10
-58.55
 20
9.985
 11
-50.45
 21
9.985
  0
LINE
  8
0
  6
CONTINUOUS
 10
-50.45
 20
9.985
 11
-45.0
 21
9.985
  0
LINE
  8
0
  6
CONTINUOUS
 10
-58.55
 20
-10.015
 11
-50.45
 21
-10.015
  0
LINE
  8
0
  6
CONTINUOUS
 10
-50.45
 20
-10.015
 11
-45.0
 21
-10.015
  0
LINE
  8
0
  6
CONTINUOUS
 10
-44.5
 20
-9.515
 11
-44.5
 21
-3.015
  0
LINE
  8
0
  6
CONTINUOUS
 10
-44.5
 20
-3.015
 11
-44.5
 21
2.985
  0
LINE
  8
0
  6
CONTINUOUS
 10
-44.5
 20
2.985
 11
-44.5
 21
9.485
  0
LINE
  8
0
  6
CONTINUOUS
 10
-68.5
 20
12.47
 11
-68.5
 21
13.5849147038911
  0
LINE
  8
0
  6
CONTINUOUS
 10
-68.5
 20
-19.015
 11
-68.5
 21
18.985
  0
LINE
  8
0
  6
CONTINUOUS
 10
-45.0
 20
-10.015
 11
-45.0
 21
9.985
  0
ARC
  8
0
  6
CONTINUOUS
 10
-94.75
 20
20.735
 40
0.75
 50
0.0
 51
180.0
  0
LINE
  8
0
  6
CONTINUOUS
 10
-95.5
 20
20.735
 11
-95.5
 21
15.735
  0
LINE
  8
0
  6
CONTINUOUS
 10
-92.5
 20
20.735
 11
-92.5
 21
15.735
  0
LINE
  8
0
  6
CONTINUOUS
 10
-94.0
 20
20.735
 11
-94.0
 21
15.735
  0
LINE
  8
0
  6
CONTINUOUS
 10
-92.5
 20
20.735
 11
-92.5
 21
15.735
  0
ARC
  8
0
  6
CONTINUOUS
 10
-91.75
 20
20.735
 40
0.75
 50
0.0
 51
180.0
  0
LINE
  8
0
  6
CONTINUOUS
 10
-91.0
 20
20.735
 11
-91.0
 21
15.735
  0
LINE
  8
0
  6
CONTINUOUS
 10
-89.5
 20
20.735
 11
-89.5
 21
15.735
  0
ARC
  8
0
  6
CONTINUOUS
 10
-88.75
 20
20.735
 40
0.75
 50
0.0
 51
180.0
  0
LINE
  8
0
  6
CONTINUOUS
 10
-88.0
 20
20.735
 11
-88.0
 21
15.735
  0
LINE
  8
0
  6
CONTINUOUS
 10
-86.5
 20
20.735
 11
-86.5
 21
15.735
  0
ARC
  8
0
  6
CONTINUOUS
 10
-85.75
 20
20.735
 40
0.75
 50
0.0
 51
180.0
  0
LINE
  8
0
  6
CONTINUOUS
 10
-85.0
 20
20.735
 11
-85.0
 21
15.735
  0
LINE
  8
0
  6
CONTINUOUS
 10
-80.5
 20
20.735
 11
-80.5
 21
15.735
  0
LINE
  8
0
  6
CONTINUOUS
 10
-82.0
 20
20.735
 11
-82.0
 21
15.735
  0
LINE
  8
0
  6
CONTINUOUS
 10
-80.5
 20
20.735
 11
-80.5
 21
15.735
  0
LINE
  8
0
  6
CONTINUOUS
 10
-79.0
 20
20.735
 11
-79.0
 21
15.735
  0
LINE
  8
0
  6
CONTINUOUS
 10
-77.5
 20
20.735
 11
-77.5
 21
15.735
  0
LINE
  8
0
  6
CONTINUOUS
 10
-76.0
 20
20.735
 11
-76.0
 21
15.735
  0
LINE
  8
0
  6
CONTINUOUS
 10
-74.5
 20
20.735
 11
-74.5
 21
15.735
  0
LINE
  8
0
  6
CONTINUOUS
 10
-73.0
 20
20.735
 11
-73.0
 21
15.735
  0
ARC
  8
0
  6
CONTINUOUS
 10
-73.75
 20
20.735
 40
0.75
 50
0.0
 51
180.0
  0
ARC
  8
0
  6
CONTINUOUS
 10
-76.75
 20
20.735
 40
0.75
 50
0.0
 51
180.0
  0
ARC
  8
0
  6
CONTINUOUS
 10
-79.75
 20
20.735
 40
0.75
 50
0.0
 51
180.0
  0
ARC
  8
0
  6
CONTINUOUS
 10
-82.75
 20
20.735
 40
0.75
 50
0.0
 51
180.0
  0
LINE
  8
0
  6
CONTINUOUS
 10
-83.5
 20
20.735
 11
-83.5
 21
15.735
  0
LINE
  8
0
  6
CONTINUOUS
 10
-71.5
 20
14.985
 11
-71.5
 21
21.735
  0
LINE
  8
0
  6
CONTINUOUS
 10
-97.0
 20
14.985
 11
-97.0
 21
21.735
  0
LINE
  8
0
  6
CONTINUOUS
 10
-70.0
 20
18.985
 11
-71.5
 21
21.735
  0
LINE
  8
0
  6
CONTINUOUS
 10
-99.0
 20
17.985
 11
-97.0
 21
21.735
  0
LINE
  8
0
  6
CONTINUOUS
 10
-70.0
 20
-19.015
 11
-68.5
 21
-19.015
  0
LINE
  8
0
  6
CONTINUOUS
 10
-95.5
 20
-20.765
 11
-95.5
 21
-15.765
  0
ARC
  8
0
  6
CONTINUOUS
 10
-94.75
 20
-20.765
 40
0.75
 50
180.0
 51
0.0
  0
ARC
  8
0
  6
CONTINUOUS
 10
-93.25
 20
-15.765
 40
0.75
 50
0.0
 51
180.0
  0
LINE
  8
0
  6
CONTINUOUS
 10
-94.0
 20
-20.765
 11
-94.0
 21
15.735
  0
LINE
  8
0
  6
CONTINUOUS
 10
-92.5
 20
-20.765
 11
-92.5
 21
-15.765
  0
ARC
  8
0
  6
CONTINUOUS
 10
-96.25
 20
-15.765
 40
0.75
 50
0.0
 51
180.0
  0
LINE
  8
0
  6
CONTINUOUS
 10
-92.5
 20
-20.765
 11
-92.5
 21
15.735
  0
ARC
  8
0
  6
CONTINUOUS
 10
-91.75
 20
-20.765
 40
0.75
 50
180.0
 51
0.0
  0
LINE
  8
0
  6
CONTINUOUS
 10
-91.0
 20
-20.765
 11
-91.0
 21
15.735
  0
ARC
  8
0
  6
CONTINUOUS
 10
-90.25
 20
-15.765
 40
0.75
 50
0.0
 51
180.0
  0
LINE
  8
0
  6
CONTINUOUS
 10
-89.5
 20
-20.765
 11
-89.5
 21
15.735
  0
ARC
  8
0
  6
CONTINUOUS
 10
-88.75
 20
-20.765
 40
0.75
 50
180.0
 51
0.0
  0
LINE
  8
0
  6
CONTINUOUS
 10
-88.0
 20
-20.765
 11
-88.0
 21
15.735
  0
ARC
  8
0
  6
CONTINUOUS
 10
-87.25
 20
-15.765
 40
0.75
 50
0.0
 51
180.0
  0
LINE
  8
0
  6
CONTINUOUS
 10
-86.5
 20
-20.765
 11
-86.5
 21
15.735
  0
ARC
  8
0
  6
CONTINUOUS
 10
-85.75
 20
-20.765
 40
0.75
 50
180.0
 51
0.0
  0
LINE
  8
0
  6
CONTINUOUS
 10
-85.0
 20
-20.765
 11
-85.0
 21
15.735
  0
ARC
  8
0
  6
CONTINUOUS
 10
-84.25
 20
-15.765
 40
0.75
 50
0.0
 51
180.0
  0
LINE
  8
0
  6
CONTINUOUS
 10
-80.5
 20
-20.765
 11
-80.5
 21
-15.765
  0
LINE
  8
0
  6
CONTINUOUS
 10
-82.0
 20
-20.765
 11
-82.0
 21
15.735
  0
ARC
  8
0
  6
CONTINUOUS
 10
-81.25
 20
-15.765
 40
0.75
 50
0.0
 51
180.0
  0
LINE
  8
0
  6
CONTINUOUS
 10
-80.5
 20
-20.765
 11
-80.5
 21
15.735
  0
LINE
  8
0
  6
CONTINUOUS
 10
-79.0
 20
-20.765
 11
-79.0
 21
15.735
  0
ARC
  8
0
  6
CONTINUOUS
 10
-78.25
 20
-15.765
 40
0.75
 50
0.0
 51
180.0
  0
LINE
  8
0
  6
CONTINUOUS
 10
-77.5
 20
-20.765
 11
-77.5
 21
15.735
  0
LINE
  8
0
  6
CONTINUOUS
 10
-76.0
 20
-20.765
 11
-76.0
 21
15.735
  0
ARC
  8
0
  6
CONTINUOUS
 10
-75.25
 20
-15.765
 40
0.75
 50
0.0
 51
180.0
  0
LINE
  8
0
  6
CONTINUOUS
 10
-74.5
 20
-20.765
 11
-74.5
 21
15.735
  0
LINE
  8
0
  6
CONTINUOUS
 10
-73.0
 20
-20.765
 11
-73.0
 21
15.735
  0
ARC
  8
0
  6
CONTINUOUS
 10
-72.25
 20
-15.765
 40
0.75
 50
0.0
 51
180.0
  0
ARC
  8
0
  6
CONTINUOUS
 10
-73.75
 20
-20.765
 40
0.75
 50
180.0
 51
0.0
  0
ARC
  8
0
  6
CONTINUOUS
 10
-76.75
 20
-20.765
 40
0.75
 50
180.0
 51
0.0
  0
ARC
  8
0
  6
CONTINUOUS
 10
-79.75
 20
-20.765
 40
0.75
 50
180.0
 51
0.0
  0
ARC
  8
0
  6
CONTINUOUS
 10
-82.75
 20
-20.765
 40
0.75
 50
180.0
 51
0.0
  0
LINE
  8
0
  6
CONTINUOUS
 10
-83.5
 20
-20.765
 11
-83.5
 21
15.735
  0
LINE
  8
0
  6
CONTINUOUS
 10
-71.5
 20
-21.765
 11
-71.5
 21
-15.015
  0
LINE
  8
0
  6
CONTINUOUS
 10
-97.0
 20
-21.765
 11
-97.0
 21
-15.015
  0
LINE
  8
0
  6
CONTINUOUS
 10
-70.0
 20
-19.015
 11
-71.5
 21
-21.765
  0
LINE
  8
0
  6
CONTINUOUS
 10
-100.55
 20
-18.015
 11
-99.0
 21
-18.015
  0
LINE
  8
0
  6
CONTINUOUS
 10
-99.0
 20
-18.015
 11
-97.0
 21
-21.765
  0
LINE
  8
0
  6
CONTINUOUS
 10
-99.0
 20
-18.015
 11
-99.0
 21
17.985
  0
LINE
  8
0
  6
CONTINUOUS
 10
-70.0
 20
-19.015
 11
-70.0
 21
18.985
  0
LINE
  8
0
  6
CONTINUOUS
 10
-71.5
 20
-15.015
 11
-71.5
 21
14.985
  0
LINE
  8
0
  6
CONTINUOUS
 10
-70.0
 20
18.985
 11
-68.5
 21
18.985
  0
ARC
  8
0
  6
CONTINUOUS
 10
-93.25
 20
15.735
 40
0.75
 50
180.0
 51
0.0
  0
ARC
  8
0
  6
CONTINUOUS
 10
-96.25
 20
15.735
 40
0.75
 50
180.0
 51
0.0
  0
ARC
  8
0
  6
CONTINUOUS
 10
-90.25
 20
15.735
 40
0.75
 50
180.0
 51
0.0
  0
ARC
  8
0
  6
CONTINUOUS
 10
-87.25
 20
15.735
 40
0.75
 50
180.0
 51
0.0
  0
ARC
  8
0
  6
CONTINUOUS
 10
-84.25
 20
15.735
 40
0.75
 50
180.0
 51
0.0
  0
ARC
  8
0
  6
CONTINUOUS
 10
-81.25
 20
15.735
 40
0.75
 50
180.0
 51
0.0
  0
ARC
  8
0
  6
CONTINUOUS
 10
-78.25
 20
15.735
 40
0.75
 50
180.0
 51
0.0
  0
ARC
  8
0
  6
CONTINUOUS
 10
-75.25
 20
15.735
 40
0.75
 50
180.0
 51
0.0
  0
ARC
  8
0
  6
CONTINUOUS
 10
-72.25
 20
15.735
 40
0.75
 50
180.0
 51
0.0
  0
LINE
  8
0
  6
CONTINUOUS
 10
-97.0
 20
-15.015
 11
-97.0
 21
14.985
  0
LINE
  8
0
  6
CONTINUOUS
 10
-100.55
 20
17.985
 11
-99.0
 21
17.985
  0
LINE
  8
0
  6
CONTINUOUS
 10
-100.55
 20
-18.015
 11
-100.55
 21
17.985
  0
CIRCLE
  8
0
  6
CONTINUOUS
 10
-141.5
 20
6.985
 40
2.25
  0
CIRCLE
  8
0
  6
CONTINUOUS
 10
-107.5
 20
6.985
 40
2.25
  0
LINE
  8
0
  6
CONTINUOUS
 10
-107.841179021923
 20
-7.35617902192247
 11
-108.066243139908
 21
-7.25597402056182
  0
CIRCLE
  8
0
  6
CONTINUOUS
 10
-107.5
 20
-7.015
 40
2.25
  0
ARC
  8
0
  6
CONTINUOUS
 10
-107.5
 20
-7.015
 40
1.30000000000001
 50
349.875697516819
 51
10.1243024831819
  0
LINE
  8
0
  6
CONTINUOUS
 10
-107.841179021923
 20
-6.67382097807747
 11
-107.740974020562
 21
-6.4487568600923
  0
LINE
  8
0
  6
CONTINUOUS
 10
-107.158820978078
 20
-6.67382097807747
 11
-107.259025979438
 21
-6.4487568600923
  0
ARC
  8
0
  6
CONTINUOUS
 10
-107.5
 20
-7.015
 40
1.3
 50
169.875697516818
 51
190.124302483181
  0
ARC
  8
0
  6
CONTINUOUS
 10
-107.5
 20
-7.015
 40
1.3
 50
259.875697516804
 51
280.124302483195
  0
LINE
  8
0
  6
CONTINUOUS
 10
-107.841179021923
 20
-6.67382097807747
 11
-108.066243139908
 21
-6.77402597943812
  0
LINE
  8
0
  6
CONTINUOUS
 10
-107.841179021923
 20
-7.35617902192247
 11
-107.740974020562
 21
-7.58124313990764
  0
LINE
  8
0
  6
CONTINUOUS
 10
-107.158820978078
 20
-7.35617902192247
 11
-107.259025979438
 21
-7.58124313990764
  0
LINE
  8
0
  6
CONTINUOUS
 10
-107.740974020562
 20
-7.58124313990764
 11
-107.728519584211
 21
-8.29475732060112
  0
LINE
  8
0
  6
CONTINUOUS
 10
-107.259025979438
 20
-7.58124313990764
 11
-107.271480415789
 21
-8.29475732060114
  0
LINE
  8
0
  6
CONTINUOUS
 10
-108.066243139908
 20
-6.77402597943812
 11
-108.779757320601
 21
-6.78648041578933
  0
LINE
  8
0
  6
CONTINUOUS
 10
-108.066243139908
 20
-7.25597402056182
 11
-108.779757320601
 21
-7.24351958421063
  0
LINE
  8
0
  6
CONTINUOUS
 10
-107.158820978078
 20
-6.67382097807747
 11
-106.933756860092
 21
-6.77402597943812
  0
LINE
  8
0
  6
CONTINUOUS
 10
-107.158820978078
 20
-7.35617902192247
 11
-106.933756860092
 21
-7.25597402056182
  0
ARC
  8
0
  6
CONTINUOUS
 10
-107.5
 20
-7.015
 40
1.3
 50
79.8756975168046
 51
100.124302483196
  0
LINE
  8
0
  6
CONTINUOUS
 10
-107.740974020562
 20
-6.4487568600923
 11
-107.728519584211
 21
-5.73524267939886
  0
LINE
  8
0
  6
CONTINUOUS
 10
-107.259025979438
 20
-6.4487568600923
 11
-107.271480415789
 21
-5.73524267939884
  0
LINE
  8
0
  6
CONTINUOUS
 10
-106.933756860092
 20
-6.77402597943812
 11
-106.220242679399
 21
-6.78648041578933
  0
LINE
  8
0
  6
CONTINUOUS
 10
-106.933756860092
 20
-7.25597402056182
 11
-106.220242679399
 21
-7.24351958421063
  0
ARC
  8
0
  6
CONTINUOUS
 10
-107.5
 20
6.985
 40
1.30000000000001
 50
349.875697516819
 51
10.1243024831819
  0
LINE
  8
0
  6
CONTINUOUS
 10
-107.841179021923
 20
7.32617902192253
 11
-107.740974020562
 21
7.5512431399077
  0
LINE
  8
0
  6
CONTINUOUS
 10
-107.158820978078
 20
7.32617902192253
 11
-107.259025979438
 21
7.5512431399077
  0
ARC
  8
0
  6
CONTINUOUS
 10
-107.5
 20
6.985
 40
1.3
 50
169.875697516818
 51
190.124302483181
  0
ARC
  8
0
  6
CONTINUOUS
 10
-107.5
 20
6.985
 40
1.3
 50
259.875697516804
 51
280.124302483195
  0
LINE
  8
0
  6
CONTINUOUS
 10
-107.841179021923
 20
7.32617902192253
 11
-108.066243139908
 21
7.22597402056188
  0
LINE
  8
0
  6
CONTINUOUS
 10
-107.841179021923
 20
6.64382097807753
 11
-107.740974020562
 21
6.41875686009236
  0
LINE
  8
0
  6
CONTINUOUS
 10
-107.841179021923
 20
6.64382097807753
 11
-108.066243139908
 21
6.74402597943818
  0
LINE
  8
0
  6
CONTINUOUS
 10
-107.158820978078
 20
6.64382097807753
 11
-107.259025979438
 21
6.41875686009236
  0
LINE
  8
0
  6
CONTINUOUS
 10
-107.740974020562
 20
6.41875686009236
 11
-107.728519584211
 21
5.70524267939888
  0
LINE
  8
0
  6
CONTINUOUS
 10
-107.259025979438
 20
6.41875686009236
 11
-107.271480415789
 21
5.70524267939886
  0
LINE
  8
0
  6
CONTINUOUS
 10
-108.066243139908
 20
7.22597402056188
 11
-108.779757320601
 21
7.21351958421067
  0
LINE
  8
0
  6
CONTINUOUS
 10
-108.066243139908
 20
6.74402597943818
 11
-108.779757320601
 21
6.75648041578937
  0
LINE
  8
0
  6
CONTINUOUS
 10
-107.158820978078
 20
7.32617902192253
 11
-106.933756860092
 21
7.22597402056188
  0
LINE
  8
0
  6
CONTINUOUS
 10
-107.158820978078
 20
6.64382097807753
 11
-106.933756860092
 21
6.74402597943818
  0
ARC
  8
0
  6
CONTINUOUS
 10
-107.5
 20
6.985
 40
1.3
 50
79.8756975168046
 51
100.124302483196
  0
LINE
  8
0
  6
CONTINUOUS
 10
-107.740974020562
 20
7.5512431399077
 11
-107.728519584211
 21
8.26475732060113
  0
LINE
  8
0
  6
CONTINUOUS
 10
-107.259025979438
 20
7.5512431399077
 11
-107.271480415789
 21
8.26475732060116
  0
LINE
  8
0
  6
CONTINUOUS
 10
-106.933756860092
 20
7.22597402056188
 11
-106.220242679399
 21
7.21351958421067
  0
LINE
  8
0
  6
CONTINUOUS
 10
-106.933756860092
 20
6.74402597943818
 11
-106.220242679399
 21
6.75648041578937
  0
ARC
  8
0
  6
CONTINUOUS
 10
-141.5
 20
6.985
 40
1.30000000000001
 50
349.875697516819
 51
10.1243024831819
  0
LINE
  8
0
  6
CONTINUOUS
 10
-141.841179021923
 20
7.32617902192253
 11
-141.740974020562
 21
7.5512431399077
  0
LINE
  8
0
  6
CONTINUOUS
 10
-141.158820978078
 20
7.32617902192253
 11
-141.259025979438
 21
7.5512431399077
  0
ARC
  8
0
  6
CONTINUOUS
 10
-141.5
 20
6.985
 40
1.3
 50
169.875697516818
 51
190.124302483181
  0
ARC
  8
0
  6
CONTINUOUS
 10
-141.5
 20
6.985
 40
1.3
 50
259.875697516804
 51
280.124302483195
  0
LINE
  8
0
  6
CONTINUOUS
 10
-141.841179021923
 20
7.32617902192253
 11
-142.066243139908
 21
7.22597402056188
  0
LINE
  8
0
  6
CONTINUOUS
 10
-141.841179021923
 20
6.64382097807753
 11
-141.740974020562
 21
6.41875686009236
  0
LINE
  8
0
  6
CONTINUOUS
 10
-141.841179021923
 20
6.64382097807753
 11
-142.066243139908
 21
6.74402597943818
  0
LINE
  8
0
  6
CONTINUOUS
 10
-141.158820978078
 20
6.64382097807753
 11
-141.259025979438
 21
6.41875686009236
  0
LINE
  8
0
  6
CONTINUOUS
 10
-141.740974020562
 20
6.41875686009236
 11
-141.728519584211
 21
5.70524267939888
  0
LINE
  8
0
  6
CONTINUOUS
 10
-141.259025979438
 20
6.41875686009236
 11
-141.271480415789
 21
5.70524267939886
  0
LINE
  8
0
  6
CONTINUOUS
 10
-142.066243139908
 20
7.22597402056188
 11
-142.779757320601
 21
7.21351958421067
  0
LINE
  8
0
  6
CONTINUOUS
 10
-142.066243139908
 20
6.74402597943818
 11
-142.779757320601
 21
6.75648041578937
  0
LINE
  8
0
  6
CONTINUOUS
 10
-141.158820978078
 20
7.32617902192253
 11
-140.933756860092
 21
7.22597402056188
  0
LINE
  8
0
  6
CONTINUOUS
 10
-141.158820978078
 20
6.64382097807753
 11
-140.933756860092
 21
6.74402597943818
  0
ARC
  8
0
  6
CONTINUOUS
 10
-141.5
 20
6.985
 40
1.3
 50
79.8756975168046
 51
100.124302483196
  0
LINE
  8
0
  6
CONTINUOUS
 10
-141.740974020562
 20
7.5512431399077
 11
-141.728519584211
 21
8.26475732060113
  0
LINE
  8
0
  6
CONTINUOUS
 10
-141.259025979438
 20
7.5512431399077
 11
-141.271480415789
 21
8.26475732060116
  0
LINE
  8
0
  6
CONTINUOUS
 10
-140.933756860092
 20
7.22597402056188
 11
-140.220242679399
 21
7.21351958421067
  0
LINE
  8
0
  6
CONTINUOUS
 10
-140.933756860092
 20
6.74402597943818
 11
-140.220242679399
 21
6.75648041578937
  0
CIRCLE
  8
0
  6
CONTINUOUS
 10
-141.5
 20
-7.015
 40
2.25
  0
ARC
  8
0
  6
CONTINUOUS
 10
-141.5
 20
-7.015
 40
1.30000000000001
 50
349.875697516819
 51
10.1243024831819
  0
LINE
  8
0
  6
CONTINUOUS
 10
-141.841179021923
 20
-6.67382097807747
 11
-141.740974020562
 21
-6.4487568600923
  0
LINE
  8
0
  6
CONTINUOUS
 10
-141.158820978078
 20
-6.67382097807747
 11
-141.259025979438
 21
-6.4487568600923
  0
ARC
  8
0
  6
CONTINUOUS
 10
-141.5
 20
-7.015
 40
1.3
 50
169.875697516818
 51
190.124302483181
  0
ARC
  8
0
  6
CONTINUOUS
 10
-141.5
 20
-7.015
 40
1.3
 50
259.875697516804
 51
280.124302483195
  0
LINE
  8
0
  6
CONTINUOUS
 10
-141.841179021923
 20
-6.67382097807747
 11
-142.066243139908
 21
-6.77402597943812
  0
LINE
  8
0
  6
CONTINUOUS
 10
-141.841179021923
 20
-7.35617902192247
 11
-141.740974020562
 21
-7.58124313990764
  0
LINE
  8
0
  6
CONTINUOUS
 10
-141.841179021923
 20
-7.35617902192247
 11
-142.066243139908
 21
-7.25597402056182
  0
LINE
  8
0
  6
CONTINUOUS
 10
-141.158820978078
 20
-7.35617902192247
 11
-141.259025979438
 21
-7.58124313990764
  0
LINE
  8
0
  6
CONTINUOUS
 10
-141.740974020562
 20
-7.58124313990764
 11
-141.728519584211
 21
-8.29475732060112
  0
LINE
  8
0
  6
CONTINUOUS
 10
-141.259025979438
 20
-7.58124313990764
 11
-141.271480415789
 21
-8.29475732060114
  0
LINE
  8
0
  6
CONTINUOUS
 10
-142.066243139908
 20
-6.77402597943812
 11
-142.779757320601
 21
-6.78648041578933
  0
LINE
  8
0
  6
CONTINUOUS
 10
-142.066243139908
 20
-7.25597402056182
 11
-142.779757320601
 21
-7.24351958421063
  0
LINE
  8
0
  6
CONTINUOUS
 10
-141.158820978078
 20
-6.67382097807747
 11
-140.933756860092
 21
-6.77402597943812
  0
LINE
  8
0
  6
CONTINUOUS
 10
-141.158820978078
 20
-7.35617902192247
 11
-140.933756860092
 21
-7.25597402056182
  0
ARC
  8
0
  6
CONTINUOUS
 10
-141.5
 20
-7.015
 40
1.3
 50
79.8756975168046
 51
100.124302483196
  0
LINE
  8
0
  6
CONTINUOUS
 10
-141.740974020562
 20
-6.4487568600923
 11
-141.728519584211
 21
-5.73524267939886
  0
LINE
  8
0
  6
CONTINUOUS
 10
-141.259025979438
 20
-6.4487568600923
 11
-141.271480415789
 21
-5.73524267939884
  0
LINE
  8
0
  6
CONTINUOUS
 10
-140.933756860092
 20
-6.77402597943812
 11
-140.220242679399
 21
-6.78648041578933
  0
LINE
  8
0
  6
CONTINUOUS
 10
-140.933756860092
 20
-7.25597402056182
 11
-140.220242679399
 21
-7.24351958421063
  0
LINE
  8
0
  6
CONTINUOUS
 10
-95.5
 20
54.235
 11
-95.5
 21
85.735
  0
LINE
  8
0
  6
CONTINUOUS
 10
-95.5
 20
15.735
 11
-95.5
 21
-15.765
  0
LINE
  8
0
  6
CONTINUOUS
 10
-144.15
 20
52.418370452904
 11
-144.15
 21
53.018370452904
  0
LINE
  8
0
  6
CONTINUOUS
 10
-144.15
 20
52.418370452904
 11
-138.85
 21
52.418370452904
  0
LINE
  8
0
  6
CONTINUOUS
 10
-143.75
 20
52.418370452904
 11
-139.25
 21
52.418370452904
  0
ARC
  8
0
  6
CONTINUOUS
 10
-142.913163856607
 20
52.0322601616183
 40
0.800000000000003
 50
184.999999999994
 51
230.032931642635
  0
LINE
  8
0
  6
CONTINUOUS
 10
-143.710119615081
 20
51.9625355674202
 11
-143.75
 21
52.418370452904
  0
LINE
  8
0
  6
CONTINUOUS
 10
-141.728519584211
 20
51.0146692859848
 11
-141.740974020562
 21
50.7722936198076
  0
ARC
  8
0
  6
CONTINUOUS
 10
-141.845622878058
 20
50.9136795350743
 40
0.175901564549712
 50
271.447635179817
 51
306.507536633373
  0
LINE
  8
0
  6
CONTINUOUS
 10
-141.728519584211
 20
51.0146692859848
 11
-141.271480415789
 21
51.0146692859848
  0
ARC
  8
0
  6
CONTINUOUS
 10
-141.5
 20
53.718370452904
 40
2.99999999999998
 50
230.032931642634
 51
263.46983221469
  0
ARC
  8
0
  6
CONTINUOUS
 10
-141.5
 20
53.718370452904
 40
3.0
 50
276.53016778531
 51
309.967068357366
  0
ARC
  8
0
  6
CONTINUOUS
 10
-140.086836143393
 20
52.0322601616183
 40
0.800000000000007
 50
309.96706835736
 51
355.000000000006
  0
LINE
  8
0
  6
CONTINUOUS
 10
-139.289880384919
 20
51.9625355674202
 11
-139.25
 21
52.418370452904
  0
ARC
  8
0
  6
CONTINUOUS
 10
-141.154377121942
 20
50.9136795350743
 40
0.175901564549712
 50
233.492463366627
 51
268.552364820183
  0
LINE
  8
0
  6
CONTINUOUS
 10
-141.271480415789
 20
51.0146692859848
 11
-141.259025979438
 21
50.7722936198076
  0
LINE
  8
0
  6
CONTINUOUS
 10
-138.85
 20
52.418370452904
 11
-138.85
 21
53.018370452904
  0
LINE
  8
0
  6
CONTINUOUS
 10
-104.85
 20
52.418370452904
 11
-104.85
 21
53.018370452904
  0
LINE
  8
0
  6
CONTINUOUS
 10
-110.15
 20
52.418370452904
 11
-110.15
 21
53.018370452904
  0
LINE
  8
0
  6
CONTINUOUS
 10
-110.15
 20
52.418370452904
 11
-104.85
 21
52.418370452904
  0
LINE
  8
0
  6
CONTINUOUS
 10
-109.75
 20
52.418370452904
 11
-105.25
 21
52.418370452904
  0
ARC
  8
0
  6
CONTINUOUS
 10
-107.5
 20
53.718370452904
 40
3.0
 50
276.530167785309
 51
309.967068357366
  0
ARC
  8
0
  6
CONTINUOUS
 10
-106.086836143393
 20
52.0322601616183
 40
0.800000000000007
 50
309.967068357362
 51
355.000000000006
  0
LINE
  8
0
  6
CONTINUOUS
 10
-105.289880384919
 20
51.9625355674202
 11
-105.25
 21
52.418370452904
  0
ARC
  8
0
  6
CONTINUOUS
 10
-108.913163856607
 20
52.0322601616183
 40
0.800000000000003
 50
184.999999999994
 51
230.032931642633
  0
LINE
  8
0
  6
CONTINUOUS
 10
-109.710119615081
 20
51.9625355674202
 11
-109.75
 21
52.418370452904
  0
LINE
  8
0
  6
CONTINUOUS
 10
-107.728519584211
 20
51.0146692859848
 11
-107.740974020562
 21
50.7722936198076
  0
ARC
  8
0
  6
CONTINUOUS
 10
-107.845622878058
 20
50.9136795350743
 40
0.175901564549712
 50
271.447635179826
 51
306.507536633366
  0
ARC
  8
0
  6
CONTINUOUS
 10
-107.154377121942
 20
50.9136795350743
 40
0.175901564549712
 50
233.492463366634
 51
268.552364820174
  0
LINE
  8
0
  6
CONTINUOUS
 10
-107.271480415789
 20
51.0146692859848
 11
-107.259025979438
 21
50.7722936198076
  0
LINE
  8
0
  6
CONTINUOUS
 10
-107.728519584211
 20
51.0146692859848
 11
-107.271480415789
 21
51.0146692859848
  0
ARC
  8
0
  6
CONTINUOUS
 10
-107.5
 20
53.718370452904
 40
2.99999999999998
 50
230.032931642634
 51
263.469832214691
  0
LINE
  8
0
  6
CONTINUOUS
 10
-180.0
 20
136.835
 11
-170.0
 21
136.835
  0
LINE
  8
0
  6
CONTINUOUS
 10
-180.0
 20
143.135
 11
-170.0
 21
143.135
  0
LINE
  8
0
  6
CONTINUOUS
 10
-170.0
 20
136.235
 11
-165.0
 21
136.235
  0
LINE
  8
0
  6
CONTINUOUS
 10
-170.0
 20
143.735
 11
-165.0
 21
143.735
  0
LINE
  8
0
  6
CONTINUOUS
 10
-170.0
 20
143.735
 11
-170.0
 21
136.235
  0
POLYLINE
  8
0
  6
CONTINUOUS
 66
     1
 10
0.0
 20
0.0
 70
     0
 40
0.0
 41
0.0
  0
VERTEX
  8
0
 10
-180.0
 20
136.835
  0
VERTEX
  8
0
 10
-180.426741247702
 20
137.308321583896
  0
VERTEX
  8
0
 10
-180.724695762641
 20
137.713709228473
  0
VERTEX
  8
0
 10
-180.91724642367
 20
138.082661621655
  0
VERTEX
  8
0
 10
-181.0
 20
138.41
  0
VERTEX
  8
0
 10
-180.965823373256
 20
138.75208179416
  0
VERTEX
  8
0
 10
-180.800187215192
 20
139.107579525113
  0
VERTEX
  8
0
 10
-180.504873294347
 20
139.484561403509
  0
VERTEX
  8
0
 10
-180.0
 20
139.985
  0
VERTEX
  8
0
 10
-179.495126705653
 20
140.485438596491
  0
VERTEX
  8
0
 10
-179.199812784808
 20
140.862420474887
  0
VERTEX
  8
0
 10
-179.034176626744
 20
141.21791820584
  0
VERTEX
  8
0
 10
-179.0
 20
141.56
  0
VERTEX
  8
0
 10
-179.08275357633
 20
141.887338378345
  0
VERTEX
  8
0
 10
-179.275304237359
 20
142.256290771527
  0
VERTEX
  8
0
 10
-179.573258752298
 20
142.661678416105
  0
VERTEX
  8
0
 10
-180.0
 20
143.135
  0
SEQEND
  8
0
  0
POLYLINE
  8
0
  6
CONTINUOUS
 66
     1
 10
0.0
 20
0.0
 70
     0
 40
0.0
 41
0.0
  0
VERTEX
  8
0
 10
-180.0
 20
139.985
  0
VERTEX
  8
0
 10
-180.447777848891
 20
140.438441995771
  0
VERTEX
  8
0
 10
-180.752493286206
 20
140.837440568704
  0
VERTEX
  8
0
 10
-180.938093142784
 20
141.212961472093
  0
VERTEX
  8
0
 10
-181.0
 20
141.56
  0
VERTEX
  8
0
 10
-180.938093142784
 20
141.907038527907
  0
VERTEX
  8
0
 10
-180.752493286206
 20
142.282559431296
  0
VERTEX
  8
0
 10
-180.447777848891
 20
142.681558004229
  0
VERTEX
  8
0
 10
-180.0
 20
143.135
  0
SEQEND
  8
0
  0
LINE
  8
0
  6
CENTER
 10
-185.0
 20
139.985
 11
-40.0
 21
139.985
  0
LINE
  8
0
  6
CONTINUOUS
 10
-164.5
 20
149.485
 11
-164.5
 21
130.485
  0
LINE
  8
0
  6
CONTINUOUS
 10
-104.5
 20
157.985
 11
-104.5
 21
121.985
  0
LINE
  8
0
  6
CONTINUOUS
 10
-164.0
 20
129.985
 11
-104.5
 21
129.985
  0
LINE
  8
0
  6
CONTINUOUS
 10
-164.0
 20
149.985
 11
-104.5
 21
149.985
  0
LINE
  8
0
  6
CENTER
 10
-54.5
 20
154.985
 11
-54.5
 21
124.985
  0
LINE
  8
0
  6
CONTINUOUS
 10
-68.5
 20
129.985
 11
-62.9482787617
 21
129.985
  0
LINE
  8
0
  6
CONTINUOUS
 10
-68.5
 20
149.985
 11
-63.349109240617
 21
149.985
  0
LINE
  8
0
  6
CONTINUOUS
 10
-101.5
 20
157.985
 11
-101.5
 21
121.985
  0
LINE
  8
0
  6
CONTINUOUS
 10
-101.95
 20
157.985
 11
-101.95
 21
121.985
  0
ARC
  8
0
  6
CONTINUOUS
 10
-102.248048438871
 20
122.483048438871
 40
0.301951561128712
 50
350.777599045644
 51
150.000000000002
  0
LINE
  8
0
  6
CONTINUOUS
 10
-102.884260469323
 20
121.985
 11
-102.509546161521
 21
122.634024219436
  0
LINE
  8
0
  6
CONTINUOUS
 10
-101.95
 20
121.985
 11
-101.5
 21
121.985
  0
LINE
  8
0
  6
CONTINUOUS
 10
-104.5
 20
121.985
 11
-102.884260469323
 21
121.985
  0
LINE
  8
0
  6
CONTINUOUS
 10
-102.884260469323
 20
157.985
 11
-102.884260469323
 21
121.985
  0
LINE
  8
0
  6
CONTINUOUS
 10
-104.5
 20
157.985
 11
-102.884260469323
 21
157.985
  0
LINE
  8
0
  6
CONTINUOUS
 10
-102.884260469323
 20
157.985
 11
-102.509546161521
 21
157.335975780564
  0
LINE
  8
0
  6
CONTINUOUS
 10
-101.95
 20
157.985
 11
-101.5
 21
157.985
  0
ARC
  8
0
  6
CONTINUOUS
 10
-102.248048438871
 20
157.486951561129
 40
0.301951561128712
 50
209.999999999995
 51
9.22240095435605
  0
LINE
  8
0
  6
CONTINUOUS
 10
-164.0
 20
129.985
 11
-164.5
 21
130.485
  0
LINE
  8
0
  6
CONTINUOUS
 10
-164.5
 20
149.485
 11
-164.0
 21
149.985
  0
LINE
  8
0
  6
CONTINUOUS
 10
-45.0
 20
129.985
 11
-44.5
 21
130.485
  0
LINE
  8
0
  6
CONTINUOUS
 10
-44.5
 20
149.485
 11
-45.0
 21
149.985
  0
LINE
  8
0
  6
CONTINUOUS
 10
-164.0
 20
149.985
 11
-164.0
 21
129.985
  0
LINE
  8
0
  6
CONTINUOUS
 10
-62.9482787617
 20
129.985
 11
-58.55
 21
129.985
  0
LINE
  8
0
  6
CONTINUOUS
 10
-63.349109240617
 20
149.985
 11
-58.55
 21
149.985
  0
LINE
  8
0
  6
CONTINUOUS
 10
-58.55
 20
129.985
 11
-50.45
 21
129.985
  0
LINE
  8
0
  6
CONTINUOUS
 10
-50.45
 20
129.985
 11
-45.0
 21
129.985
  0
LINE
  8
0
  6
CONTINUOUS
 10
-58.55
 20
149.985
 11
-50.45
 21
149.985
  0
LINE
  8
0
  6
CONTINUOUS
 10
-50.45
 20
149.985
 11
-45.0
 21
149.985
  0
LINE
  8
0
  6
CONTINUOUS
 10
-44.5
 20
149.485
 11
-44.5
 21
142.985
  0
LINE
  8
0
  6
CONTINUOUS
 10
-44.5
 20
142.985
 11
-44.5
 21
136.985
  0
LINE
  8
0
  6
CONTINUOUS
 10
-44.5
 20
136.985
 11
-44.5
 21
130.485
  0
LINE
  8
0
  6
CONTINUOUS
 10
-68.5
 20
127.5
 11
-68.5
 21
126.385085296109
  0
LINE
  8
0
  6
CONTINUOUS
 10
-68.5
 20
158.985
 11
-68.5
 21
120.985
  0
LINE
  8
0
  6
CONTINUOUS
 10
-45.0
 20
149.985
 11
-45.0
 21
129.985
  0
ARC
  8
0
  6
CONTINUOUS
 10
-94.75
 20
119.235
 40
0.75
 50
180.0
 51
0.0
  0
LINE
  8
0
  6
CONTINUOUS
 10
-95.5
 20
119.235
 11
-95.5
 21
124.235
  0
LINE
  8
0
  6
CONTINUOUS
 10
-92.5
 20
119.235
 11
-92.5
 21
124.235
  0
LINE
  8
0
  6
CONTINUOUS
 10
-94.0
 20
119.235
 11
-94.0
 21
124.235
  0
LINE
  8
0
  6
CONTINUOUS
 10
-92.5
 20
119.235
 11
-92.5
 21
124.235
  0
ARC
  8
0
  6
CONTINUOUS
 10
-91.75
 20
119.235
 40
0.75
 50
180.0
 51
0.0
  0
LINE
  8
0
  6
CONTINUOUS
 10
-91.0
 20
119.235
 11
-91.0
 21
124.235
  0
LINE
  8
0
  6
CONTINUOUS
 10
-89.5
 20
119.235
 11
-89.5
 21
124.235
  0
ARC
  8
0
  6
CONTINUOUS
 10
-88.75
 20
119.235
 40
0.75
 50
180.0
 51
0.0
  0
LINE
  8
0
  6
CONTINUOUS
 10
-88.0
 20
119.235
 11
-88.0
 21
124.235
  0
LINE
  8
0
  6
CONTINUOUS
 10
-86.5
 20
119.235
 11
-86.5
 21
124.235
  0
ARC
  8
0
  6
CONTINUOUS
 10
-85.75
 20
119.235
 40
0.75
 50
180.0
 51
0.0
  0
LINE
  8
0
  6
CONTINUOUS
 10
-85.0
 20
119.235
 11
-85.0
 21
124.235
  0
LINE
  8
0
  6
CONTINUOUS
 10
-80.5
 20
119.235
 11
-80.5
 21
124.235
  0
LINE
  8
0
  6
CONTINUOUS
 10
-82.0
 20
119.235
 11
-82.0
 21
124.235
  0
LINE
  8
0
  6
CONTINUOUS
 10
-80.5
 20
119.235
 11
-80.5
 21
124.235
  0
LINE
  8
0
  6
CONTINUOUS
 10
-79.0
 20
119.235
 11
-79.0
 21
124.235
  0
LINE
  8
0
  6
CONTINUOUS
 10
-77.5
 20
119.235
 11
-77.5
 21
124.235
  0
LINE
  8
0
  6
CONTINUOUS
 10
-76.0
 20
119.235
 11
-76.0
 21
124.235
  0
LINE
  8
0
  6
CONTINUOUS
 10
-74.5
 20
119.235
 11
-74.5
 21
124.235
  0
LINE
  8
0
  6
CONTINUOUS
 10
-73.0
 20
119.235
 11
-73.0
 21
124.235
  0
ARC
  8
0
  6
CONTINUOUS
 10
-73.75
 20
119.235
 40
0.75
 50
180.0
 51
0.0
  0
ARC
  8
0
  6
CONTINUOUS
 10
-76.75
 20
119.235
 40
0.75
 50
180.0
 51
0.0
  0
ARC
  8
0
  6
CONTINUOUS
 10
-79.75
 20
119.235
 40
0.75
 50
180.0
 51
0.0
  0
ARC
  8
0
  6
CONTINUOUS
 10
-82.75
 20
119.235
 40
0.75
 50
180.0
 51
0.0
  0
LINE
  8
0
  6
CONTINUOUS
 10
-83.5
 20
119.235
 11
-83.5
 21
124.235
  0
LINE
  8
0
  6
CONTINUOUS
 10
-71.5
 20
124.985
 11
-71.5
 21
118.235
  0
LINE
  8
0
  6
CONTINUOUS
 10
-97.0
 20
124.985
 11
-97.0
 21
118.235
  0
LINE
  8
0
  6
CONTINUOUS
 10
-70.0
 20
120.985
 11
-71.5
 21
118.235
  0
LINE
  8
0
  6
CONTINUOUS
 10
-99.0
 20
121.985
 11
-97.0
 21
118.235
  0
LINE
  8
0
  6
CONTINUOUS
 10
-70.0
 20
158.985
 11
-68.5
 21
158.985
  0
LINE
  8
0
  6
CONTINUOUS
 10
-95.5
 20
160.735
 11
-95.5
 21
155.735
  0
ARC
  8
0
  6
CONTINUOUS
 10
-94.75
 20
160.735
 40
0.75
 50
0.0
 51
180.0
  0
ARC
  8
0
  6
CONTINUOUS
 10
-93.25
 20
155.735
 40
0.75
 50
180.0
 51
0.0
  0
LINE
  8
0
  6
CONTINUOUS
 10
-94.0
 20
160.735
 11
-94.0
 21
124.235
  0
LINE
  8
0
  6
CONTINUOUS
 10
-92.5
 20
160.735
 11
-92.5
 21
155.735
  0
ARC
  8
0
  6
CONTINUOUS
 10
-96.25
 20
155.735
 40
0.75
 50
180.0
 51
0.0
  0
LINE
  8
0
  6
CONTINUOUS
 10
-92.5
 20
160.735
 11
-92.5
 21
124.235
  0
ARC
  8
0
  6
CONTINUOUS
 10
-91.75
 20
160.735
 40
0.75
 50
0.0
 51
180.0
  0
LINE
  8
0
  6
CONTINUOUS
 10
-91.0
 20
160.735
 11
-91.0
 21
124.235
  0
ARC
  8
0
  6
CONTINUOUS
 10
-90.25
 20
155.735
 40
0.75
 50
180.0
 51
0.0
  0
LINE
  8
0
  6
CONTINUOUS
 10
-89.5
 20
160.735
 11
-89.5
 21
124.235
  0
ARC
  8
0
  6
CONTINUOUS
 10
-88.75
 20
160.735
 40
0.75
 50
0.0
 51
180.0
  0
LINE
  8
0
  6
CONTINUOUS
 10
-88.0
 20
160.735
 11
-88.0
 21
124.235
  0
ARC
  8
0
  6
CONTINUOUS
 10
-87.25
 20
155.735
 40
0.75
 50
180.0
 51
0.0
  0
LINE
  8
0
  6
CONTINUOUS
 10
-86.5
 20
160.735
 11
-86.5
 21
124.235
  0
ARC
  8
0
  6
CONTINUOUS
 10
-85.75
 20
160.735
 40
0.75
 50
0.0
 51
180.0
  0
LINE
  8
0
  6
CONTINUOUS
 10
-85.0
 20
160.735
 11
-85.0
 21
124.235
  0
ARC
  8
0
  6
CONTINUOUS
 10
-84.25
 20
155.735
 40
0.75
 50
180.0
 51
0.0
  0
LINE
  8
0
  6
CONTINUOUS
 10
-80.5
 20
160.735
 11
-80.5
 21
155.735
  0
LINE
  8
0
  6
CONTINUOUS
 10
-82.0
 20
160.735
 11
-82.0
 21
124.235
  0
ARC
  8
0
  6
CONTINUOUS
 10
-81.25
 20
155.735
 40
0.75
 50
180.0
 51
0.0
  0
LINE
  8
0
  6
CONTINUOUS
 10
-80.5
 20
160.735
 11
-80.5
 21
124.235
  0
LINE
  8
0
  6
CONTINUOUS
 10
-79.0
 20
160.735
 11
-79.0
 21
124.235
  0
ARC
  8
0
  6
CONTINUOUS
 10
-78.25
 20
155.735
 40
0.75
 50
180.0
 51
0.0
  0
LINE
  8
0
  6
CONTINUOUS
 10
-77.5
 20
160.735
 11
-77.5
 21
124.235
  0
LINE
  8
0
  6
CONTINUOUS
 10
-76.0
 20
160.735
 11
-76.0
 21
124.235
  0
ARC
  8
0
  6
CONTINUOUS
 10
-75.25
 20
155.735
 40
0.75
 50
180.0
 51
0.0
  0
LINE
  8
0
  6
CONTINUOUS
 10
-74.5
 20
160.735
 11
-74.5
 21
124.235
  0
LINE
  8
0
  6
CONTINUOUS
 10
-73.0
 20
160.735
 11
-73.0
 21
124.235
  0
ARC
  8
0
  6
CONTINUOUS
 10
-72.25
 20
155.735
 40
0.75
 50
180.0
 51
0.0
  0
ARC
  8
0
  6
CONTINUOUS
 10
-73.75
 20
160.735
 40
0.75
 50
0.0
 51
180.0
  0
ARC
  8
0
  6
CONTINUOUS
 10
-76.75
 20
160.735
 40
0.75
 50
0.0
 51
180.0
  0
ARC
  8
0
  6
CONTINUOUS
 10
-79.75
 20
160.735
 40
0.75
 50
0.0
 51
180.0
  0
ARC
  8
0
  6
CONTINUOUS
 10
-82.75
 20
160.735
 40
0.75
 50
0.0
 51
180.0
  0
LINE
  8
0
  6
CONTINUOUS
 10
-83.5
 20
160.735
 11
-83.5
 21
124.235
  0
LINE
  8
0
  6
CONTINUOUS
 10
-71.5
 20
161.735
 11
-71.5
 21
154.985
  0
LINE
  8
0
  6
CONTINUOUS
 10
-97.0
 20
161.735
 11
-97.0
 21
154.985
  0
LINE
  8
0
  6
CONTINUOUS
 10
-70.0
 20
158.985
 11
-71.5
 21
161.735
  0
LINE
  8
0
  6
CONTINUOUS
 10
-100.55
 20
157.985
 11
-99.0
 21
157.985
  0
LINE
  8
0
  6
CONTINUOUS
 10
-99.0
 20
157.985
 11
-97.0
 21
161.735
  0
LINE
  8
0
  6
CONTINUOUS
 10
-99.0
 20
157.985
 11
-99.0
 21
121.985
  0
LINE
  8
0
  6
CONTINUOUS
 10
-70.0
 20
158.985
 11
-70.0
 21
120.985
  0
LINE
  8
0
  6
CONTINUOUS
 10
-71.5
 20
154.985
 11
-71.5
 21
124.985
  0
LINE
  8
0
  6
CONTINUOUS
 10
-70.0
 20
120.985
 11
-68.5
 21
120.985
  0
ARC
  8
0
  6
CONTINUOUS
 10
-93.25
 20
124.235
 40
0.75
 50
0.0
 51
180.0
  0
ARC
  8
0
  6
CONTINUOUS
 10
-96.25
 20
124.235
 40
0.75
 50
0.0
 51
180.0
  0
ARC
  8
0
  6
CONTINUOUS
 10
-90.25
 20
124.235
 40
0.75
 50
0.0
 51
180.0
  0
ARC
  8
0
  6
CONTINUOUS
 10
-87.25
 20
124.235
 40
0.75
 50
0.0
 51
180.0
  0
ARC
  8
0
  6
CONTINUOUS
 10
-84.25
 20
124.235
 40
0.75
 50
0.0
 51
180.0
  0
ARC
  8
0
  6
CONTINUOUS
 10
-81.25
 20
124.235
 40
0.75
 50
0.0
 51
180.0
  0
ARC
  8
0
  6
CONTINUOUS
 10
-78.25
 20
124.235
 40
0.75
 50
0.0
 51
180.0
  0
ARC
  8
0
  6
CONTINUOUS
 10
-75.25
 20
124.235
 40
0.75
 50
0.0
 51
180.0
  0
ARC
  8
0
  6
CONTINUOUS
 10
-72.25
 20
124.235
 40
0.75
 50
0.0
 51
180.0
  0
LINE
  8
0
  6
CONTINUOUS
 10
-97.0
 20
154.985
 11
-97.0
 21
124.985
  0
LINE
  8
0
  6
CONTINUOUS
 10
-100.55
 20
121.985
 11
-99.0
 21
121.985
  0
LINE
  8
0
  6
CONTINUOUS
 10
-100.55
 20
157.985
 11
-100.55
 21
121.985
  0
LINE
  8
0
  6
CONTINUOUS
 10
-95.5
 20
124.235
 11
-95.5
 21
155.735
  0
ENDSEC
  0
EOF
