  0
SECTION
  2
HEADER
  9
$ACADVER
  1
AC1006
  9
$INSBASE
 10
0.0
 20
0.0
 30
0.0
  9
$EXTMIN
 10
-185.0
 20
-26.5
  9
$EXTMAX
 10
26.5
 20
151.47
  9
$LIMMIN
 10
-185.0
 20
-26.5
  9
$LIMMAX
 10
26.5
 20
151.47
  9
$ORTHOMODE
 70
     0
  9
$REGENMODE
 70
     1
  9
$FILLMODE
 70
     1
  9
$QTEXTMODE
 70
     0
  9
$MIRRTEXT
 70
     1
  9
$DRAGMODE
 70
     2
  9
$LTSCALE
 40
1.0
  9
$OSMODE
 70
     0
  9
$ATTMODE
 70
     1
  9
$TEXTSIZE
 40
3.0
  9
$TRACEWID
 40
0.5
  9
$TEXTSTYLE
  7
STANDARD
  9
$CLAYER
  8
0
  9
$CELTYPE
  6
BYLAYER
  9
$CECOLOR
 62
   256
  9
$DIMSCALE
 40
1.0
  9
$DIMASZ
 40
3.0
  9
$DIMEXO
 40
1.0
  9
$DIMDLI
 40
5.0
  9
$DIMRND
 40
0.0
  9
$DIMDLE
 40
5.0
  9
$DIMEXE
 40
2.0
  9
$DIMTP
 40
0.0
  9
$DIMTM
 40
0.0
  9
$DIMTXT
 40
3.0
  9
$DIMCEN
 40
2.0
  9
$DIMTSZ
 40
0.0
  9
$DIMTOL
 70
     0
  9
$DIMLIM
 70
     0
  9
$DIMTIH
 70
     0
  9
$DIMTOH
 70
     0
  9
$DIMSE1
 70
     0
  9
$DIMSE2
 70
     0
  9
$DIMTAD
 70
     1
  9
$DIMZIN
 70
     8
  9
$DIMBLK
  1

  9
$DIMASO
 70
     1
  9
$DIMSHO
 70
     0
  9
$DIMPOST
  1

  9
$DIMAPOST
  1

  9
$DIMALT
 70
     0
  9
$DIMALTD
 70
     4
  9
$DIMALTF
 40
0.0393700787401575
  9
$DIMLFAC
 40
1.0
  9
$DIMTOFL
 70
     1
  9
$DIMTVP
 40
1.0
  9
$DIMTIX
 70
     0
  9
$DIMSOXD
 70
     0
  9
$DIMSAH
 70
     0
  9
$DIMBLK1
  1

  9
$DIMBLK2
  1

  9
$LUNITS
 70
     2
  9
$LUPREC
 70
     4
  9
$AXISMODE
 70
     0
  9
$AXISUNIT
 10
0.0
 20
0.0
  9
$SKETCHINC
 40
1.0
  9
$FILLETRAD
 40
0.0
  9
$AUNITS
 70
     0
  9
$AUPREC
 70
     0
  9
$MENU
  1
acad
  9
$ELEVATION
 40
0.0
  9
$THICKNESS
 40
0.0
  9
$LIMCHECK
 70
     0
  9
$BLIPMODE
 70
     1
  9
$CHAMFERA
 40
0.0
  9
$CHAMFERB
 40
0.0
  9
$SKPOLY
 70
     0
  9
$TDCREATE
 40
2457344.64021991
  9
$TDUPDATE
 40
2457344.64021991
  9
$TDINDWG
 40
0.0
  9
$TDUSRTIMER
 40
0.0
  9
$USRTIMER
 70
     1
  9
$ANGBASE
 50
0.0
  9
$ANGDIR
 70
     0
  9
$PDMODE
 70
     0
  9
$PDSIZE
 40
0.0
  9
$PLINEWID
 40
0.0
  9
$COORDS
 70
     0
  9
$SPLFRAME
 70
     0
  9
$SPLINETYPE
 70
     6
  9
$SPLINESEGS
 70
     8
  9
$ATTDIA
 70
     0
  9
$ATTREQ
 70
     1
  9
$HANDLING
 70
     0
  9
$HANDSEED
  5
0
  9
$SURFTAB1
 70
     6
  9
$SURFTAB2
 70
     6
  9
$SURFTYPE
 70
     6
  9
$SURFU
 70
     6
  9
$SURFV
 70
     6
  9
$FLATLAND
 70
     0
  9
$UCSNAME
  2

  9
$UCSORG
 10
0.0
 20
0.0
 30
0.0
  9
$UCSXDIR
 10
1.0
 20
0.0
 30
0.0
  9
$UCSYDIR
 10
0.0
 20
1.0
 30
0.0
  9
$USERI1
 70
     0
  9
$USERI2
 70
     0
  9
$USERI3
 70
     0
  9
$USERI4
 70
     0
  9
$USERI5
 70
     0
  9
$USERR1
 40
0.0
  9
$USERR2
 40
0.0
  9
$USERR3
 40
0.0
  9
$USERR4
 40
0.0
  9
$USERR5
 40
0.0
  9
$WORLDVIEW
 70
     1
  0
ENDSEC
  0
SECTION
  2
TABLES
  0
TABLE
  2
VPORT
 70
     1
  0
VPORT
  2
*ACTIVE
 70
     0
 10
0.0
 20
0.0
 11
1.0
 21
1.0
 12
-79.25
 22
62.485
 13
0.0
 23
0.0
 14
0.0
 24
0.0
 15
0.0
 25
0.0
 16
0.0
 26
0.0
 36
1.0
 17
0.0
 27
0.0
 37
0.0
 40
177.97
 41
1.5
 42
50.0
 43
0.0
 44
0.0
 50
0.0
 51
0.0
 71
     0
 72
   100
 73
     1
 74
     1
 75
     0
 76
     0
 77
     0
 78
     0
  0
ENDTAB
  0
TABLE
  2
LTYPE
 70
    20
  0
LTYPE
  2
CONTINUOUS
 70
    64
  3
solid line
 72
    65
 73
     0
 40
0.0
  0
LTYPE
  2
CENTER
 70
    64
  3
--- - --- - --- - --- - --- -
 72
    65
 73
     4
 40
6.0
 49
3.0
 49
-1.0
 49
1.0
 49
-1.0
  0
ENDTAB
  0
TABLE
  2
LAYER
 70
    20
  0
LAYER
  2
0
 70
    64
 62
     0
  6
CONTINUOUS
  0
ENDTAB
  0
TABLE
  2
STYLE
 70
     4
  0
STYLE
  2
STANDARD
 70
    64
 40
0.0
 41
1.0
 50
0.0
 71
     0
 42
3.0
  3
txt
  4

  0
ENDTAB
  0
TABLE
  2
VIEW
 70
     0
  0
ENDTAB
  0
TABLE
  2
UCS
 70
     0
  0
ENDTAB
  0
TABLE
  2
DWGMGR
 70
     0
  0
ENDTAB
  0
ENDSEC
  0
SECTION
  2
BLOCKS
  0
ENDSEC
  0
SECTION
  2
ENTITIES
  0
LINE
  8
0
  6
CONTINUOUS
 10
-105.0
 20
-17.0
 11
-105.0
 21
17.0
  0
LINE
  8
0
  6
CONTINUOUS
 10
-164.5
 20
10.0
 11
-105.0
 21
10.0
  0
LINE
  8
0
  6
CONTINUOUS
 10
-164.5
 20
-10.0
 11
-105.0
 21
-10.0
  0
LINE
  8
0
  6
CONTINUOUS
 10
-145.0
 20
-10.0
 11
-145.0
 21
10.0
  0
LINE
  8
0
  6
CONTINUOUS
 10
-69.0
 20
10.0
 11
-63.4482787616995
 21
10.0
  0
LINE
  8
0
  6
CONTINUOUS
 10
-69.0
 20
-10.0
 11
-63.8491092406173
 21
-10.0
  0
LINE
  8
0
  6
CONTINUOUS
 10
-102.0
 20
-17.0
 11
-102.0
 21
17.0
  0
LINE
  8
0
  6
CONTINUOUS
 10
-102.45
 20
-17.0
 11
-102.45
 21
17.0
  0
ARC
  8
0
  6
CONTINUOUS
 10
-102.748048438871
 20
16.5019515611287
 40
0.301951561128712
 50
209.999999999974
 51
9.22240095436732
  0
LINE
  8
0
  6
CONTINUOUS
 10
-103.384260469323
 20
17.0
 11
-103.009546161521
 21
16.3509757805642
  0
LINE
  8
0
  6
CONTINUOUS
 10
-102.45
 20
17.0
 11
-102.0
 21
17.0
  0
LINE
  8
0
  6
CONTINUOUS
 10
-105.0
 20
17.0
 11
-103.384260469323
 21
17.0
  0
LINE
  8
0
  6
CONTINUOUS
 10
-103.384260469323
 20
-17.0
 11
-103.384260469323
 21
17.0
  0
LINE
  8
0
  6
CONTINUOUS
 10
-105.0
 20
-17.0
 11
-103.384260469323
 21
-17.0
  0
LINE
  8
0
  6
CONTINUOUS
 10
-103.384260469323
 20
-17.0
 11
-103.009546161521
 21
-16.3509757805642
  0
LINE
  8
0
  6
CONTINUOUS
 10
-102.45
 20
-17.0
 11
-102.0
 21
-17.0
  0
ARC
  8
0
  6
CONTINUOUS
 10
-102.748048438871
 20
-16.5019515611287
 40
0.301951561128712
 50
350.777599045633
 51
150.000000000026
  0
LINE
  8
0
  6
CONTINUOUS
 10
-164.5
 20
10.0
 11
-165.0
 21
9.5
  0
LINE
  8
0
  6
CONTINUOUS
 10
-165.0
 20
-9.5
 11
-164.5
 21
-10.0
  0
LINE
  8
0
  6
CONTINUOUS
 10
-45.5
 20
10.0
 11
-45.0
 21
9.5
  0
LINE
  8
0
  6
CONTINUOUS
 10
-45.0
 20
-9.5
 11
-45.5
 21
-10.0
  0
LINE
  8
0
  6
CONTINUOUS
 10
-164.5
 20
-10.0
 11
-164.5
 21
10.0
  0
LINE
  8
0
  6
CONTINUOUS
 10
-63.4482787616995
 20
10.0
 11
-59.05
 21
10.0
  0
LINE
  8
0
  6
CONTINUOUS
 10
-63.8491092406173
 20
-10.0
 11
-59.05
 21
-10.0
  0
LINE
  8
0
  6
CONTINUOUS
 10
-59.05
 20
10.0
 11
-50.95
 21
10.0
  0
LINE
  8
0
  6
CONTINUOUS
 10
-50.95
 20
10.0
 11
-45.5
 21
10.0
  0
LINE
  8
0
  6
CONTINUOUS
 10
-59.05
 20
-10.0
 11
-50.95
 21
-10.0
  0
LINE
  8
0
  6
CONTINUOUS
 10
-50.95
 20
-10.0
 11
-45.5
 21
-10.0
  0
LINE
  8
0
  6
CONTINUOUS
 10
-45.0
 20
-9.5
 11
-45.0
 21
-3.0
  0
LINE
  8
0
  6
CONTINUOUS
 10
-45.0
 20
-3.0
 11
-45.0
 21
3.0
  0
LINE
  8
0
  6
CONTINUOUS
 10
-45.0
 20
3.0
 11
-45.0
 21
9.5
  0
LINE
  8
0
  6
CONTINUOUS
 10
-69.0
 20
-19.0
 11
-69.0
 21
12.485
  0
LINE
  8
0
  6
CONTINUOUS
 10
-69.0
 20
12.485
 11
-69.0
 21
13.5999147038911
  0
LINE
  8
0
  6
CONTINUOUS
 10
-69.0
 20
13.5999147038911
 11
-69.0
 21
19.0
  0
LINE
  8
0
  6
CONTINUOUS
 10
-69.0
 20
14.535
 11
-69.0
 21
14.985
  0
LINE
  8
0
  6
CONTINUOUS
 10
-45.5
 20
-10.0
 11
-45.5
 21
10.0
  0
CIRCLE
  8
0
  6
CONTINUOUS
 10
0.0
 20
0.0
 40
13.0
  0
LINE
  8
0
  6
CONTINUOUS
 10
-8.30662386291806
 20
10.0
 11
8.30662386291806
 21
10.0
  0
LINE
  8
0
  6
CONTINUOUS
 10
-8.30662386291806
 20
-10.0
 11
8.30662386291806
 21
-10.0
  0
CIRCLE
  8
0
  6
CONTINUOUS
 10
0.0
 20
0.0
 40
4.0
  0
CIRCLE
  8
0
  6
CONTINUOUS
 10
0.0
 20
0.0
 40
3.0
  0
LINE
  8
0
  6
CENTER
 10
-55.0
 20
54.985
 11
-55.0
 21
84.985
  0
LINE
  8
0
  6
CONTINUOUS
 10
-102.0
 20
69.985
 11
-102.0
 21
86.985
  0
LINE
  8
0
  6
CONTINUOUS
 10
-102.45
 20
69.985
 11
-102.45
 21
86.985
  0
ARC
  8
0
  6
CONTINUOUS
 10
-102.748048438871
 20
86.4869515611287
 40
0.301951561128712
 50
209.999999999992
 51
9.22240095436599
  0
LINE
  8
0
  6
CONTINUOUS
 10
-103.384260469323
 20
86.985
 11
-103.009546161521
 21
86.3359757805642
  0
LINE
  8
0
  6
CONTINUOUS
 10
-102.45
 20
86.985
 11
-102.0
 21
86.985
  0
LINE
  8
0
  6
CONTINUOUS
 10
-164.5
 20
86.985
 11
-103.384260469323
 21
86.985
  0
LINE
  8
0
  6
CONTINUOUS
 10
-103.384260469323
 20
69.985
 11
-103.384260469323
 21
86.985
  0
LINE
  8
0
  6
CONTINUOUS
 10
-45.0
 20
57.485
 11
-45.0
 21
82.485
  0
LINE
  8
0
  6
CONTINUOUS
 10
-45.0
 20
66.985
 11
-45.0
 21
72.985
  0
LINE
  8
0
  6
CONTINUOUS
 10
-45.0
 20
72.985
 11
-45.0
 21
79.485
  0
LINE
  8
0
  6
CONTINUOUS
 10
-69.0
 20
82.47
 11
-69.0
 21
83.5849147038911
  0
LINE
  8
0
  6
CONTINUOUS
 10
-164.5
 20
86.985
 11
-165.0
 21
86.485
  0
LINE
  8
0
  6
CONTINUOUS
 10
-165.0
 20
83.7327270848675
 11
-105.0
 21
83.7327270848675
  0
LINE
  8
0
  6
CONTINUOUS
 10
-164.5
 20
83.7327270848675
 11
-164.5
 21
86.985
  0
LINE
  8
0
  6
CONTINUOUS
 10
-105.0
 20
69.985
 11
-105.0
 21
83.7327270848675
  0
LINE
  8
0
  6
CONTINUOUS
 10
-145.0
 20
52.985
 11
-145.0
 21
56.2372729151325
  0
LINE
  8
0
  6
CONTINUOUS
 10
-69.0
 20
82.985
 11
-45.5
 21
82.985
  0
LINE
  8
0
  6
CONTINUOUS
 10
-69.0
 20
56.985
 11
-45.5
 21
56.985
  0
LINE
  8
0
  6
CONTINUOUS
 10
-45.0
 20
82.485
 11
-45.5
 21
82.985
  0
LINE
  8
0
  6
CONTINUOUS
 10
-45.0
 20
57.485
 11
-45.5
 21
56.985
  0
LINE
  8
0
  6
CONTINUOUS
 10
-69.0
 20
78.2916238629181
 11
-45.0
 21
78.2916238629181
  0
LINE
  8
0
  6
CONTINUOUS
 10
-69.0
 20
61.6783761370819
 11
-45.0
 21
61.6783761370819
  0
LINE
  8
0
  6
CONTINUOUS
 10
-45.5
 20
78.2916238629181
 11
-45.5
 21
82.985
  0
LINE
  8
0
  6
CONTINUOUS
 10
-45.5
 20
56.985
 11
-45.5
 21
61.6783761370819
  0
CIRCLE
  8
0
  6
CONTINUOUS
 10
-55.0
 20
69.985
 40
4.05
  0
LINE
  8
0
  6
CENTER
 10
-120.0
 20
78.285
 11
-120.0
 21
61.685
  0
LINE
  8
0
  6
CENTER
 10
-138.0
 20
78.285
 11
-138.0
 21
61.685
  0
LINE
  8
0
  6
CONTINUOUS
 10
-165.0
 20
52.485
 11
-165.0
 21
86.485
  0
LINE
  8
0
  6
CONTINUOUS
 10
-165.0
 20
69.985
 11
-165.0
 21
86.485
  0
ARC
  8
0
  6
CONTINUOUS
 10
-138.0
 20
69.985
 40
3.3
 50
0.0
 51
180.0
  0
ARC
  8
0
  6
CONTINUOUS
 10
-138.0
 20
69.985
 40
3.3
 50
180.0
 51
0.0
  0
ARC
  8
0
  6
CONTINUOUS
 10
-120.0
 20
69.985
 40
3.3
 50
0.0
 51
180.0
  0
ARC
  8
0
  6
CONTINUOUS
 10
-120.0
 20
69.985
 40
3.29999999999998
 50
180.0
 51
0.0
  0
LINE
  8
0
  6
CENTER
 10
-168.770513892174
 20
69.985
 11
-38.7705138921738
 21
69.985
  0
LINE
  8
0
  6
CONTINUOUS
 10
-145.0
 20
56.2372729151325
 11
-141.5
 21
56.2372729151325
  0
LINE
  8
0
  6
CONTINUOUS
 10
-141.5
 20
56.2372729151325
 11
-108.5
 21
56.2372729151325
  0
LINE
  8
0
  6
CONTINUOUS
 10
-108.5
 20
56.2372729151325
 11
-105.0
 21
56.2372729151325
  0
LINE
  8
0
  6
CONTINUOUS
 10
-101.55
 20
-17.0
 11
-101.55
 21
0.0
  0
LINE
  8
0
  6
CONTINUOUS
 10
-97.0
 20
-21.5
 11
-97.0
 21
0.0
  0
LINE
  8
0
  6
CONTINUOUS
 10
-100.55
 20
-17.0
 11
-100.55
 21
0.0
  0
ARC
  8
0
  6
CONTINUOUS
 10
-101.05
 20
-16.7
 40
0.5
 50
0.0
 51
180.0
  0
LINE
  8
0
  6
CONTINUOUS
 10
-100.55
 20
-17.0
 11
-99.5980762113533
 21
-17.0
  0
LINE
  8
0
  6
CONTINUOUS
 10
-102.0
 20
-17.0
 11
-101.55
 21
-17.0
  0
LINE
  8
0
  6
CONTINUOUS
 10
-99.5980762113533
 20
-17.0
 11
-97.0
 21
-21.5
  0
LINE
  8
0
  6
CONTINUOUS
 10
-101.55
 20
17.0
 11
-101.55
 21
16.7
  0
ARC
  8
0
  6
CONTINUOUS
 10
-101.05
 20
16.7
 40
0.5
 50
180.0
 51
0.0
  0
LINE
  8
0
  6
CONTINUOUS
 10
-100.55
 20
17.0
 11
-100.55
 21
16.7
  0
LINE
  8
0
  6
CONTINUOUS
 10
-102.0
 20
17.0
 11
-101.55
 21
17.0
  0
LINE
  8
0
  6
CONTINUOUS
 10
-100.55
 20
17.0
 11
-99.5980762113533
 21
17.0
  0
LINE
  8
0
  6
CONTINUOUS
 10
-99.5980762113533
 20
17.0
 11
-97.0
 21
21.5
  0
LINE
  8
0
  6
CONTINUOUS
 10
-99.5980762113533
 20
-17.0
 11
-99.5980762113533
 21
0.0
  0
LINE
  8
0
  6
CONTINUOUS
 10
-100.55
 20
17.0
 11
-100.55
 21
0.0
  0
LINE
  8
0
  6
CONTINUOUS
 10
-99.5980762113533
 20
17.0
 11
-99.5980762113533
 21
0.0
  0
LINE
  8
0
  6
CONTINUOUS
 10
-101.55
 20
17.0
 11
-101.55
 21
0.0
  0
LINE
  8
0
  6
CONTINUOUS
 10
-97.0
 20
21.5
 11
-97.0
 21
0.0
  0
LINE
  8
0
  6
CONTINUOUS
 10
-70.5566243270259
 20
-19.0
 11
-69.0
 21
-19.0
  0
LINE
  8
0
  6
CONTINUOUS
 10
-72.0
 20
-21.5
 11
-72.0
 21
0.0
  0
LINE
  8
0
  6
CONTINUOUS
 10
-72.0
 20
-21.5
 11
-70.5566243270259
 21
-19.0
  0
LINE
  8
0
  6
CONTINUOUS
 10
-72.0
 20
21.5
 11
-70.5566243270259
 21
19.0
  0
LINE
  8
0
  6
CONTINUOUS
 10
-70.5566243270259
 20
19.0
 11
-69.0
 21
19.0
  0
LINE
  8
0
  6
CONTINUOUS
 10
-72.0
 20
21.5
 11
-72.0
 21
0.0
  0
LINE
  8
0
  6
CONTINUOUS
 10
-95.5294117647059
 20
0.0
 11
-95.5294117647059
 21
20.7647058823529
  0
LINE
  8
0
  6
CONTINUOUS
 10
-94.0588235294118
 20
0.0
 11
-94.0588235294118
 21
20.7647058823529
  0
ARC
  8
0
  6
CONTINUOUS
 10
-96.2647058823529
 20
15.7352941176471
 40
0.735294117647058
 50
180.0
 51
0.0
  0
ARC
  8
0
  6
CONTINUOUS
 10
-94.7941176470588
 20
20.7647058823529
 40
0.735294117647058
 50
0.0
 51
180.0
  0
ARC
  8
0
  6
CONTINUOUS
 10
-93.3235294117647
 20
15.7352941176471
 40
0.735294117647058
 50
180.0
 51
0.0
  0
ARC
  8
0
  6
CONTINUOUS
 10
-91.8529411764706
 20
20.7647058823529
 40
0.735294117647058
 50
0.0
 51
180.0
  0
LINE
  8
0
  6
CONTINUOUS
 10
-91.1176470588235
 20
0.0
 11
-91.1176470588235
 21
20.7647058823529
  0
LINE
  8
0
  6
CONTINUOUS
 10
-92.5882352941176
 20
0.0
 11
-92.5882352941176
 21
20.7647058823529
  0
ARC
  8
0
  6
CONTINUOUS
 10
-90.3823529411765
 20
15.7352941176471
 40
0.735294117647058
 50
180.0
 51
0.0
  0
ARC
  8
0
  6
CONTINUOUS
 10
-88.9117647058823
 20
20.7647058823529
 40
0.735294117647058
 50
0.0
 51
180.0
  0
LINE
  8
0
  6
CONTINUOUS
 10
-88.1764705882353
 20
0.0
 11
-88.1764705882353
 21
20.7647058823529
  0
LINE
  8
0
  6
CONTINUOUS
 10
-89.6470588235294
 20
0.0
 11
-89.6470588235294
 21
20.7647058823529
  0
ARC
  8
0
  6
CONTINUOUS
 10
-87.4411764705882
 20
15.7352941176471
 40
0.735294117647058
 50
180.0
 51
0.0
  0
ARC
  8
0
  6
CONTINUOUS
 10
-85.9705882352941
 20
20.7647058823529
 40
0.735294117647058
 50
0.0
 51
180.0
  0
LINE
  8
0
  6
CONTINUOUS
 10
-85.235294117647
 20
0.0
 11
-85.235294117647
 21
20.7647058823529
  0
LINE
  8
0
  6
CONTINUOUS
 10
-86.7058823529411
 20
0.0
 11
-86.7058823529411
 21
20.7647058823529
  0
ARC
  8
0
  6
CONTINUOUS
 10
-84.5
 20
15.7352941176471
 40
0.735294117647058
 50
180.0
 51
0.0
  0
ARC
  8
0
  6
CONTINUOUS
 10
-83.0294117647058
 20
20.7647058823529
 40
0.735294117647058
 50
0.0
 51
180.0
  0
LINE
  8
0
  6
CONTINUOUS
 10
-82.2941176470588
 20
0.0
 11
-82.2941176470588
 21
20.7647058823529
  0
LINE
  8
0
  6
CONTINUOUS
 10
-83.7647058823529
 20
0.0
 11
-83.7647058823529
 21
20.7647058823529
  0
ARC
  8
0
  6
CONTINUOUS
 10
-81.5588235294117
 20
15.7352941176471
 40
0.735294117647058
 50
180.0
 51
0.0
  0
ARC
  8
0
  6
CONTINUOUS
 10
-80.0882352941176
 20
20.7647058823529
 40
0.735294117647058
 50
0.0
 51
180.0
  0
LINE
  8
0
  6
CONTINUOUS
 10
-79.3529411764705
 20
0.0
 11
-79.3529411764705
 21
20.7647058823529
  0
LINE
  8
0
  6
CONTINUOUS
 10
-80.8235294117647
 20
0.0
 11
-80.8235294117647
 21
20.7647058823529
  0
ARC
  8
0
  6
CONTINUOUS
 10
-78.6176470588235
 20
15.7352941176471
 40
0.735294117647058
 50
180.0
 51
0.0
  0
ARC
  8
0
  6
CONTINUOUS
 10
-77.1470588235293
 20
20.7647058823529
 40
0.735294117647058
 50
0.0
 51
180.0
  0
LINE
  8
0
  6
CONTINUOUS
 10
-76.4117647058823
 20
0.0
 11
-76.4117647058823
 21
20.7647058823529
  0
LINE
  8
0
  6
CONTINUOUS
 10
-77.8823529411764
 20
0.0
 11
-77.8823529411764
 21
20.7647058823529
  0
ARC
  8
0
  6
CONTINUOUS
 10
-75.6764705882352
 20
15.7352941176471
 40
0.735294117647058
 50
180.0
 51
0.0
  0
ARC
  8
0
  6
CONTINUOUS
 10
-74.2058823529411
 20
20.7647058823529
 40
0.735294117647058
 50
0.0
 51
180.0
  0
LINE
  8
0
  6
CONTINUOUS
 10
-73.4705882352941
 20
0.0
 11
-73.4705882352941
 21
20.7647058823529
  0
LINE
  8
0
  6
CONTINUOUS
 10
-74.9411764705882
 20
0.0
 11
-74.9411764705882
 21
20.7647058823529
  0
ARC
  8
0
  6
CONTINUOUS
 10
-72.735294117647
 20
15.7352941176471
 40
0.735294117647058
 50
180.0
 51
0.0
  0
ARC
  8
0
  6
CONTINUOUS
 10
-96.2647058823529
 20
-15.7352941176471
 40
0.735294117647058
 50
0.0
 51
180.0
  0
ARC
  8
0
  6
CONTINUOUS
 10
-94.7941176470588
 20
-20.7647058823529
 40
0.735294117647058
 50
180.0
 51
0.0
  0
LINE
  8
0
  6
CONTINUOUS
 10
-95.5294117647059
 20
0.0
 11
-95.5294117647059
 21
-20.7647058823529
  0
ARC
  8
0
  6
CONTINUOUS
 10
-93.3235294117647
 20
-15.7352941176471
 40
0.735294117647058
 50
0.0
 51
180.0
  0
ARC
  8
0
  6
CONTINUOUS
 10
-91.8529411764706
 20
-20.7647058823529
 40
0.735294117647058
 50
180.0
 51
0.0
  0
LINE
  8
0
  6
CONTINUOUS
 10
-92.5882352941176
 20
0.0
 11
-92.5882352941176
 21
-20.7647058823529
  0
ARC
  8
0
  6
CONTINUOUS
 10
-90.3823529411765
 20
-15.7352941176471
 40
0.735294117647058
 50
0.0
 51
180.0
  0
ARC
  8
0
  6
CONTINUOUS
 10
-88.9117647058823
 20
-20.7647058823529
 40
0.735294117647058
 50
180.0
 51
0.0
  0
LINE
  8
0
  6
CONTINUOUS
 10
-89.6470588235294
 20
0.0
 11
-89.6470588235294
 21
-20.7647058823529
  0
ARC
  8
0
  6
CONTINUOUS
 10
-87.4411764705882
 20
-15.7352941176471
 40
0.735294117647058
 50
0.0
 51
180.0
  0
ARC
  8
0
  6
CONTINUOUS
 10
-85.9705882352941
 20
-20.7647058823529
 40
0.735294117647058
 50
180.0
 51
0.0
  0
LINE
  8
0
  6
CONTINUOUS
 10
-86.7058823529411
 20
0.0
 11
-86.7058823529411
 21
-20.7647058823529
  0
ARC
  8
0
  6
CONTINUOUS
 10
-84.5
 20
-15.7352941176471
 40
0.735294117647058
 50
0.0
 51
180.0
  0
ARC
  8
0
  6
CONTINUOUS
 10
-83.0294117647058
 20
-20.7647058823529
 40
0.735294117647058
 50
180.0
 51
0.0
  0
LINE
  8
0
  6
CONTINUOUS
 10
-83.7647058823529
 20
0.0
 11
-83.7647058823529
 21
-20.7647058823529
  0
ARC
  8
0
  6
CONTINUOUS
 10
-81.5588235294117
 20
-15.7352941176471
 40
0.735294117647058
 50
0.0
 51
180.0
  0
ARC
  8
0
  6
CONTINUOUS
 10
-80.0882352941176
 20
-20.7647058823529
 40
0.735294117647058
 50
180.0
 51
0.0
  0
LINE
  8
0
  6
CONTINUOUS
 10
-80.8235294117647
 20
0.0
 11
-80.8235294117647
 21
-20.7647058823529
  0
ARC
  8
0
  6
CONTINUOUS
 10
-78.6176470588235
 20
-15.7352941176471
 40
0.735294117647058
 50
0.0
 51
180.0
  0
ARC
  8
0
  6
CONTINUOUS
 10
-77.1470588235293
 20
-20.7647058823529
 40
0.735294117647058
 50
180.0
 51
0.0
  0
LINE
  8
0
  6
CONTINUOUS
 10
-77.8823529411764
 20
0.0
 11
-77.8823529411764
 21
-20.7647058823529
  0
ARC
  8
0
  6
CONTINUOUS
 10
-75.6764705882352
 20
-15.7352941176471
 40
0.735294117647058
 50
0.0
 51
180.0
  0
ARC
  8
0
  6
CONTINUOUS
 10
-74.2058823529411
 20
-20.7647058823529
 40
0.735294117647058
 50
180.0
 51
0.0
  0
LINE
  8
0
  6
CONTINUOUS
 10
-74.9411764705882
 20
0.0
 11
-74.9411764705882
 21
-20.7647058823529
  0
ARC
  8
0
  6
CONTINUOUS
 10
-72.735294117647
 20
-15.7352941176471
 40
0.735294117647058
 50
0.0
 51
180.0
  0
LINE
  8
0
  6
CONTINUOUS
 10
-73.4705882352941
 20
0.0
 11
-73.4705882352941
 21
-20.7647058823529
  0
LINE
  8
0
  6
CONTINUOUS
 10
-76.4117647058823
 20
0.0
 11
-76.4117647058823
 21
-20.7647058823529
  0
LINE
  8
0
  6
CONTINUOUS
 10
-79.3529411764705
 20
0.0
 11
-79.3529411764705
 21
-20.7647058823529
  0
LINE
  8
0
  6
CONTINUOUS
 10
-82.2941176470588
 20
0.0
 11
-82.2941176470588
 21
-20.7647058823529
  0
LINE
  8
0
  6
CONTINUOUS
 10
-85.235294117647
 20
0.0
 11
-85.235294117647
 21
-20.7647058823529
  0
LINE
  8
0
  6
CONTINUOUS
 10
-88.1764705882353
 20
0.0
 11
-88.1764705882353
 21
-20.7647058823529
  0
LINE
  8
0
  6
CONTINUOUS
 10
-91.1176470588235
 20
0.0
 11
-91.1176470588235
 21
-20.7647058823529
  0
LINE
  8
0
  6
CONTINUOUS
 10
-94.0588235294118
 20
0.0
 11
-94.0588235294118
 21
-20.7647058823529
  0
LINE
  8
0
  6
CONTINUOUS
 10
-102.0
 20
69.985
 11
-102.0
 21
52.985
  0
LINE
  8
0
  6
CONTINUOUS
 10
-102.45
 20
69.985
 11
-102.45
 21
52.985
  0
ARC
  8
0
  6
CONTINUOUS
 10
-102.748048438871
 20
53.4830484388713
 40
0.301951561128712
 50
350.777599045633
 51
150.000000000009
  0
LINE
  8
0
  6
CONTINUOUS
 10
-103.384260469323
 20
52.985
 11
-103.009546161521
 21
53.6340242194358
  0
LINE
  8
0
  6
CONTINUOUS
 10
-102.45
 20
52.985
 11
-102.0
 21
52.985
  0
LINE
  8
0
  6
CONTINUOUS
 10
-105.0
 20
52.985
 11
-103.384260469323
 21
52.985
  0
LINE
  8
0
  6
CONTINUOUS
 10
-103.384260469323
 20
69.985
 11
-103.384260469323
 21
52.985
  0
LINE
  8
0
  6
CONTINUOUS
 10
-164.5
 20
52.985
 11
-165.0
 21
53.485
  0
LINE
  8
0
  6
CONTINUOUS
 10
-165.0
 20
56.2372729151325
 11
-105.0
 21
56.2372729151325
  0
LINE
  8
0
  6
CONTINUOUS
 10
-164.5
 20
56.2372729151325
 11
-164.5
 21
52.985
  0
LINE
  8
0
  6
CONTINUOUS
 10
-105.0
 20
69.985
 11
-105.0
 21
52.985
  0
LINE
  8
0
  6
CONTINUOUS
 10
-69.0
 20
51.0
 11
-69.0
 21
89.0
  0
ARC
  8
0
  6
CONTINUOUS
 10
-101.05
 20
53.3
 40
0.5
 50
0.0
 51
180.0
  0
LINE
  8
0
  6
CONTINUOUS
 10
-102.0
 20
53.0
 11
-101.55
 21
53.0
  0
LINE
  8
0
  6
CONTINUOUS
 10
-100.55
 20
53.0
 11
-99.5980762113533
 21
53.0
  0
LINE
  8
0
  6
CONTINUOUS
 10
-99.5980762113533
 20
53.0
 11
-97.0
 21
48.5
  0
LINE
  8
0
  6
CONTINUOUS
 10
-101.55
 20
87.0
 11
-101.55
 21
86.7
  0
ARC
  8
0
  6
CONTINUOUS
 10
-101.05
 20
86.7
 40
0.5
 50
180.0
 51
0.0
  0
LINE
  8
0
  6
CONTINUOUS
 10
-100.55
 20
87.0
 11
-100.55
 21
86.7
  0
LINE
  8
0
  6
CONTINUOUS
 10
-102.0
 20
87.0
 11
-101.55
 21
87.0
  0
LINE
  8
0
  6
CONTINUOUS
 10
-100.55
 20
87.0
 11
-99.5980762113533
 21
87.0
  0
LINE
  8
0
  6
CONTINUOUS
 10
-99.5980762113533
 20
87.0
 11
-97.0
 21
91.5
  0
LINE
  8
0
  6
CONTINUOUS
 10
-101.55
 20
53.0
 11
-101.55
 21
70.0
  0
LINE
  8
0
  6
CONTINUOUS
 10
-100.55
 20
53.0
 11
-100.55
 21
70.0
  0
LINE
  8
0
  6
CONTINUOUS
 10
-99.5980762113533
 20
53.0
 11
-99.5980762113533
 21
70.0
  0
LINE
  8
0
  6
CONTINUOUS
 10
-100.55
 20
87.0
 11
-100.55
 21
70.0
  0
LINE
  8
0
  6
CONTINUOUS
 10
-99.5980762113533
 20
87.0
 11
-99.5980762113533
 21
70.0
  0
LINE
  8
0
  6
CONTINUOUS
 10
-101.55
 20
87.0
 11
-101.55
 21
70.0
  0
LINE
  8
0
  6
CONTINUOUS
 10
-97.0
 20
48.5
 11
-97.0
 21
70.0
  0
LINE
  8
0
  6
CONTINUOUS
 10
-72.0
 20
48.5
 11
-70.5566243270259
 21
51.0
  0
LINE
  8
0
  6
CONTINUOUS
 10
-70.5566243270259
 20
51.0
 11
-69.0
 21
51.0
  0
LINE
  8
0
  6
CONTINUOUS
 10
-72.0
 20
48.5
 11
-72.0
 21
70.0
  0
LINE
  8
0
  6
CONTINUOUS
 10
-72.0
 20
91.5
 11
-70.5566243270259
 21
89.0
  0
LINE
  8
0
  6
CONTINUOUS
 10
-72.0
 20
91.5
 11
-72.0
 21
70.0
  0
LINE
  8
0
  6
CONTINUOUS
 10
-70.5566243270259
 20
89.0
 11
-69.0
 21
89.0
  0
ARC
  8
0
  6
CONTINUOUS
 10
-96.2647058823529
 20
85.7352941176471
 40
0.735294117647058
 50
180.0
 51
0.0
  0
ARC
  8
0
  6
CONTINUOUS
 10
-94.7941176470588
 20
90.7647058823529
 40
0.735294117647058
 50
0.0
 51
180.0
  0
LINE
  8
0
  6
CONTINUOUS
 10
-95.5294117647059
 20
70.0
 11
-95.5294117647059
 21
90.7647058823529
  0
LINE
  8
0
  6
CONTINUOUS
 10
-97.0
 20
91.5
 11
-97.0
 21
70.0
  0
ARC
  8
0
  6
CONTINUOUS
 10
-93.3235294117647
 20
85.7352941176471
 40
0.735294117647058
 50
180.0
 51
0.0
  0
ARC
  8
0
  6
CONTINUOUS
 10
-91.8529411764706
 20
90.7647058823529
 40
0.735294117647058
 50
0.0
 51
180.0
  0
LINE
  8
0
  6
CONTINUOUS
 10
-92.5882352941176
 20
70.0
 11
-92.5882352941176
 21
90.7647058823529
  0
ARC
  8
0
  6
CONTINUOUS
 10
-90.3823529411765
 20
85.7352941176471
 40
0.735294117647058
 50
180.0
 51
0.0
  0
ARC
  8
0
  6
CONTINUOUS
 10
-88.9117647058823
 20
90.7647058823529
 40
0.735294117647058
 50
0.0
 51
180.0
  0
LINE
  8
0
  6
CONTINUOUS
 10
-89.6470588235294
 20
70.0
 11
-89.6470588235294
 21
90.7647058823529
  0
ARC
  8
0
  6
CONTINUOUS
 10
-87.4411764705882
 20
85.7352941176471
 40
0.735294117647058
 50
180.0
 51
0.0
  0
ARC
  8
0
  6
CONTINUOUS
 10
-85.9705882352941
 20
90.7647058823529
 40
0.735294117647058
 50
0.0
 51
180.0
  0
LINE
  8
0
  6
CONTINUOUS
 10
-86.7058823529411
 20
70.0
 11
-86.7058823529411
 21
90.7647058823529
  0
ARC
  8
0
  6
CONTINUOUS
 10
-84.5
 20
85.7352941176471
 40
0.735294117647058
 50
180.0
 51
0.0
  0
ARC
  8
0
  6
CONTINUOUS
 10
-83.0294117647058
 20
90.7647058823529
 40
0.735294117647058
 50
0.0
 51
180.0
  0
LINE
  8
0
  6
CONTINUOUS
 10
-83.7647058823529
 20
70.0
 11
-83.7647058823529
 21
90.7647058823529
  0
ARC
  8
0
  6
CONTINUOUS
 10
-81.5588235294117
 20
85.7352941176471
 40
0.735294117647058
 50
180.0
 51
0.0
  0
ARC
  8
0
  6
CONTINUOUS
 10
-80.0882352941176
 20
90.7647058823529
 40
0.735294117647058
 50
0.0
 51
180.0
  0
LINE
  8
0
  6
CONTINUOUS
 10
-80.8235294117647
 20
70.0
 11
-80.8235294117647
 21
90.7647058823529
  0
ARC
  8
0
  6
CONTINUOUS
 10
-78.6176470588235
 20
85.7352941176471
 40
0.735294117647058
 50
180.0
 51
0.0
  0
ARC
  8
0
  6
CONTINUOUS
 10
-77.1470588235293
 20
90.7647058823529
 40
0.735294117647058
 50
0.0
 51
180.0
  0
LINE
  8
0
  6
CONTINUOUS
 10
-77.8823529411764
 20
70.0
 11
-77.8823529411764
 21
90.7647058823529
  0
ARC
  8
0
  6
CONTINUOUS
 10
-75.6764705882352
 20
85.7352941176471
 40
0.735294117647058
 50
180.0
 51
0.0
  0
ARC
  8
0
  6
CONTINUOUS
 10
-74.2058823529411
 20
90.7647058823529
 40
0.735294117647058
 50
0.0
 51
180.0
  0
LINE
  8
0
  6
CONTINUOUS
 10
-74.9411764705882
 20
70.0
 11
-74.9411764705882
 21
90.7647058823529
  0
ARC
  8
0
  6
CONTINUOUS
 10
-72.735294117647
 20
85.7352941176471
 40
0.735294117647058
 50
180.0
 51
0.0
  0
LINE
  8
0
  6
CONTINUOUS
 10
-73.4705882352941
 20
70.0
 11
-73.4705882352941
 21
90.7647058823529
  0
LINE
  8
0
  6
CONTINUOUS
 10
-76.4117647058823
 20
70.0
 11
-76.4117647058823
 21
90.7647058823529
  0
LINE
  8
0
  6
CONTINUOUS
 10
-79.3529411764705
 20
70.0
 11
-79.3529411764705
 21
90.7647058823529
  0
LINE
  8
0
  6
CONTINUOUS
 10
-82.2941176470588
 20
70.0
 11
-82.2941176470588
 21
90.7647058823529
  0
LINE
  8
0
  6
CONTINUOUS
 10
-85.235294117647
 20
70.0
 11
-85.235294117647
 21
90.7647058823529
  0
LINE
  8
0
  6
CONTINUOUS
 10
-88.1764705882353
 20
70.0
 11
-88.1764705882353
 21
90.7647058823529
  0
LINE
  8
0
  6
CONTINUOUS
 10
-91.1176470588235
 20
70.0
 11
-91.1176470588235
 21
90.7647058823529
  0
LINE
  8
0
  6
CONTINUOUS
 10
-94.0588235294118
 20
70.0
 11
-94.0588235294118
 21
90.7647058823529
  0
ARC
  8
0
  6
CONTINUOUS
 10
-96.2647058823529
 20
54.2647058823529
 40
0.735294117647058
 50
0.0
 51
180.0
  0
ARC
  8
0
  6
CONTINUOUS
 10
-94.7941176470588
 20
49.2352941176471
 40
0.735294117647058
 50
180.0
 51
0.0
  0
LINE
  8
0
  6
CONTINUOUS
 10
-95.5294117647059
 20
70.0
 11
-95.5294117647059
 21
49.2352941176471
  0
ARC
  8
0
  6
CONTINUOUS
 10
-93.3235294117647
 20
54.2647058823529
 40
0.735294117647058
 50
0.0
 51
180.0
  0
ARC
  8
0
  6
CONTINUOUS
 10
-91.8529411764706
 20
49.2352941176471
 40
0.735294117647058
 50
180.0
 51
0.0
  0
LINE
  8
0
  6
CONTINUOUS
 10
-92.5882352941176
 20
70.0
 11
-92.5882352941176
 21
49.2352941176471
  0
ARC
  8
0
  6
CONTINUOUS
 10
-90.3823529411765
 20
54.2647058823529
 40
0.735294117647058
 50
0.0
 51
180.0
  0
ARC
  8
0
  6
CONTINUOUS
 10
-88.9117647058823
 20
49.2352941176471
 40
0.735294117647058
 50
180.0
 51
0.0
  0
LINE
  8
0
  6
CONTINUOUS
 10
-89.6470588235294
 20
70.0
 11
-89.6470588235294
 21
49.2352941176471
  0
ARC
  8
0
  6
CONTINUOUS
 10
-87.4411764705882
 20
54.2647058823529
 40
0.735294117647058
 50
0.0
 51
180.0
  0
ARC
  8
0
  6
CONTINUOUS
 10
-85.9705882352941
 20
49.2352941176471
 40
0.735294117647058
 50
180.0
 51
0.0
  0
LINE
  8
0
  6
CONTINUOUS
 10
-86.7058823529411
 20
70.0
 11
-86.7058823529411
 21
49.2352941176471
  0
ARC
  8
0
  6
CONTINUOUS
 10
-84.5
 20
54.2647058823529
 40
0.735294117647058
 50
0.0
 51
180.0
  0
ARC
  8
0
  6
CONTINUOUS
 10
-83.0294117647058
 20
49.2352941176471
 40
0.735294117647058
 50
180.0
 51
0.0
  0
LINE
  8
0
  6
CONTINUOUS
 10
-83.7647058823529
 20
70.0
 11
-83.7647058823529
 21
49.2352941176471
  0
ARC
  8
0
  6
CONTINUOUS
 10
-81.5588235294117
 20
54.2647058823529
 40
0.735294117647058
 50
0.0
 51
180.0
  0
ARC
  8
0
  6
CONTINUOUS
 10
-80.0882352941176
 20
49.2352941176471
 40
0.735294117647058
 50
180.0
 51
0.0
  0
LINE
  8
0
  6
CONTINUOUS
 10
-80.8235294117647
 20
70.0
 11
-80.8235294117647
 21
49.2352941176471
  0
ARC
  8
0
  6
CONTINUOUS
 10
-78.6176470588235
 20
54.2647058823529
 40
0.735294117647058
 50
0.0
 51
180.0
  0
ARC
  8
0
  6
CONTINUOUS
 10
-77.1470588235293
 20
49.2352941176471
 40
0.735294117647058
 50
180.0
 51
0.0
  0
LINE
  8
0
  6
CONTINUOUS
 10
-77.8823529411764
 20
70.0
 11
-77.8823529411764
 21
49.2352941176471
  0
ARC
  8
0
  6
CONTINUOUS
 10
-75.6764705882352
 20
54.2647058823529
 40
0.735294117647058
 50
0.0
 51
180.0
  0
ARC
  8
0
  6
CONTINUOUS
 10
-74.2058823529411
 20
49.2352941176471
 40
0.735294117647058
 50
180.0
 51
0.0
  0
LINE
  8
0
  6
CONTINUOUS
 10
-74.9411764705882
 20
70.0
 11
-74.9411764705882
 21
49.2352941176471
  0
ARC
  8
0
  6
CONTINUOUS
 10
-72.735294117647
 20
54.2647058823529
 40
0.735294117647058
 50
0.0
 51
180.0
  0
LINE
  8
0
  6
CONTINUOUS
 10
-73.4705882352941
 20
70.0
 11
-73.4705882352941
 21
49.2352941176471
  0
LINE
  8
0
  6
CONTINUOUS
 10
-76.4117647058823
 20
70.0
 11
-76.4117647058823
 21
49.2352941176471
  0
LINE
  8
0
  6
CONTINUOUS
 10
-79.3529411764705
 20
70.0
 11
-79.3529411764705
 21
49.2352941176471
  0
LINE
  8
0
  6
CONTINUOUS
 10
-82.2941176470588
 20
70.0
 11
-82.2941176470588
 21
49.2352941176471
  0
LINE
  8
0
  6
CONTINUOUS
 10
-85.235294117647
 20
70.0
 11
-85.235294117647
 21
49.2352941176471
  0
LINE
  8
0
  6
CONTINUOUS
 10
-88.1764705882353
 20
70.0
 11
-88.1764705882353
 21
49.2352941176471
  0
LINE
  8
0
  6
CONTINUOUS
 10
-91.1176470588235
 20
70.0
 11
-91.1176470588235
 21
49.2352941176471
  0
LINE
  8
0
  6
CONTINUOUS
 10
-94.0588235294118
 20
70.0
 11
-94.0588235294118
 21
49.2352941176471
  0
LINE
  8
0
  6
CONTINUOUS
 10
-145.0
 20
54.2372729151325
 11
-105.0
 21
54.2372729151325
  0
LINE
  8
0
  6
CONTINUOUS
 10
-164.5
 20
52.985
 11
-145.0
 21
52.985
  0
LINE
  8
0
  6
CENTER
 10
-185.0
 20
61.485
 11
-158.770513892174
 21
61.485
  0
LINE
  8
0
  6
CONTINUOUS
 10
-70.5566243270259
 20
89.0
 11
-70.5566243270259
 21
51.0
  0
LINE
  8
0
  6
CONTINUOUS
 10
-70.5566243270259
 20
19.0
 11
-70.5566243270259
 21
-19.0
  0
CIRCLE
  8
0
  6
CONTINUOUS
 10
0.0
 20
0.0
 40
21.5
  0
LINE
  8
0
  6
CENTER
 10
-26.5
 20
0.0
 11
26.5
 21
0.0
  0
LINE
  8
0
  6
CENTER
 10
0.0
 20
-26.5
 11
0.0
 21
26.5
  0
CIRCLE
  8
0
  6
CONTINUOUS
 10
0.0
 20
0.0
 40
19.0
  0
LINE
  8
0
  6
CONTINUOUS
 10
-180.0
 20
3.135
 11
-170.0
 21
3.135
  0
LINE
  8
0
  6
CONTINUOUS
 10
-180.0
 20
-3.165
 11
-170.0
 21
-3.165
  0
LINE
  8
0
  6
CONTINUOUS
 10
-180.0
 20
64.635
 11
-170.0
 21
64.635
  0
LINE
  8
0
  6
CONTINUOUS
 10
-180.0
 20
58.335
 11
-170.0
 21
58.335
  0
LINE
  8
0
  6
CONTINUOUS
 10
-165.0
 20
-9.5
 11
-165.0
 21
9.5
  0
LINE
  8
0
  6
CONTINUOUS
 10
-170.0
 20
3.735
 11
-165.0
 21
3.735
  0
LINE
  8
0
  6
CONTINUOUS
 10
-170.0
 20
-3.765
 11
-165.0
 21
-3.765
  0
LINE
  8
0
  6
CONTINUOUS
 10
-170.0
 20
65.235
 11
-165.0
 21
65.235
  0
LINE
  8
0
  6
CONTINUOUS
 10
-170.0
 20
57.735
 11
-165.0
 21
57.735
  0
LINE
  8
0
  6
CONTINUOUS
 10
-170.0
 20
-3.765
 11
-170.0
 21
3.735
  0
LINE
  8
0
  6
CONTINUOUS
 10
-170.0
 20
57.735
 11
-170.0
 21
65.235
  0
POLYLINE
  8
0
  6
CONTINUOUS
 66
     1
 10
0.0
 20
0.0
 70
     0
 40
0.0
 41
0.0
  0
VERTEX
  8
0
 10
-180.0
 20
64.635
  0
VERTEX
  8
0
 10
-180.426741247702
 20
64.1616784161043
  0
VERTEX
  8
0
 10
-180.724695762641
 20
63.7562907715268
  0
VERTEX
  8
0
 10
-180.91724642367
 20
63.3873383783445
  0
VERTEX
  8
0
 10
-181.0
 20
63.06
  0
VERTEX
  8
0
 10
-180.965823373256
 20
62.7179182058398
  0
VERTEX
  8
0
 10
-180.800187215192
 20
62.3624204748865
  0
VERTEX
  8
0
 10
-180.504873294347
 20
61.9854385964907
  0
VERTEX
  8
0
 10
-180.0
 20
61.485
  0
VERTEX
  8
0
 10
-179.495126705653
 20
60.9845614035092
  0
VERTEX
  8
0
 10
-179.199812784808
 20
60.6075795251134
  0
VERTEX
  8
0
 10
-179.034176626744
 20
60.2520817941601
  0
VERTEX
  8
0
 10
-179.0
 20
59.91
  0
VERTEX
  8
0
 10
-179.08275357633
 20
59.5826616216553
  0
VERTEX
  8
0
 10
-179.275304237359
 20
59.2137092284729
  0
VERTEX
  8
0
 10
-179.573258752298
 20
58.8083215838953
  0
VERTEX
  8
0
 10
-180.0
 20
58.335
  0
SEQEND
  8
0
  0
POLYLINE
  8
0
  6
CONTINUOUS
 66
     1
 10
0.0
 20
0.0
 70
     0
 40
0.0
 41
0.0
  0
VERTEX
  8
0
 10
-180.0
 20
61.485
  0
VERTEX
  8
0
 10
-180.447777848891
 20
61.0315580042287
  0
VERTEX
  8
0
 10
-180.752493286206
 20
60.6325594312961
  0
VERTEX
  8
0
 10
-180.938093142784
 20
60.2570385279073
  0
VERTEX
  8
0
 10
-181.0
 20
59.9100000000001
  0
VERTEX
  8
0
 10
-180.938093142784
 20
59.5629614720929
  0
VERTEX
  8
0
 10
-180.752493286206
 20
59.1874405687042
  0
VERTEX
  8
0
 10
-180.447777848891
 20
58.7884419957715
  0
VERTEX
  8
0
 10
-180.0
 20
58.335
  0
SEQEND
  8
0
  0
POLYLINE
  8
0
  6
CONTINUOUS
 66
     1
 10
0.0
 20
0.0
 70
     0
 40
0.0
 41
0.0
  0
VERTEX
  8
0
 10
-180.0
 20
3.13500000000005
  0
VERTEX
  8
0
 10
-180.426741247702
 20
2.66167841610427
  0
VERTEX
  8
0
 10
-180.724695762641
 20
2.25629077152678
  0
VERTEX
  8
0
 10
-180.91724642367
 20
1.88733837834451
  0
VERTEX
  8
0
 10
-181.0
 20
1.55999999999996
  0
VERTEX
  8
0
 10
-180.965823373256
 20
1.21791820583982
  0
VERTEX
  8
0
 10
-180.800187215192
 20
0.862420474886524
  0
VERTEX
  8
0
 10
-180.504873294347
 20
0.485438596490737
  0
VERTEX
  8
0
 10
-180.0
 20
-0.015000000000029
  0
VERTEX
  8
0
 10
-179.495126705653
 20
-0.515438596490764
  0
VERTEX
  8
0
 10
-179.199812784808
 20
-0.892420474886573
  0
VERTEX
  8
0
 10
-179.034176626744
 20
-1.2479182058399
  0
VERTEX
  8
0
 10
-179.0
 20
-1.59000000000003
  0
VERTEX
  8
0
 10
-179.08275357633
 20
-1.9173383783447
  0
VERTEX
  8
0
 10
-179.275304237359
 20
-2.28629077152711
  0
VERTEX
  8
0
 10
-179.573258752298
 20
-2.69167841610475
  0
VERTEX
  8
0
 10
-180.0
 20
-3.16499999999999
  0
SEQEND
  8
0
  0
POLYLINE
  8
0
  6
CONTINUOUS
 66
     1
 10
0.0
 20
0.0
 70
     0
 40
0.0
 41
0.0
  0
VERTEX
  8
0
 10
-180.0
 20
-0.0150000000000006
  0
VERTEX
  8
0
 10
-180.447777848891
 20
-0.468441995771287
  0
VERTEX
  8
0
 10
-180.752493286206
 20
-0.867440568703955
  0
VERTEX
  8
0
 10
-180.938093142784
 20
-1.24296147209271
  0
VERTEX
  8
0
 10
-181.0
 20
-1.58999999999995
  0
VERTEX
  8
0
 10
-180.938093142784
 20
-1.93703852790712
  0
VERTEX
  8
0
 10
-180.752493286206
 20
-2.31255943129581
  0
VERTEX
  8
0
 10
-180.447777848891
 20
-2.71155800422838
  0
VERTEX
  8
0
 10
-180.0
 20
-3.16499999999999
  0
SEQEND
  8
0
  0
LINE
  8
0
  6
CONTINUOUS
 10
-105.0
 20
146.97
 11
-105.0
 21
112.97
  0
LINE
  8
0
  6
CONTINUOUS
 10
-164.5
 20
119.97
 11
-105.0
 21
119.97
  0
LINE
  8
0
  6
CONTINUOUS
 10
-164.5
 20
139.97
 11
-105.0
 21
139.97
  0
LINE
  8
0
  6
CONTINUOUS
 10
-69.0
 20
119.97
 11
-63.4482787616995
 21
119.97
  0
LINE
  8
0
  6
CONTINUOUS
 10
-69.0
 20
139.97
 11
-63.8491092406173
 21
139.97
  0
LINE
  8
0
  6
CONTINUOUS
 10
-102.0
 20
146.97
 11
-102.0
 21
112.97
  0
LINE
  8
0
  6
CONTINUOUS
 10
-102.45
 20
146.97
 11
-102.45
 21
112.97
  0
ARC
  8
0
  6
CONTINUOUS
 10
-102.748048438871
 20
113.468048438871
 40
0.301951561128712
 50
350.777599045709
 51
149.99999999991
  0
LINE
  8
0
  6
CONTINUOUS
 10
-103.384260469323
 20
112.97
 11
-103.009546161521
 21
113.619024219436
  0
LINE
  8
0
  6
CONTINUOUS
 10
-102.45
 20
112.97
 11
-102.0
 21
112.97
  0
LINE
  8
0
  6
CONTINUOUS
 10
-105.0
 20
112.97
 11
-103.384260469323
 21
112.97
  0
LINE
  8
0
  6
CONTINUOUS
 10
-103.384260469323
 20
146.97
 11
-103.384260469323
 21
112.97
  0
LINE
  8
0
  6
CONTINUOUS
 10
-105.0
 20
146.97
 11
-103.384260469323
 21
146.97
  0
LINE
  8
0
  6
CONTINUOUS
 10
-103.384260469323
 20
146.97
 11
-103.009546161521
 21
146.320975780564
  0
LINE
  8
0
  6
CONTINUOUS
 10
-102.45
 20
146.97
 11
-102.0
 21
146.97
  0
ARC
  8
0
  6
CONTINUOUS
 10
-102.748048438871
 20
146.471951561129
 40
0.301951561128712
 50
210.00000000009
 51
9.22240095429146
  0
LINE
  8
0
  6
CONTINUOUS
 10
-164.5
 20
119.97
 11
-165.0
 21
120.47
  0
LINE
  8
0
  6
CONTINUOUS
 10
-165.0
 20
139.47
 11
-164.5
 21
139.97
  0
LINE
  8
0
  6
CONTINUOUS
 10
-45.5
 20
119.97
 11
-45.0
 21
120.47
  0
LINE
  8
0
  6
CONTINUOUS
 10
-45.0
 20
139.47
 11
-45.5
 21
139.97
  0
LINE
  8
0
  6
CONTINUOUS
 10
-164.5
 20
139.97
 11
-164.5
 21
119.97
  0
LINE
  8
0
  6
CONTINUOUS
 10
-63.4482787616995
 20
119.97
 11
-59.05
 21
119.97
  0
LINE
  8
0
  6
CONTINUOUS
 10
-63.8491092406173
 20
139.97
 11
-59.05
 21
139.97
  0
LINE
  8
0
  6
CONTINUOUS
 10
-59.05
 20
119.97
 11
-50.95
 21
119.97
  0
LINE
  8
0
  6
CONTINUOUS
 10
-50.95
 20
119.97
 11
-45.5
 21
119.97
  0
LINE
  8
0
  6
CONTINUOUS
 10
-59.05
 20
139.97
 11
-50.95
 21
139.97
  0
LINE
  8
0
  6
CONTINUOUS
 10
-50.95
 20
139.97
 11
-45.5
 21
139.97
  0
LINE
  8
0
  6
CONTINUOUS
 10
-45.0
 20
139.47
 11
-45.0
 21
132.97
  0
LINE
  8
0
  6
CONTINUOUS
 10
-45.0
 20
132.97
 11
-45.0
 21
126.97
  0
LINE
  8
0
  6
CONTINUOUS
 10
-45.0
 20
126.97
 11
-45.0
 21
120.47
  0
LINE
  8
0
  6
CONTINUOUS
 10
-69.0
 20
148.97
 11
-69.0
 21
117.485
  0
LINE
  8
0
  6
CONTINUOUS
 10
-69.0
 20
117.485
 11
-69.0
 21
116.370085296109
  0
LINE
  8
0
  6
CONTINUOUS
 10
-69.0
 20
116.370085296109
 11
-69.0
 21
110.97
  0
LINE
  8
0
  6
CONTINUOUS
 10
-69.0
 20
115.435
 11
-69.0
 21
114.985
  0
LINE
  8
0
  6
CONTINUOUS
 10
-45.5
 20
139.97
 11
-45.5
 21
119.97
  0
LINE
  8
0
  6
CONTINUOUS
 10
-101.55
 20
146.97
 11
-101.55
 21
129.97
  0
LINE
  8
0
  6
CONTINUOUS
 10
-97.0
 20
151.47
 11
-97.0
 21
129.97
  0
LINE
  8
0
  6
CONTINUOUS
 10
-100.55
 20
146.97
 11
-100.55
 21
129.97
  0
ARC
  8
0
  6
CONTINUOUS
 10
-101.05
 20
146.67
 40
0.5
 50
180.0
 51
0.0
  0
LINE
  8
0
  6
CONTINUOUS
 10
-100.55
 20
146.97
 11
-99.5980762113533
 21
146.97
  0
LINE
  8
0
  6
CONTINUOUS
 10
-102.0
 20
146.97
 11
-101.55
 21
146.97
  0
LINE
  8
0
  6
CONTINUOUS
 10
-99.5980762113533
 20
146.97
 11
-97.0
 21
151.47
  0
LINE
  8
0
  6
CONTINUOUS
 10
-101.55
 20
112.97
 11
-101.55
 21
113.27
  0
ARC
  8
0
  6
CONTINUOUS
 10
-101.05
 20
113.27
 40
0.5
 50
0.0
 51
180.0
  0
LINE
  8
0
  6
CONTINUOUS
 10
-100.55
 20
112.97
 11
-100.55
 21
113.27
  0
LINE
  8
0
  6
CONTINUOUS
 10
-102.0
 20
112.97
 11
-101.55
 21
112.97
  0
LINE
  8
0
  6
CONTINUOUS
 10
-100.55
 20
112.97
 11
-99.5980762113533
 21
112.97
  0
LINE
  8
0
  6
CONTINUOUS
 10
-99.5980762113533
 20
112.97
 11
-97.0
 21
108.47
  0
LINE
  8
0
  6
CONTINUOUS
 10
-99.5980762113533
 20
146.97
 11
-99.5980762113533
 21
129.97
  0
LINE
  8
0
  6
CONTINUOUS
 10
-100.55
 20
112.97
 11
-100.55
 21
129.97
  0
LINE
  8
0
  6
CONTINUOUS
 10
-99.5980762113533
 20
112.97
 11
-99.5980762113533
 21
129.97
  0
LINE
  8
0
  6
CONTINUOUS
 10
-101.55
 20
112.97
 11
-101.55
 21
129.97
  0
LINE
  8
0
  6
CONTINUOUS
 10
-97.0
 20
108.47
 11
-97.0
 21
129.97
  0
LINE
  8
0
  6
CONTINUOUS
 10
-70.5566243270259
 20
148.97
 11
-69.0
 21
148.97
  0
LINE
  8
0
  6
CONTINUOUS
 10
-72.0
 20
151.47
 11
-72.0
 21
129.97
  0
LINE
  8
0
  6
CONTINUOUS
 10
-72.0
 20
151.47
 11
-70.5566243270259
 21
148.97
  0
LINE
  8
0
  6
CONTINUOUS
 10
-72.0
 20
108.47
 11
-70.5566243270259
 21
110.97
  0
LINE
  8
0
  6
CONTINUOUS
 10
-70.5566243270259
 20
110.97
 11
-69.0
 21
110.97
  0
LINE
  8
0
  6
CONTINUOUS
 10
-72.0
 20
108.47
 11
-72.0
 21
129.97
  0
LINE
  8
0
  6
CONTINUOUS
 10
-95.5294117647059
 20
129.97
 11
-95.5294117647059
 21
109.205294117647
  0
LINE
  8
0
  6
CONTINUOUS
 10
-94.0588235294118
 20
129.97
 11
-94.0588235294118
 21
109.205294117647
  0
ARC
  8
0
  6
CONTINUOUS
 10
-96.2647058823529
 20
114.234705882353
 40
0.735294117647058
 50
0.0
 51
180.0
  0
ARC
  8
0
  6
CONTINUOUS
 10
-94.7941176470588
 20
109.205294117647
 40
0.735294117647058
 50
180.0
 51
0.0
  0
ARC
  8
0
  6
CONTINUOUS
 10
-93.3235294117647
 20
114.234705882353
 40
0.735294117647058
 50
0.0
 51
180.0
  0
ARC
  8
0
  6
CONTINUOUS
 10
-91.8529411764706
 20
109.205294117647
 40
0.735294117647058
 50
180.0
 51
0.0
  0
LINE
  8
0
  6
CONTINUOUS
 10
-91.1176470588235
 20
129.97
 11
-91.1176470588235
 21
109.205294117647
  0
LINE
  8
0
  6
CONTINUOUS
 10
-92.5882352941176
 20
129.97
 11
-92.5882352941176
 21
109.205294117647
  0
ARC
  8
0
  6
CONTINUOUS
 10
-90.3823529411765
 20
114.234705882353
 40
0.735294117647058
 50
0.0
 51
180.0
  0
ARC
  8
0
  6
CONTINUOUS
 10
-88.9117647058823
 20
109.205294117647
 40
0.735294117647058
 50
180.0
 51
0.0
  0
LINE
  8
0
  6
CONTINUOUS
 10
-88.1764705882353
 20
129.97
 11
-88.1764705882353
 21
109.205294117647
  0
LINE
  8
0
  6
CONTINUOUS
 10
-89.6470588235294
 20
129.97
 11
-89.6470588235294
 21
109.205294117647
  0
ARC
  8
0
  6
CONTINUOUS
 10
-87.4411764705882
 20
114.234705882353
 40
0.735294117647058
 50
0.0
 51
180.0
  0
ARC
  8
0
  6
CONTINUOUS
 10
-85.9705882352941
 20
109.205294117647
 40
0.735294117647058
 50
180.0
 51
0.0
  0
LINE
  8
0
  6
CONTINUOUS
 10
-85.235294117647
 20
129.97
 11
-85.235294117647
 21
109.205294117647
  0
LINE
  8
0
  6
CONTINUOUS
 10
-86.7058823529411
 20
129.97
 11
-86.7058823529411
 21
109.205294117647
  0
ARC
  8
0
  6
CONTINUOUS
 10
-84.5
 20
114.234705882353
 40
0.735294117647058
 50
0.0
 51
180.0
  0
ARC
  8
0
  6
CONTINUOUS
 10
-83.0294117647058
 20
109.205294117647
 40
0.735294117647058
 50
180.0
 51
0.0
  0
LINE
  8
0
  6
CONTINUOUS
 10
-82.2941176470588
 20
129.97
 11
-82.2941176470588
 21
109.205294117647
  0
LINE
  8
0
  6
CONTINUOUS
 10
-83.7647058823529
 20
129.97
 11
-83.7647058823529
 21
109.205294117647
  0
ARC
  8
0
  6
CONTINUOUS
 10
-81.5588235294117
 20
114.234705882353
 40
0.735294117647058
 50
0.0
 51
180.0
  0
ARC
  8
0
  6
CONTINUOUS
 10
-80.0882352941176
 20
109.205294117647
 40
0.735294117647058
 50
180.0
 51
0.0
  0
LINE
  8
0
  6
CONTINUOUS
 10
-79.3529411764705
 20
129.97
 11
-79.3529411764705
 21
109.205294117647
  0
LINE
  8
0
  6
CONTINUOUS
 10
-80.8235294117647
 20
129.97
 11
-80.8235294117647
 21
109.205294117647
  0
ARC
  8
0
  6
CONTINUOUS
 10
-78.6176470588235
 20
114.234705882353
 40
0.735294117647058
 50
0.0
 51
180.0
  0
ARC
  8
0
  6
CONTINUOUS
 10
-77.1470588235293
 20
109.205294117647
 40
0.735294117647058
 50
180.0
 51
0.0
  0
LINE
  8
0
  6
CONTINUOUS
 10
-76.4117647058823
 20
129.97
 11
-76.4117647058823
 21
109.205294117647
  0
LINE
  8
0
  6
CONTINUOUS
 10
-77.8823529411764
 20
129.97
 11
-77.8823529411764
 21
109.205294117647
  0
ARC
  8
0
  6
CONTINUOUS
 10
-75.6764705882352
 20
114.234705882353
 40
0.735294117647058
 50
0.0
 51
180.0
  0
ARC
  8
0
  6
CONTINUOUS
 10
-74.2058823529411
 20
109.205294117647
 40
0.735294117647058
 50
180.0
 51
0.0
  0
LINE
  8
0
  6
CONTINUOUS
 10
-73.4705882352941
 20
129.97
 11
-73.4705882352941
 21
109.205294117647
  0
LINE
  8
0
  6
CONTINUOUS
 10
-74.9411764705882
 20
129.97
 11
-74.9411764705882
 21
109.205294117647
  0
ARC
  8
0
  6
CONTINUOUS
 10
-72.735294117647
 20
114.234705882353
 40
0.735294117647058
 50
0.0
 51
180.0
  0
ARC
  8
0
  6
CONTINUOUS
 10
-96.2647058823529
 20
145.705294117647
 40
0.735294117647058
 50
180.0
 51
0.0
  0
ARC
  8
0
  6
CONTINUOUS
 10
-94.7941176470588
 20
150.734705882353
 40
0.735294117647058
 50
0.0
 51
180.0
  0
LINE
  8
0
  6
CONTINUOUS
 10
-95.5294117647059
 20
129.97
 11
-95.5294117647059
 21
150.734705882353
  0
ARC
  8
0
  6
CONTINUOUS
 10
-93.3235294117647
 20
145.705294117647
 40
0.735294117647058
 50
180.0
 51
0.0
  0
ARC
  8
0
  6
CONTINUOUS
 10
-91.8529411764706
 20
150.734705882353
 40
0.735294117647058
 50
0.0
 51
180.0
  0
LINE
  8
0
  6
CONTINUOUS
 10
-92.5882352941176
 20
129.97
 11
-92.5882352941176
 21
150.734705882353
  0
ARC
  8
0
  6
CONTINUOUS
 10
-90.3823529411765
 20
145.705294117647
 40
0.735294117647058
 50
180.0
 51
0.0
  0
ARC
  8
0
  6
CONTINUOUS
 10
-88.9117647058823
 20
150.734705882353
 40
0.735294117647058
 50
0.0
 51
180.0
  0
LINE
  8
0
  6
CONTINUOUS
 10
-89.6470588235294
 20
129.97
 11
-89.6470588235294
 21
150.734705882353
  0
ARC
  8
0
  6
CONTINUOUS
 10
-87.4411764705882
 20
145.705294117647
 40
0.735294117647058
 50
180.0
 51
0.0
  0
ARC
  8
0
  6
CONTINUOUS
 10
-85.9705882352941
 20
150.734705882353
 40
0.735294117647058
 50
0.0
 51
180.0
  0
LINE
  8
0
  6
CONTINUOUS
 10
-86.7058823529411
 20
129.97
 11
-86.7058823529411
 21
150.734705882353
  0
ARC
  8
0
  6
CONTINUOUS
 10
-84.5
 20
145.705294117647
 40
0.735294117647058
 50
180.0
 51
0.0
  0
ARC
  8
0
  6
CONTINUOUS
 10
-83.0294117647058
 20
150.734705882353
 40
0.735294117647058
 50
0.0
 51
180.0
  0
LINE
  8
0
  6
CONTINUOUS
 10
-83.7647058823529
 20
129.97
 11
-83.7647058823529
 21
150.734705882353
  0
ARC
  8
0
  6
CONTINUOUS
 10
-81.5588235294117
 20
145.705294117647
 40
0.735294117647058
 50
180.0
 51
0.0
  0
ARC
  8
0
  6
CONTINUOUS
 10
-80.0882352941176
 20
150.734705882353
 40
0.735294117647058
 50
0.0
 51
180.0
  0
LINE
  8
0
  6
CONTINUOUS
 10
-80.8235294117647
 20
129.97
 11
-80.8235294117647
 21
150.734705882353
  0
ARC
  8
0
  6
CONTINUOUS
 10
-78.6176470588235
 20
145.705294117647
 40
0.735294117647058
 50
180.0
 51
0.0
  0
ARC
  8
0
  6
CONTINUOUS
 10
-77.1470588235293
 20
150.734705882353
 40
0.735294117647058
 50
0.0
 51
180.0
  0
LINE
  8
0
  6
CONTINUOUS
 10
-77.8823529411764
 20
129.97
 11
-77.8823529411764
 21
150.734705882353
  0
ARC
  8
0
  6
CONTINUOUS
 10
-75.6764705882352
 20
145.705294117647
 40
0.735294117647058
 50
180.0
 51
0.0
  0
ARC
  8
0
  6
CONTINUOUS
 10
-74.2058823529411
 20
150.734705882353
 40
0.735294117647058
 50
0.0
 51
180.0
  0
LINE
  8
0
  6
CONTINUOUS
 10
-74.9411764705882
 20
129.97
 11
-74.9411764705882
 21
150.734705882353
  0
ARC
  8
0
  6
CONTINUOUS
 10
-72.735294117647
 20
145.705294117647
 40
0.735294117647058
 50
180.0
 51
0.0
  0
LINE
  8
0
  6
CONTINUOUS
 10
-73.4705882352941
 20
129.97
 11
-73.4705882352941
 21
150.734705882353
  0
LINE
  8
0
  6
CONTINUOUS
 10
-76.4117647058823
 20
129.97
 11
-76.4117647058823
 21
150.734705882353
  0
LINE
  8
0
  6
CONTINUOUS
 10
-79.3529411764705
 20
129.97
 11
-79.3529411764705
 21
150.734705882353
  0
LINE
  8
0
  6
CONTINUOUS
 10
-82.2941176470588
 20
129.97
 11
-82.2941176470588
 21
150.734705882353
  0
LINE
  8
0
  6
CONTINUOUS
 10
-85.235294117647
 20
129.97
 11
-85.235294117647
 21
150.734705882353
  0
LINE
  8
0
  6
CONTINUOUS
 10
-88.1764705882353
 20
129.97
 11
-88.1764705882353
 21
150.734705882353
  0
LINE
  8
0
  6
CONTINUOUS
 10
-91.1176470588235
 20
129.97
 11
-91.1176470588235
 21
150.734705882353
  0
LINE
  8
0
  6
CONTINUOUS
 10
-94.0588235294118
 20
129.97
 11
-94.0588235294118
 21
150.734705882353
  0
LINE
  8
0
  6
CONTINUOUS
 10
-70.5566243270259
 20
110.97
 11
-70.5566243270259
 21
148.97
  0
LINE
  8
0
  6
CONTINUOUS
 10
-180.0
 20
126.835
 11
-170.0
 21
126.835
  0
LINE
  8
0
  6
CONTINUOUS
 10
-180.0
 20
133.135
 11
-170.0
 21
133.135
  0
LINE
  8
0
  6
CONTINUOUS
 10
-165.0
 20
139.47
 11
-165.0
 21
120.47
  0
LINE
  8
0
  6
CONTINUOUS
 10
-170.0
 20
126.235
 11
-165.0
 21
126.235
  0
LINE
  8
0
  6
CONTINUOUS
 10
-170.0
 20
133.735
 11
-165.0
 21
133.735
  0
LINE
  8
0
  6
CONTINUOUS
 10
-170.0
 20
133.735
 11
-170.0
 21
126.235
  0
POLYLINE
  8
0
  6
CONTINUOUS
 66
     1
 10
0.0
 20
0.0
 70
     0
 40
0.0
 41
0.0
  0
VERTEX
  8
0
 10
-180.0
 20
126.835
  0
VERTEX
  8
0
 10
-180.426741247703
 20
127.308321583896
  0
VERTEX
  8
0
 10
-180.724695762642
 20
127.713709228473
  0
VERTEX
  8
0
 10
-180.91724642367
 20
128.082661621656
  0
VERTEX
  8
0
 10
-181.0
 20
128.41
  0
VERTEX
  8
0
 10
-180.965823373256
 20
128.75208179416
  0
VERTEX
  8
0
 10
-180.800187215192
 20
129.107579525113
  0
VERTEX
  8
0
 10
-180.504873294347
 20
129.484561403509
  0
VERTEX
  8
0
 10
-180.0
 20
129.985
  0
VERTEX
  8
0
 10
-179.495126705653
 20
130.485438596491
  0
VERTEX
  8
0
 10
-179.199812784808
 20
130.862420474887
  0
VERTEX
  8
0
 10
-179.034176626744
 20
131.21791820584
  0
VERTEX
  8
0
 10
-179.0
 20
131.56
  0
VERTEX
  8
0
 10
-179.08275357633
 20
131.887338378345
  0
VERTEX
  8
0
 10
-179.275304237359
 20
132.256290771528
  0
VERTEX
  8
0
 10
-179.573258752298
 20
132.661678416105
  0
VERTEX
  8
0
 10
-180.0
 20
133.135
  0
SEQEND
  8
0
  0
POLYLINE
  8
0
  6
CONTINUOUS
 66
     1
 10
0.0
 20
0.0
 70
     0
 40
0.0
 41
0.0
  0
VERTEX
  8
0
 10
-180.0
 20
129.985
  0
VERTEX
  8
0
 10
-180.447777848891
 20
130.438441995772
  0
VERTEX
  8
0
 10
-180.752493286206
 20
130.837440568704
  0
VERTEX
  8
0
 10
-180.938093142784
 20
131.212961472093
  0
VERTEX
  8
0
 10
-181.0
 20
131.56
  0
VERTEX
  8
0
 10
-180.938093142784
 20
131.907038527907
  0
VERTEX
  8
0
 10
-180.752493286206
 20
132.282559431296
  0
VERTEX
  8
0
 10
-180.447777848891
 20
132.681558004228
  0
VERTEX
  8
0
 10
-180.0
 20
133.135
  0
SEQEND
  8
0
  0
LINE
  8
0
  6
CENTER
 10
-185.0
 20
129.985
 11
-40.0
 21
129.985
  0
LINE
  8
0
  6
CENTER
 10
-185.0
 20
-0.0150000000000006
 11
-40.0
 21
-0.0150000000000006
  0
CIRCLE
  8
0
  6
CONTINUOUS
 10
-142.0
 20
7.0
 40
2.25
  0
ARC
  8
0
  6
CONTINUOUS
 10
-142.0
 20
7.0
 40
1.30000000000001
 50
349.875697516821
 51
10.1243024831807
  0
LINE
  8
0
  6
CONTINUOUS
 10
-142.341179021923
 20
7.34117902192253
 11
-142.240974020562
 21
7.5662431399077
  0
LINE
  8
0
  6
CONTINUOUS
 10
-141.658820978078
 20
7.34117902192253
 11
-141.759025979438
 21
7.5662431399077
  0
ARC
  8
0
  6
CONTINUOUS
 10
-142.0
 20
7.0
 40
1.3
 50
169.875697516819
 51
190.12430248318
  0
ARC
  8
0
  6
CONTINUOUS
 10
-142.0
 20
7.0
 40
1.3
 50
259.875697516818
 51
280.124302483177
  0
LINE
  8
0
  6
CONTINUOUS
 10
-142.341179021923
 20
7.34117902192253
 11
-142.566243139908
 21
7.24097402056188
  0
LINE
  8
0
  6
CONTINUOUS
 10
-142.341179021923
 20
6.65882097807753
 11
-142.240974020562
 21
6.43375686009236
  0
LINE
  8
0
  6
CONTINUOUS
 10
-142.341179021923
 20
6.65882097807753
 11
-142.566243139908
 21
6.75902597943818
  0
LINE
  8
0
  6
CONTINUOUS
 10
-141.658820978078
 20
6.65882097807753
 11
-141.759025979438
 21
6.43375686009236
  0
LINE
  8
0
  6
CONTINUOUS
 10
-142.240974020562
 20
6.43375686009236
 11
-142.228519584211
 21
5.72024267939888
  0
LINE
  8
0
  6
CONTINUOUS
 10
-141.759025979438
 20
6.43375686009236
 11
-141.771480415789
 21
5.72024267939886
  0
LINE
  8
0
  6
CONTINUOUS
 10
-142.566243139908
 20
7.24097402056188
 11
-143.279757320601
 21
7.22851958421067
  0
LINE
  8
0
  6
CONTINUOUS
 10
-142.566243139908
 20
6.75902597943818
 11
-143.279757320601
 21
6.77148041578937
  0
LINE
  8
0
  6
CONTINUOUS
 10
-141.658820978078
 20
7.34117902192253
 11
-141.433756860092
 21
7.24097402056188
  0
LINE
  8
0
  6
CONTINUOUS
 10
-141.658820978078
 20
6.65882097807753
 11
-141.433756860092
 21
6.75902597943818
  0
ARC
  8
0
  6
CONTINUOUS
 10
-142.0
 20
7.0
 40
1.3
 50
79.8756975168243
 51
100.124302483182
  0
LINE
  8
0
  6
CONTINUOUS
 10
-142.240974020562
 20
7.5662431399077
 11
-142.228519584211
 21
8.27975732060114
  0
LINE
  8
0
  6
CONTINUOUS
 10
-141.759025979438
 20
7.5662431399077
 11
-141.771480415789
 21
8.27975732060116
  0
LINE
  8
0
  6
CONTINUOUS
 10
-141.433756860092
 20
7.24097402056188
 11
-140.720242679399
 21
7.22851958421067
  0
LINE
  8
0
  6
CONTINUOUS
 10
-141.433756860092
 20
6.75902597943818
 11
-140.720242679399
 21
6.77148041578937
  0
CIRCLE
  8
0
  6
CONTINUOUS
 10
-142.0
 20
-7.0
 40
2.25
  0
ARC
  8
0
  6
CONTINUOUS
 10
-142.0
 20
-7.0
 40
1.30000000000001
 50
349.875697516821
 51
10.1243024831807
  0
LINE
  8
0
  6
CONTINUOUS
 10
-142.341179021923
 20
-6.65882097807747
 11
-142.240974020562
 21
-6.4337568600923
  0
LINE
  8
0
  6
CONTINUOUS
 10
-141.658820978078
 20
-6.65882097807747
 11
-141.759025979438
 21
-6.4337568600923
  0
ARC
  8
0
  6
CONTINUOUS
 10
-142.0
 20
-7.0
 40
1.3
 50
169.875697516819
 51
190.12430248318
  0
ARC
  8
0
  6
CONTINUOUS
 10
-142.0
 20
-7.0
 40
1.3
 50
259.875697516818
 51
280.124302483177
  0
LINE
  8
0
  6
CONTINUOUS
 10
-142.341179021923
 20
-6.65882097807747
 11
-142.566243139908
 21
-6.75902597943812
  0
LINE
  8
0
  6
CONTINUOUS
 10
-142.341179021923
 20
-7.34117902192247
 11
-142.240974020562
 21
-7.56624313990764
  0
LINE
  8
0
  6
CONTINUOUS
 10
-142.341179021923
 20
-7.34117902192247
 11
-142.566243139908
 21
-7.24097402056182
  0
LINE
  8
0
  6
CONTINUOUS
 10
-141.658820978078
 20
-7.34117902192247
 11
-141.759025979438
 21
-7.56624313990764
  0
LINE
  8
0
  6
CONTINUOUS
 10
-142.240974020562
 20
-7.56624313990764
 11
-142.228519584211
 21
-8.27975732060112
  0
LINE
  8
0
  6
CONTINUOUS
 10
-141.759025979438
 20
-7.56624313990764
 11
-141.771480415789
 21
-8.27975732060114
  0
LINE
  8
0
  6
CONTINUOUS
 10
-142.566243139908
 20
-6.75902597943812
 11
-143.279757320601
 21
-6.77148041578933
  0
LINE
  8
0
  6
CONTINUOUS
 10
-142.566243139908
 20
-7.24097402056182
 11
-143.279757320601
 21
-7.22851958421063
  0
LINE
  8
0
  6
CONTINUOUS
 10
-141.658820978078
 20
-6.65882097807747
 11
-141.433756860092
 21
-6.75902597943812
  0
LINE
  8
0
  6
CONTINUOUS
 10
-141.658820978078
 20
-7.34117902192247
 11
-141.433756860092
 21
-7.24097402056182
  0
ARC
  8
0
  6
CONTINUOUS
 10
-142.0
 20
-7.0
 40
1.3
 50
79.8756975168243
 51
100.124302483182
  0
LINE
  8
0
  6
CONTINUOUS
 10
-142.240974020562
 20
-6.4337568600923
 11
-142.228519584211
 21
-5.72024267939886
  0
LINE
  8
0
  6
CONTINUOUS
 10
-141.759025979438
 20
-6.4337568600923
 11
-141.771480415789
 21
-5.72024267939884
  0
LINE
  8
0
  6
CONTINUOUS
 10
-141.433756860092
 20
-6.75902597943812
 11
-140.720242679399
 21
-6.77148041578933
  0
LINE
  8
0
  6
CONTINUOUS
 10
-141.433756860092
 20
-7.24097402056182
 11
-140.720242679399
 21
-7.22851958421063
  0
CIRCLE
  8
0
  6
CONTINUOUS
 10
-108.0
 20
7.0
 40
2.25
  0
ARC
  8
0
  6
CONTINUOUS
 10
-108.0
 20
7.0
 40
1.30000000000001
 50
349.875697516821
 51
10.1243024831807
  0
LINE
  8
0
  6
CONTINUOUS
 10
-108.341179021923
 20
7.34117902192253
 11
-108.240974020562
 21
7.5662431399077
  0
LINE
  8
0
  6
CONTINUOUS
 10
-107.658820978078
 20
7.34117902192253
 11
-107.759025979438
 21
7.5662431399077
  0
ARC
  8
0
  6
CONTINUOUS
 10
-108.0
 20
7.0
 40
1.3
 50
169.875697516819
 51
190.12430248318
  0
ARC
  8
0
  6
CONTINUOUS
 10
-108.0
 20
7.0
 40
1.3
 50
259.875697516818
 51
280.124302483177
  0
LINE
  8
0
  6
CONTINUOUS
 10
-108.341179021923
 20
7.34117902192253
 11
-108.566243139908
 21
7.24097402056188
  0
LINE
  8
0
  6
CONTINUOUS
 10
-108.341179021923
 20
6.65882097807753
 11
-108.240974020562
 21
6.43375686009236
  0
LINE
  8
0
  6
CONTINUOUS
 10
-108.341179021923
 20
6.65882097807753
 11
-108.566243139908
 21
6.75902597943818
  0
LINE
  8
0
  6
CONTINUOUS
 10
-107.658820978078
 20
6.65882097807753
 11
-107.759025979438
 21
6.43375686009236
  0
LINE
  8
0
  6
CONTINUOUS
 10
-108.240974020562
 20
6.43375686009236
 11
-108.228519584211
 21
5.72024267939888
  0
LINE
  8
0
  6
CONTINUOUS
 10
-107.759025979438
 20
6.43375686009236
 11
-107.771480415789
 21
5.72024267939886
  0
LINE
  8
0
  6
CONTINUOUS
 10
-108.566243139908
 20
7.24097402056188
 11
-109.279757320601
 21
7.22851958421067
  0
LINE
  8
0
  6
CONTINUOUS
 10
-108.566243139908
 20
6.75902597943818
 11
-109.279757320601
 21
6.77148041578937
  0
LINE
  8
0
  6
CONTINUOUS
 10
-107.658820978078
 20
7.34117902192253
 11
-107.433756860092
 21
7.24097402056188
  0
LINE
  8
0
  6
CONTINUOUS
 10
-107.658820978078
 20
6.65882097807753
 11
-107.433756860092
 21
6.75902597943818
  0
ARC
  8
0
  6
CONTINUOUS
 10
-108.0
 20
7.0
 40
1.3
 50
79.8756975168243
 51
100.124302483182
  0
LINE
  8
0
  6
CONTINUOUS
 10
-108.240974020562
 20
7.5662431399077
 11
-108.228519584211
 21
8.27975732060114
  0
LINE
  8
0
  6
CONTINUOUS
 10
-107.759025979438
 20
7.5662431399077
 11
-107.771480415789
 21
8.27975732060116
  0
LINE
  8
0
  6
CONTINUOUS
 10
-107.433756860092
 20
7.24097402056188
 11
-106.720242679399
 21
7.22851958421067
  0
LINE
  8
0
  6
CONTINUOUS
 10
-107.433756860092
 20
6.75902597943818
 11
-106.720242679399
 21
6.77148041578937
  0
CIRCLE
  8
0
  6
CONTINUOUS
 10
-108.0
 20
-7.0
 40
2.25
  0
ARC
  8
0
  6
CONTINUOUS
 10
-108.0
 20
-7.0
 40
1.30000000000001
 50
349.875697516821
 51
10.1243024831807
  0
LINE
  8
0
  6
CONTINUOUS
 10
-108.341179021923
 20
-6.65882097807747
 11
-108.240974020562
 21
-6.4337568600923
  0
LINE
  8
0
  6
CONTINUOUS
 10
-107.658820978078
 20
-6.65882097807747
 11
-107.759025979438
 21
-6.4337568600923
  0
ARC
  8
0
  6
CONTINUOUS
 10
-108.0
 20
-7.0
 40
1.3
 50
169.875697516819
 51
190.12430248318
  0
ARC
  8
0
  6
CONTINUOUS
 10
-108.0
 20
-7.0
 40
1.3
 50
259.875697516818
 51
280.124302483177
  0
LINE
  8
0
  6
CONTINUOUS
 10
-108.341179021923
 20
-6.65882097807747
 11
-108.566243139908
 21
-6.75902597943812
  0
LINE
  8
0
  6
CONTINUOUS
 10
-108.341179021923
 20
-7.34117902192247
 11
-108.240974020562
 21
-7.56624313990764
  0
LINE
  8
0
  6
CONTINUOUS
 10
-108.341179021923
 20
-7.34117902192247
 11
-108.566243139908
 21
-7.24097402056182
  0
LINE
  8
0
  6
CONTINUOUS
 10
-107.658820978078
 20
-7.34117902192247
 11
-107.759025979438
 21
-7.56624313990764
  0
LINE
  8
0
  6
CONTINUOUS
 10
-108.240974020562
 20
-7.56624313990764
 11
-108.228519584211
 21
-8.27975732060112
  0
LINE
  8
0
  6
CONTINUOUS
 10
-107.759025979438
 20
-7.56624313990764
 11
-107.771480415789
 21
-8.27975732060114
  0
LINE
  8
0
  6
CONTINUOUS
 10
-108.566243139908
 20
-6.75902597943812
 11
-109.279757320601
 21
-6.77148041578933
  0
LINE
  8
0
  6
CONTINUOUS
 10
-108.566243139908
 20
-7.24097402056182
 11
-109.279757320601
 21
-7.22851958421063
  0
LINE
  8
0
  6
CONTINUOUS
 10
-107.658820978078
 20
-6.65882097807747
 11
-107.433756860092
 21
-6.75902597943812
  0
LINE
  8
0
  6
CONTINUOUS
 10
-107.658820978078
 20
-7.34117902192247
 11
-107.433756860092
 21
-7.24097402056182
  0
ARC
  8
0
  6
CONTINUOUS
 10
-108.0
 20
-7.0
 40
1.3
 50
79.8756975168243
 51
100.124302483182
  0
LINE
  8
0
  6
CONTINUOUS
 10
-108.240974020562
 20
-6.4337568600923
 11
-108.228519584211
 21
-5.72024267939886
  0
LINE
  8
0
  6
CONTINUOUS
 10
-107.759025979438
 20
-6.4337568600923
 11
-107.771480415789
 21
-5.72024267939884
  0
LINE
  8
0
  6
CONTINUOUS
 10
-107.433756860092
 20
-6.75902597943812
 11
-106.720242679399
 21
-6.77148041578933
  0
LINE
  8
0
  6
CONTINUOUS
 10
-107.433756860092
 20
-7.24097402056182
 11
-106.720242679399
 21
-7.22851958421063
  0
LINE
  8
0
  6
CONTINUOUS
 10
-105.35
 20
53.6372729151325
 11
-105.35
 21
54.2372729151325
  0
LINE
  8
0
  6
CONTINUOUS
 10
-110.65
 20
53.6372729151325
 11
-110.65
 21
54.2372729151325
  0
LINE
  8
0
  6
CONTINUOUS
 10
-110.65
 20
53.6372729151325
 11
-105.35
 21
53.6372729151325
  0
LINE
  8
0
  6
CONTINUOUS
 10
-110.25
 20
53.6372729151325
 11
-105.75
 21
53.6372729151325
  0
ARC
  8
0
  6
CONTINUOUS
 10
-108.0
 20
54.9372729151325
 40
3.0
 50
276.530167785301
 51
309.967068357369
  0
ARC
  8
0
  6
CONTINUOUS
 10
-106.586836143393
 20
53.2511626238468
 40
0.800000000000007
 50
309.967068357354
 51
355.000000000003
  0
LINE
  8
0
  6
CONTINUOUS
 10
-105.789880384919
 20
53.1814380296487
 11
-105.75
 21
53.6372729151325
  0
ARC
  8
0
  6
CONTINUOUS
 10
-109.413163856607
 20
53.2511626238468
 40
0.800000000000003
 50
184.999999999998
 51
230.03293164264
  0
LINE
  8
0
  6
CONTINUOUS
 10
-110.210119615081
 20
53.1814380296487
 11
-110.25
 21
53.6372729151325
  0
LINE
  8
0
  6
CONTINUOUS
 10
-108.228519584211
 20
52.2335717482133
 11
-108.240974020562
 21
51.9911960820361
  0
ARC
  8
0
  6
CONTINUOUS
 10
-108.345622878058
 20
52.1325819973028
 40
0.175901564549712
 50
271.447635179928
 51
306.507536633365
  0
ARC
  8
0
  6
CONTINUOUS
 10
-107.654377121942
 20
52.1325819973028
 40
0.175901564549712
 50
233.492463366635
 51
268.552364820072
  0
LINE
  8
0
  6
CONTINUOUS
 10
-107.771480415789
 20
52.2335717482133
 11
-107.759025979438
 21
51.9911960820361
  0
LINE
  8
0
  6
CONTINUOUS
 10
-108.228519584211
 20
52.2335717482133
 11
-107.771480415789
 21
52.2335717482133
  0
ARC
  8
0
  6
CONTINUOUS
 10
-108.0
 20
54.9372729151325
 40
2.99999999999998
 50
230.032931642631
 51
263.469832214699
  0
LINE
  8
0
  6
CONTINUOUS
 10
-144.65
 20
53.6372729151325
 11
-144.65
 21
54.2372729151325
  0
LINE
  8
0
  6
CONTINUOUS
 10
-144.65
 20
53.6372729151325
 11
-139.35
 21
53.6372729151325
  0
LINE
  8
0
  6
CONTINUOUS
 10
-144.25
 20
53.6372729151325
 11
-139.75
 21
53.6372729151325
  0
ARC
  8
0
  6
CONTINUOUS
 10
-143.413163856607
 20
53.2511626238468
 40
0.800000000000003
 50
184.999999999997
 51
230.032931642639
  0
LINE
  8
0
  6
CONTINUOUS
 10
-144.210119615081
 20
53.1814380296487
 11
-144.25
 21
53.6372729151325
  0
LINE
  8
0
  6
CONTINUOUS
 10
-142.228519584211
 20
52.2335717482133
 11
-142.240974020562
 21
51.9911960820361
  0
ARC
  8
0
  6
CONTINUOUS
 10
-142.345622878058
 20
52.1325819973028
 40
0.175901564549712
 50
271.447635179928
 51
306.507536633365
  0
LINE
  8
0
  6
CONTINUOUS
 10
-142.228519584211
 20
52.2335717482133
 11
-141.771480415789
 21
52.2335717482133
  0
ARC
  8
0
  6
CONTINUOUS
 10
-142.0
 20
54.9372729151325
 40
2.99999999999998
 50
230.032931642631
 51
263.469832214699
  0
ARC
  8
0
  6
CONTINUOUS
 10
-142.0
 20
54.9372729151325
 40
3.0
 50
276.530167785301
 51
309.967068357369
  0
ARC
  8
0
  6
CONTINUOUS
 10
-140.586836143393
 20
53.2511626238468
 40
0.800000000000007
 50
309.967068357354
 51
355.000000000003
  0
LINE
  8
0
  6
CONTINUOUS
 10
-139.789880384919
 20
53.1814380296487
 11
-139.75
 21
53.6372729151325
  0
ARC
  8
0
  6
CONTINUOUS
 10
-141.654377121942
 20
52.1325819973028
 40
0.175901564549712
 50
233.492463366635
 51
268.552364820072
  0
LINE
  8
0
  6
CONTINUOUS
 10
-141.771480415789
 20
52.2335717482133
 11
-141.759025979438
 21
51.9911960820361
  0
LINE
  8
0
  6
CONTINUOUS
 10
-139.35
 20
53.6372729151325
 11
-139.35
 21
54.2372729151325
  0
ENDSEC
  0
EOF
