  0
SECTION
  2
HEADER
  9
$ACADVER
  1
AC1015
  9
$ACADMAINTVER
 70
     0
  9
$DWGCODEPAGE
  3
ANSI_932
  9
$INSBASE
 10
0.0
 20
0.0
 30
0.0
  9
$EXTMIN
 10
-75.0
 20
-235.0
 30
0.0
  9
$EXTMAX
 10
49.0
 20
49.0
 30
0.0
  9
$LIMMIN
 10
-75.0
 20
-235.0
  9
$LIMMAX
 10
49.0
 20
49.0
  9
$ORTHOMODE
 70
     0
  9
$REGENMODE
 70
     1
  9
$FILLMODE
 70
     1
  9
$QTEXTMODE
 70
     0
  9
$MIRRTEXT
 70
     1
  9
$LTSCALE
 40
1.0
  9
$ATTMODE
 70
     1
  9
$TEXTSIZE
 40
3.0
  9
$TRACEWID
 40
0.5
  9
$TEXTSTYLE
  7
STANDARD
  9
$CLAYER
  8
0
  9
$CELTYPE
  6
BYLAYER
  9
$CECOLOR
 62
   256
  9
$CELTSCALE
 40
1.0
  9
$DISPSILH
 70
     0
  9
$DIMSCALE
 40
1.0
  9
$DIMASZ
 40
3.0
  9
$DIMEXO
 40
1.0
  9
$DIMDLI
 40
5.0
  9
$DIMRND
 40
0.0
  9
$DIMDLE
 40
5.0
  9
$DIMEXE
 40
2.0
  9
$DIMTP
 40
0.0
  9
$DIMTM
 40
0.0
  9
$DIMTXT
 40
3.0
  9
$DIMCEN
 40
2.0
  9
$DIMTSZ
 40
0.0
  9
$DIMTOL
 70
     0
  9
$DIMLIM
 70
     0
  9
$DIMTIH
 70
     0
  9
$DIMTOH
 70
     0
  9
$DIMSE1
 70
     0
  9
$DIMSE2
 70
     0
  9
$DIMTAD
 70
     1
  9
$DIMZIN
 70
     8
  9
$DIMBLK
  1

  9
$DIMASO
 70
     1
  9
$DIMSHO
 70
     1
  9
$DIMPOST
  1

  9
$DIMAPOST
  1

  9
$DIMALT
 70
     0
  9
$DIMALTD
 70
     4
  9
$DIMALTF
 40
0.0393700787401575
  9
$DIMLFAC
 40
1.0
  9
$DIMTOFL
 70
     1
  9
$DIMTVP
 40
1.0
  9
$DIMTIX
 70
     0
  9
$DIMSOXD
 70
     0
  9
$DIMSAH
 70
     0
  9
$DIMBLK1
  1

  9
$DIMBLK2
  1

  9
$DIMSTYLE
  2
ISO-25
  9
$DIMCLRD
 70
     0
  9
$DIMCLRE
 70
     0
  9
$DIMCLRT
 70
     0
  9
$DIMTFAC
 40
1.0
  9
$DIMGAP
 40
1.0
  9
$DIMJUST
 70
     0
  9
$DIMSD1
 70
     0
  9
$DIMSD2
 70
     0
  9
$DIMTOLJ
 70
     1
  9
$DIMTZIN
 70
     1
  9
$DIMALTZ
 70
     0
  9
$DIMALTTZ
 70
     0
  9
$DIMUPT
 70
     0
  9
$DIMDEC
 70
     3
  9
$DIMTDEC
 70
     3
  9
$DIMALTU
 70
     8
  9
$DIMALTTD
 70
     4
  9
$DIMTXSTY
  7
STANDARD
  9
$DIMAUNIT
 70
     0
  9
$DIMADEC
 70
     0
  9
$DIMALTRND
 40
0.0
  9
$DIMAZIN
 70
     0
  9
$DIMDSEP
 70
    46
  9
$DIMATFIT
 70
     3
  9
$DIMFRAC
 70
     0
  9
$DIMLDRBLK
  1

  9
$DIMLUNIT
 70
     2
  9
$DIMLWD
 70
    -2
  9
$DIMLWE
 70
    -2
  9
$DIMTMOVE
 70
     0
  9
$LUNITS
 70
     2
  9
$LUPREC
 70
     4
  9
$SKETCHINC
 40
1.0
  9
$FILLETRAD
 40
0.0
  9
$AUNITS
 70
     0
  9
$AUPREC
 70
     0
  9
$MENU
  1
.
  9
$ELEVATION
 40
0.0
  9
$PELEVATION
 40
0.0
  9
$THICKNESS
 40
0.0
  9
$LIMCHECK
 70
     0
  9
$CHAMFERA
 40
0.0
  9
$CHAMFERB
 40
0.0
  9
$CHAMFERC
 40
0.0
  9
$CHAMFERD
 40
0.0
  9
$SKPOLY
 70
     0
  9
$TDCREATE
 40
2458008.65291667
  9
$TDUCREATE
 40
2458008.65291667
  9
$TDUPDATE
 40
2458008.65291667
  9
$TDUUPDATE
 40
2458008.65291667
  9
$TDINDWG
 40
0.0
  9
$TDUSRTIMER
 40
0.0
  9
$USRTIMER
 70
     1
  9
$ANGBASE
 50
0.0
  9
$ANGDIR
 70
     0
  9
$PDMODE
 70
     0
  9
$PDSIZE
 40
0.0
  9
$PLINEWID
 40
0.0
  9
$SPLFRAME
 70
     0
  9
$SPLINETYPE
 70
     6
  9
$SPLINESEGS
 70
     8
  9
$HANDSEED
  5
B8
  9
$SURFTAB1
 70
     6
  9
$SURFTAB2
 70
     6
  9
$SURFTYPE
 70
     6
  9
$SURFU
 70
     6
  9
$SURFV
 70
     6
  9
$UCSBASE
  2

  9
$UCSNAME
  2

  9
$UCSORG
 10
0.0
 20
0.0
 30
0.0
  9
$UCSXDIR
 10
1.0
 20
0.0
 30
0.0
  9
$UCSYDIR
 10
0.0
 20
1.0
 30
0.0
  9
$UCSORTHOREF
  2

  9
$UCSORTHOVIEW
 70
     0
  9
$UCSORGTOP
 10
0.0
 20
0.0
 30
0.0
  9
$UCSORGBOTTOM
 10
0.0
 20
0.0
 30
0.0
  9
$UCSORGLEFT
 10
0.0
 20
0.0
 30
0.0
  9
$UCSORGRIGHT
 10
0.0
 20
0.0
 30
0.0
  9
$UCSORGFRONT
 10
0.0
 20
0.0
 30
0.0
  9
$UCSORGBACK
 10
0.0
 20
0.0
 30
0.0
  9
$PUCSBASE
  2

  9
$PUCSNAME
  2

  9
$PUCSORG
 10
0.0
 20
0.0
 30
0.0
  9
$PUCSXDIR
 10
1.0
 20
0.0
 30
0.0
  9
$PUCSYDIR
 10
0.0
 20
1.0
 30
0.0
  9
$PUCSORTHOREF
  2

  9
$PUCSORTHOVIEW
 70
     0
  9
$PUCSORGTOP
 10
0.0
 20
0.0
 30
0.0
  9
$PUCSORGBOTTOM
 10
0.0
 20
0.0
 30
0.0
  9
$PUCSORGLEFT
 10
0.0
 20
0.0
 30
0.0
  9
$PUCSORGRIGHT
 10
0.0
 20
0.0
 30
0.0
  9
$PUCSORGFRONT
 10
0.0
 20
0.0
 30
0.0
  9
$PUCSORGBACK
 10
0.0
 20
0.0
 30
0.0
  9
$USERI1
 70
     0
  9
$USERI2
 70
     0
  9
$USERI3
 70
     0
  9
$USERI4
 70
     0
  9
$USERI5
 70
     0
  9
$USERR1
 40
0.0
  9
$USERR2
 40
0.0
  9
$USERR3
 40
0.0
  9
$USERR4
 40
0.0
  9
$USERR5
 40
0.0
  9
$WORLDVIEW
 70
     1
  9
$SHADEDGE
 70
     3
  9
$SHADEDIF
 70
    70
  9
$MAXACTVP
 70
    16
  9
$PINSBASE
 10
0.0
 20
0.0
 30
0.0
  9
$PLIMCHECK
 70
     0
  9
$PEXTMIN
 10
1.00000000000000E+020
 20
1.00000000000000E+020
 30
1.00000000000000E+020
  9
$PEXTMAX
 10
-1.00000000000000E+020
 20
-1.00000000000000E+020
 30
-1.00000000000000E+020
  9
$PLIMMIN
 10
-75.0
 20
-235.0
  9
$PLIMMAX
 10
49.0
 20
49.0
  9
$UNITMODE
 70
     0
  9
$VISRETAIN
 70
     0
  9
$PLINEGEN
 70
     0
  9
$PSLTSCALE
 70
     0
  9
$TREEDEPTH
 70
  3020
  9
$CMLSTYLE
  2
STANDARD
  9
$CMLJUST
 70
     0
  9
$CMLSCALE
 40
1.0
  9
$PROXYGRAPHICS
 70
     1
  9
$MEASUREMENT
 70
     1
  9
$CELWEIGHT
370
    -3
  9
$ENDCAPS
280
     0
  9
$JOINSTYLE
280
     0
  9
$LWDISPLAY
290
     1
  9
$INSUNITS
 70
     0
  9
$HYPERLINKBASE
  1

  9
$STYLESHEET
  1

  9
$XEDIT
290
     1
  9
$CEPSNTYPE
380
     0
  9
$PSTYLEMODE
290
     1
  9
$FINGERPRINTGUID
  2
{6F25CFC2-5053-11D3-9BE9-00805F4AB38E}
  9
$VERSIONGUID
  2
{6F25CFC5-5053-11D3-9BE9-00805F4AB38E}
  9
$EXTNAMES
290
     1
  9
$PSVPSCALE
 40
0.0
  9
$OLESTARTUP
290
     0
  0
ENDSEC
  0
SECTION
  2
CLASSES
  0
CLASS
  1
LWPOLYLINE
  2
AcDbPolyline
  3
AutoCAD 2000
 90
    32768
280
     0
281
     1
  0
CLASS
  1
ACDBDICTIONARYWDFLT
  2
AcDbDictionaryWithDefault
  3
AutoCAD 2000
 90
        0
280
     0
281
     0
  0
CLASS
  1
DICTIONARYVAR
  2
AcDbDictionaryVar
  3
AutoCAD 2000
 90
        0
280
     0
281
     0
  0
CLASS
  1
ACDBPLACEHOLDER
  2
AcDbPlaceHolder
  3
AutoCAD 2000
 90
        0
280
     0
281
     1
  0
CLASS
  1
LAYOUT
  2
AcDbLayout
  3
AutoCAD 2000
 90
        0
280
     0
281
     1
  0
CLASS
  1
HATCH
  2
AcDbHatch
  3
AutoCAD 2000
 90
        0
280
     0
281
     1
  0
ENDSEC
  0
SECTION
  2
TABLES
  0
TABLE
  2
VPORT
  5
8
100
AcDbSymbolTable
 70
     1
  0
VPORT
  5
AF
330
0
100
AcDbSymbolTableRecord
100
AcDbViewportTableRecord
  2
*ACTIVE
 70
     0
 10
0.0
 20
0.0
 11
1.0
 21
1.0
 12
-13.0
 22
-93.0
 13
0.0
 23
0.0
 14
0.0
 24
0.0
 15
0.0
 25
0.0
 16
0.0
 26
0.0
 36
1.0
 17
0.0
 27
0.0
 37
0.0
 40
284.0
 41
1.5
 42
50.0
 43
0.0
 44
0.0
 50
0.0
 51
0.0
 71
     0
 72
   100
 73
     1
 74
     1
 75
     0
 76
     0
 77
     0
 78
     0
281
     0
 65
     1
110
0.0
120
0.0
130
0.0
111
1.0
121
0.0
131
0.0
112
0.0
122
1.0
132
0.0
 79
     0
146
0.0
  0
ENDTAB
  0
TABLE
  2
LTYPE
  5
5
330
0
100
AcDbSymbolTable
 70
    20
  0
LTYPE
  5
B0
330
5
100
AcDbSymbolTableRecord
100
AcDbLinetypeTableRecord
  2
BYBLOCK
 70
     0
  3

 72
    65
 73
     0
 40
0.0
  0
LTYPE
  5
B1
330
5
100
AcDbSymbolTableRecord
100
AcDbLinetypeTableRecord
  2
BYLAYER
 70
     0
  3

 72
    65
 73
     0
 40
0.0
  0
LTYPE
  5
B2
330
5
100
AcDbSymbolTableRecord
100
AcDbLinetypeTableRecord
  2
CONTINUOUS
 70
    64
  3
solid line
 72
    65
 73
     0
 40
0.0
  0
LTYPE
  5
B3
330
0
100
AcDbSymbolTableRecord
100
AcDbLinetypeTableRecord
  2
CENTER
 70
    64
  3
--- - --- - --- - --- - --- -
 72
    65
 73
     4
 40
6.0
 49
3.0
 74
     0
 49
-1.0
 74
     0
 49
1.0
 74
     0
 49
-1.0
 74
     0
  0
ENDTAB
  0
TABLE
  2
LAYER
  5
2
330
0
100
AcDbSymbolTable
 70
    20
  0
LAYER
  5
B4
330
2
100
AcDbSymbolTableRecord
100
AcDbLayerTableRecord
  2
0
 70
    64
 62
     0
  6
CONTINUOUS
370
    -3
390
AA
  0
ENDTAB
  0
TABLE
  2
STYLE
  5
3
330
0
100
AcDbSymbolTable
 70
     4
  0
STYLE
  5
B5
330
3
100
AcDbSymbolTableRecord
100
AcDbTextStyleTableRecord
  2
STANDARD
 70
    64
 40
0.0
 41
1.0
 50
0.0
 71
     0
 42
3.0
  3
monotxt
  4

  0
ENDTAB
  0
TABLE
  2
VIEW
  5
6
330
0
100
AcDbSymbolTable
 70
     0
  0
ENDTAB
  0
TABLE
  2
UCS
  5
7
330
0
100
AcDbSymbolTable
 70
     0
  0
ENDTAB
  0
TABLE
  2
APPID
  5
9
330
0
100
AcDbSymbolTable
 70
     1
  0
APPID
  5
B6
330
9
100
AcDbSymbolTableRecord
100
AcDbRegAppTableRecord
  2
ACAD
 70
     0
  0
ENDTAB
  0
TABLE
  2
DIMSTYLE
  5
A
330
0
100
AcDbSymbolTable
 70
     8
100
AcDbDimStyleTable
 71
     0
  0
DIMSTYLE
105
B7
330
A
100
AcDbSymbolTableRecord
100
AcDbDimStyleTableRecord
  2
ISO-25
 70
     0
  3

  4

  5

  6

  7

 40
1.0
 41
3.0
 42
1.0
 43
5.0
 44
2.0
 45
0.0
 46
5.0
 47
0.0
 48
0.0
140
3.0
141
2.0
142
0.0
143
0.0393700787401575
144
1.0
145
1.0
146
1.0
147
1.0
 71
     0
 72
     0
 73
     0
 74
     0
 75
     0
 76
     0
 77
     1
 78
     8
 79
     2
170
     0
171
     0
172
     1
173
     0
174
     0
175
     0
176
     0
177
     0
178
     0
179
     3
270
     2
271
     3
272
     3
273
     8
274
     4
340
B5
275
     0
280
     0
281
     0
282
     0
283
     1
284
     1
285
     0
286
     0
287
     3
288
     0
  0
ENDTAB
  0
TABLE
  2
BLOCK_RECORD
  5
1
330
0
100
AcDbSymbolTable
 70
     2
  0
BLOCK_RECORD
  5
20
330
1
100
AcDbSymbolTableRecord
100
AcDbBlockTableRecord
  2
*MODEL_SPACE
340
AB
  0
BLOCK_RECORD
  5
22
330
1
100
AcDbSymbolTableRecord
100
AcDbBlockTableRecord
  2
*PAPER_SPACE
340
AC
  0
ENDTAB
  0
ENDSEC
  0
SECTION
  2
BLOCKS
  0
BLOCK
  5
21
330
20
100
AcDbEntity
  8
0
100
AcDbBlockBegin
  2
*MODEL_SPACE
 70
     0
 10
0.0
 20
0.0
 30
0.0
  3
*MODEL_SPACE
  1

  0
ENDBLK
  5
AD
330
20
100
AcDbEntity
  8
0
100
AcDbBlockEnd
  0
BLOCK
  5
23
330
22
100
AcDbEntity
 67
     1
  8
0
100
AcDbBlockBegin
  2
*PAPER_SPACE
 70
     0
 10
0.0
 20
0.0
 30
0.0
  3
*PAPER_SPACE
  1

  0
ENDBLK
  5
AE
330
22
100
AcDbEntity
 67
     1
  8
0
100
AcDbBlockEnd
  0
ENDSEC
  0
SECTION
  2
ENTITIES
  0
LINE
  5
24
330
20
100
AcDbEntity
  8
0
  6
CONTINUOUS
100
AcDbLine
 10
-43.5
 20
-200.0
 11
43.5
 21
-200.0
  0
LINE
  5
25
330
20
100
AcDbEntity
  8
0
  6
CONTINUOUS
100
AcDbLine
 10
-44.0
 20
-118.6
 11
44.0
 21
-118.6
  0
LINE
  5
26
330
20
100
AcDbEntity
  8
0
  6
CONTINUOUS
100
AcDbLine
 10
-44.0
 20
-120.6
 11
44.0
 21
-120.6
  0
ARC
  5
27
330
20
100
AcDbEntity
  8
0
  6
CONTINUOUS
100
AcDbCircle
 10
-43.5
 20
-119.6
 40
0.999999999999986
100
AcDbArc
 50
359.999999999999
 51
90.0
  0
ARC
  5
28
330
20
100
AcDbEntity
  8
0
  6
CONTINUOUS
100
AcDbCircle
 10
-43.5
 20
-119.6
 40
0.999999999999986
100
AcDbArc
 50
270.0
 51
8.14221998454672E-013
  0
ARC
  5
29
330
20
100
AcDbEntity
  8
0
  6
CONTINUOUS
100
AcDbCircle
 10
43.5
 20
-119.6
 40
1.0
100
AcDbArc
 50
90.0
 51
270.0
  0
LINE
  5
2A
330
20
100
AcDbEntity
  8
0
  6
CONTINUOUS
100
AcDbLine
 10
44.0
 20
-118.0
 11
44.0
 21
-118.6
  0
LINE
  5
2B
330
20
100
AcDbEntity
  8
0
  6
CONTINUOUS
100
AcDbLine
 10
-44.0
 20
-120.6
 11
-44.0
 21
-199.5
  0
LINE
  5
2C
330
20
100
AcDbEntity
  8
0
  6
CONTINUOUS
100
AcDbLine
 10
-44.0
 20
-118.0
 11
-44.0
 21
-118.6
  0
LINE
  5
2D
330
20
100
AcDbEntity
  8
0
  6
CONTINUOUS
100
AcDbLine
 10
-43.5
 20
-104.0
 11
43.5
 21
-104.0
  0
LINE
  5
2E
330
20
100
AcDbEntity
  8
0
  6
CONTINUOUS
100
AcDbLine
 10
-44.0
 20
-117.4
 11
44.0
 21
-117.4
  0
LINE
  5
2F
330
20
100
AcDbEntity
  8
0
  6
CONTINUOUS
100
AcDbLine
 10
-44.0
 20
-115.4
 11
44.0
 21
-115.4
  0
ARC
  5
30
330
20
100
AcDbEntity
  8
0
  6
CONTINUOUS
100
AcDbCircle
 10
43.5
 20
-116.4
 40
1.0
100
AcDbArc
 50
90.0
 51
270.0
  0
ARC
  5
31
330
20
100
AcDbEntity
  8
0
  6
CONTINUOUS
100
AcDbCircle
 10
-43.5
 20
-116.4
 40
0.999999999999986
100
AcDbArc
 50
359.999999999999
 51
90.0
  0
ARC
  5
32
330
20
100
AcDbEntity
  8
0
  6
CONTINUOUS
100
AcDbCircle
 10
-43.5
 20
-116.4
 40
0.999999999999986
100
AcDbArc
 50
270.0
 51
8.14221998454672E-013
  0
LINE
  5
33
330
20
100
AcDbEntity
  8
0
  6
CONTINUOUS
100
AcDbLine
 10
44.0
 20
-104.5
 11
44.0
 21
-115.4
  0
LINE
  5
34
330
20
100
AcDbEntity
  8
0
  6
CONTINUOUS
100
AcDbLine
 10
44.0
 20
-117.4
 11
44.0
 21
-118.0
  0
LINE
  5
35
330
20
100
AcDbEntity
  8
0
  6
CONTINUOUS
100
AcDbLine
 10
-44.0
 20
-104.5
 11
-44.0
 21
-115.4
  0
LINE
  5
36
330
20
100
AcDbEntity
  8
0
  6
CONTINUOUS
100
AcDbLine
 10
-44.0
 20
-117.4
 11
-44.0
 21
-118.0
  0
LINE
  5
37
330
20
100
AcDbEntity
  8
0
  6
CONTINUOUS
100
AcDbLine
 10
-43.5
 20
-104.0
 11
-44.0
 21
-104.5
  0
LINE
  5
38
330
20
100
AcDbEntity
  8
0
  6
CONTINUOUS
100
AcDbLine
 10
44.0
 20
-104.5
 11
43.5
 21
-104.0
  0
LINE
  5
39
330
20
100
AcDbEntity
  8
0
  6
CONTINUOUS
100
AcDbLine
 10
-44.0
 20
-104.5
 11
44.0
 21
-104.5
  0
LINE
  5
3A
330
20
100
AcDbEntity
  8
0
  6
CONTINUOUS
100
AcDbLine
 10
-43.5
 20
-200.0
 11
-44.0
 21
-199.5
  0
LINE
  5
3B
330
20
100
AcDbEntity
  8
0
  6
CONTINUOUS
100
AcDbLine
 10
43.5
 20
-200.0
 11
44.0
 21
-199.5
  0
LINE
  5
3C
330
20
100
AcDbEntity
  8
0
  6
CONTINUOUS
100
AcDbLine
 10
-41.0
 20
-207.0
 11
41.0
 21
-207.0
  0
LINE
  5
3D
330
20
100
AcDbEntity
  8
0
  6
CONTINUOUS
100
AcDbLine
 10
-40.5
 20
-227.0
 11
40.5
 21
-227.0
  0
LINE
  5
3E
330
20
100
AcDbEntity
  8
0
  6
CONTINUOUS
100
AcDbLine
 10
-41.0
 20
-207.5
 11
-41.0
 21
-226.5
  0
LINE
  5
3F
330
20
100
AcDbEntity
  8
0
  6
CONTINUOUS
100
AcDbLine
 10
41.0
 20
-207.5
 11
41.0
 21
-226.5
  0
LINE
  5
40
330
20
100
AcDbEntity
  8
0
  6
CONTINUOUS
100
AcDbLine
 10
-35.0
 20
-202.0
 11
35.0
 21
-202.0
  0
LINE
  5
41
330
20
100
AcDbEntity
  8
0
  6
CONTINUOUS
100
AcDbLine
 10
40.5
 20
-227.0
 11
41.0
 21
-226.5
  0
LINE
  5
42
330
20
100
AcDbEntity
  8
0
  6
CONTINUOUS
100
AcDbLine
 10
-40.5
 20
-227.0
 11
-41.0
 21
-226.5
  0
LINE
  5
43
330
20
100
AcDbEntity
  8
0
  6
CONTINUOUS
100
AcDbLine
 10
-41.0
 20
-207.5
 11
-40.5
 21
-207.0
  0
LINE
  5
44
330
20
100
AcDbEntity
  8
0
  6
CONTINUOUS
100
AcDbLine
 10
41.0
 20
-207.5
 11
40.5
 21
-207.0
  0
LINE
  5
45
330
20
100
AcDbEntity
  8
0
  6
CONTINUOUS
100
AcDbLine
 10
-41.0
 20
-226.5
 11
41.0
 21
-226.5
  0
LINE
  5
46
330
20
100
AcDbEntity
  8
0
  6
CONTINUOUS
100
AcDbLine
 10
41.0
 20
-207.5
 11
-41.0
 21
-207.5
  0
LINE
  5
47
330
20
100
AcDbEntity
  8
0
  6
CONTINUOUS
100
AcDbLine
 10
44.0
 20
-120.6
 11
44.0
 21
-199.5
  0
LINE
  5
48
330
20
100
AcDbEntity
  8
0
  6
CONTINUOUS
100
AcDbLine
 10
41.0
 20
-203.0
 11
41.0
 21
-207.0
  0
LINE
  5
49
330
20
100
AcDbEntity
  8
0
  6
CONTINUOUS
100
AcDbLine
 10
-41.0
 20
-203.0
 11
-41.0
 21
-207.0
  0
LINE
  5
4A
330
20
100
AcDbEntity
  8
0
  6
CONTINUOUS
100
AcDbLine
 10
-41.0
 20
-203.0
 11
41.0
 21
-203.0
  0
LINE
  5
4B
330
20
100
AcDbEntity
  8
0
  6
CONTINUOUS
100
AcDbLine
 10
-36.5
 20
-202.0
 11
-36.5
 21
-203.0
  0
LINE
  5
4C
330
20
100
AcDbEntity
  8
0
  6
CONTINUOUS
100
AcDbLine
 10
36.5
 20
-202.0
 11
36.5
 21
-203.0
  0
LINE
  5
4D
330
20
100
AcDbEntity
  8
0
  6
CONTINUOUS
100
AcDbLine
 10
-36.5
 20
-202.0
 11
36.5
 21
-202.0
  0
LINE
  5
4E
330
20
100
AcDbEntity
  8
0
  6
CONTINUOUS
100
AcDbLine
 10
-39.5
 20
-200.0
 11
-36.5
 21
-202.0
  0
LINE
  5
4F
330
20
100
AcDbEntity
  8
0
  6
CONTINUOUS
100
AcDbLine
 10
39.5
 20
-200.0
 11
36.5
 21
-202.0
  0
LINE
  5
50
330
20
100
AcDbEntity
  8
0
  6
CONTINUOUS
100
AcDbLine
 10
-44.0
 20
-199.5
 11
44.0
 21
-199.5
  0
LINE
  5
51
330
20
100
AcDbEntity
  8
0
  6
CONTINUOUS
100
AcDbLine
 10
-46.0
 20
-151.0
 11
-44.0
 21
-151.0
  0
LINE
  5
52
330
20
100
AcDbEntity
  8
0
  6
CONTINUOUS
100
AcDbLine
 10
-46.0
 20
-167.0
 11
-44.0
 21
-167.0
  0
LINE
  5
53
330
20
100
AcDbEntity
  8
0
  6
CONTINUOUS
100
AcDbLine
 10
-46.0
 20
-135.0
 11
-46.0
 21
-183.0
  0
LINE
  5
54
330
20
100
AcDbEntity
  8
0
  6
CONTINUOUS
100
AcDbLine
 10
-70.0
 20
-133.0
 11
-48.0
 21
-133.0
  0
LINE
  5
55
330
20
100
AcDbEntity
  8
0
  6
CONTINUOUS
100
AcDbLine
 10
-70.0
 20
-185.0
 11
-48.0
 21
-185.0
  0
LINE
  5
56
330
20
100
AcDbEntity
  8
0
  6
CONTINUOUS
100
AcDbLine
 10
-68.5
 20
-133.0
 11
-68.5
 21
-185.0
  0
LINE
  5
57
330
20
100
AcDbEntity
  8
0
  6
CONTINUOUS
100
AcDbLine
 10
-70.0
 20
-133.0
 11
-70.0
 21
-185.0
  0
LINE
  5
58
330
20
100
AcDbEntity
  8
0
  6
CONTINUOUS
100
AcDbLine
 10
-68.5
 20
-150.0
 11
-62.5413812651491
 21
-150.0
  0
LINE
  5
59
330
20
100
AcDbEntity
  8
0
  6
CONTINUOUS
100
AcDbLine
 10
-68.5
 20
-168.0
 11
-62.5413812651491
 21
-168.0
  0
LINE
  5
5A
330
20
100
AcDbEntity
  8
0
  6
CONTINUOUS
100
AcDbLine
 10
-51.0
 20
-154.757359312881
 11
-51.0
 21
-163.242640687119
  0
ARC
  5
5B
330
20
100
AcDbEntity
  8
0
  6
CONTINUOUS
100
AcDbCircle
 10
-59.5000000000002
 20
-159.0
 40
9.00000000000023
100
AcDbArc
 50
1.80938221878809E-013
 51
19.1881364537207
  0
ARC
  5
5C
330
20
100
AcDbEntity
  8
0
  6
CONTINUOUS
100
AcDbCircle
 10
-59.5
 20
-159.0
 40
8.99999999999999
100
AcDbArc
 50
340.811863546279
 51
360.0
  0
ARC
  5
5D
330
20
100
AcDbEntity
  8
0
  6
CONTINUOUS
100
AcDbCircle
 10
-59.5
 20
-159.0
 40
9.5
100
AcDbArc
 50
26.5253520166097
 51
153.47464798339
  0
ARC
  5
5E
330
20
100
AcDbEntity
  8
0
  6
CONTINUOUS
100
AcDbCircle
 10
-59.5
 20
-159.0
 40
9.5
100
AcDbArc
 50
206.52535201661
 51
333.47464798339
  0
LINE
  5
5F
330
20
100
AcDbEntity
  8
0
  6
CONTINUOUS
100
AcDbLine
 10
-68.0
 20
-154.757359312881
 11
-68.0
 21
-163.242640687119
  0
CIRCLE
  5
60
330
20
100
AcDbEntity
  8
0
  6
CONTINUOUS
100
AcDbCircle
 10
-59.5
 20
-159.0
 40
3.5
  0
LINE
  5
61
330
20
100
AcDbEntity
  8
0
  6
CONTINUOUS
100
AcDbLine
 10
-73.0
 20
-139.45621394682
 11
-70.0
 21
-139.45621394682
  0
LINE
  5
62
330
20
100
AcDbEntity
  8
0
  6
CONTINUOUS
100
AcDbLine
 10
-73.0
 20
-144.95621394682
 11
-70.0
 21
-144.95621394682
  0
LINE
  5
63
330
20
100
AcDbEntity
  8
0
  6
CONTINUOUS
100
AcDbLine
 10
-73.0
 20
-173.043786053181
 11
-70.0
 21
-173.043786053181
  0
LINE
  5
64
330
20
100
AcDbEntity
  8
0
  6
CONTINUOUS
100
AcDbLine
 10
-73.0
 20
-178.543786053181
 11
-70.0
 21
-178.543786053181
  0
LINE
  5
65
330
20
100
AcDbEntity
  8
0
  6
CONTINUOUS
100
AcDbLine
 10
-73.0
 20
-139.45621394682
 11
-73.0
 21
-144.95621394682
  0
LINE
  5
66
330
20
100
AcDbEntity
  8
0
  6
CONTINUOUS
100
AcDbLine
 10
-73.0
 20
-173.043786053181
 11
-73.0
 21
-178.543786053181
  0
CIRCLE
  5
67
330
20
100
AcDbEntity
  8
0
  6
CONTINUOUS
100
AcDbCircle
 10
0.0
 20
0.0
 40
44.0
  0
LINE
  5
68
330
20
100
AcDbEntity
  8
0
  6
CONTINUOUS
100
AcDbLine
 10
-70.0
 20
25.9792249267665
 11
-48.0
 21
25.9792249267665
  0
LINE
  5
69
330
20
100
AcDbEntity
  8
0
  6
CONTINUOUS
100
AcDbLine
 10
-44.0
 20
8.0
 11
-44.0
 21
-8.0
  0
LINE
  5
6A
330
20
100
AcDbEntity
  8
0
  6
CONTINUOUS
100
AcDbLine
 10
-46.0
 20
23.9792249267665
 11
-46.0
 21
-24.0
  0
LINE
  5
6B
330
20
100
AcDbEntity
  8
0
  6
CONTINUOUS
100
AcDbLine
 10
-68.5
 20
25.9792249267665
 11
-68.5
 21
-26.0
  0
LINE
  5
6C
330
20
100
AcDbEntity
  8
0
  6
CONTINUOUS
100
AcDbLine
 10
-70.0
 20
25.9792249267665
 11
-70.0
 21
-26.0
  0
LINE
  5
6D
330
20
100
AcDbEntity
  8
0
  6
CONTINUOUS
100
AcDbLine
 10
-43.2666153055679
 20
8.0
 11
-46.0
 21
8.0
  0
LINE
  5
6E
330
20
100
AcDbEntity
  8
0
  6
CONTINUOUS
100
AcDbLine
 10
-43.2666153055679
 20
-8.0
 11
-46.0
 21
-8.0
  0
LINE
  5
6F
330
20
100
AcDbEntity
  8
0
  6
CONTINUOUS
100
AcDbLine
 10
-68.5
 20
-24.3926218353009
 11
-50.5
 21
-24.3926218353009
  0
LINE
  5
70
330
20
100
AcDbEntity
  8
0
  6
CONTINUOUS
100
AcDbLine
 10
-50.5
 20
-24.3926218353009
 11
-50.5
 21
-26.0
  0
LINE
  5
71
330
20
100
AcDbEntity
  8
0
  6
CONTINUOUS
100
AcDbLine
 10
-70.0
 20
-26.0
 11
-68.5
 21
-26.0
  0
LINE
  5
72
330
20
100
AcDbEntity
  8
0
  6
CONTINUOUS
100
AcDbLine
 10
-50.5
 20
-26.0
 11
-48.0
 21
-26.0
  0
LINE
  5
73
330
20
100
AcDbEntity
  8
0
  6
CONTINUOUS
100
AcDbLine
 10
-48.0
 20
25.9792249267665
 11
-46.0
 21
23.9792249267665
  0
LINE
  5
74
330
20
100
AcDbEntity
  8
0
  6
CONTINUOUS
100
AcDbLine
 10
-48.0
 20
-26.0
 11
-46.0
 21
-24.0
  0
LINE
  5
75
330
20
100
AcDbEntity
  8
0
  6
CONTINUOUS
100
AcDbLine
 10
-48.0
 20
-26.0
 11
-48.0
 21
25.9792249267665
  0
LINE
  5
76
330
20
100
AcDbEntity
  8
0
  6
CONTINUOUS
100
AcDbLine
 10
-46.0
 20
-135.0
 11
-48.0
 21
-133.0
  0
LINE
  5
77
330
20
100
AcDbEntity
  8
0
  6
CONTINUOUS
100
AcDbLine
 10
-46.0
 20
-183.0
 11
-48.0
 21
-185.0
  0
LINE
  5
78
330
20
100
AcDbEntity
  8
0
  6
CONTINUOUS
100
AcDbLine
 10
-48.0
 20
-133.0
 11
-48.0
 21
-185.0
  0
LINE
  5
79
330
20
100
AcDbEntity
  8
0
  6
CONTINUOUS
100
AcDbLine
 10
-56.0
 20
-40.8926218353009
 11
-56.0
 21
-50.8926218353009
  0
SPLINE
  5
7A
330
20
100
AcDbEntity
  8
0
  6
CONTINUOUS
100
AcDbSpline
210
0.0
220
0.0
230
1.0
 70
     8
 71
     3
 72
    19
 73
    15
 74
     0
 42
1.00000000000000E-007
 43
1.00000000000000E-007
 40
0.0
 40
0.0
 40
0.0
 40
0.0
 40
0.510615801396995
 40
1.01268944503387
 40
1.51968906836284
 40
2.22859668513333
 40
3.1724136275789
 40
4.25078057790731
 40
5.33970334857705
 40
6.31326010910275
 40
7.06084457093151
 40
7.56837722196058
 40
8.0341680146386
 40
8.51288540567201
 40
8.51288540567201
 40
8.51288540567201
 40
8.51288540567201
 10
-56.0000000355161
 20
-50.892621833005
 30
0.0
 10
-56.0323165269644
 20
-50.9956034648505
 30
0.0
 10
-56.1615824494374
 20
-51.4075299878682
 30
0.0
 10
-56.4177204769343
 20
-51.8207154768312
 30
0.0
 10
-56.8728218828674
 20
-52.0548847937315
 30
0.0
 10
-57.5863311247081
 20
-51.9171916226123
 30
0.0
 10
-58.4739155271377
 20
-51.5414668368876
 30
0.0
 10
-59.4510694286454
 20
-51.0372127095823
 30
0.0
 10
-60.4335809893404
 20
-50.5196271045586
 30
0.0
 10
-61.3362309429413
 20
-50.1054542300306
 30
0.0
 10
-62.0775390278603
 20
-49.8995572640398
 30
0.0
 10
-62.5620747091373
 20
-50.0527771931471
 30
0.0
 10
-62.8293521994758
 20
-50.4139158073428
 30
0.0
 10
-62.9658704453586
 20
-50.7968806297697
 30
0.0
 10
-63.0
 20
-50.8926218353009
 30
0.0
  0
SPLINE
  5
7B
330
20
100
AcDbEntity
  8
0
  6
CONTINUOUS
100
AcDbSpline
210
0.0
220
0.0
230
1.0
 70
     8
 71
     3
 72
    71
 73
    67
 74
     0
 42
1.00000000000000E-007
 43
1.00000000000000E-007
 40
0.0
 40
0.0
 40
0.0
 40
0.0
 40
0.0682823786748197
 40
0.136690537392612
 40
0.2051803356733
 40
0.273707679851525
 40
0.342228860939419
 40
0.410719418640875
 40
0.479184528759903
 40
0.547632004578213
 40
0.616069794436361
 40
0.684505428851234
 40
0.752941308977198
 40
0.821377182035274
 40
0.889813037059369
 40
0.958249157690652
 40
1.02668554114367
 40
1.09512137734754
 40
1.16355625455432
 40
1.23199036686532
 40
1.30042403935866
 40
1.36885563144145
 40
1.43728373763386
 40
1.50570826918305
 40
1.57412979100804
 40
1.64254472199127
 40
1.7109494369661
 40
1.77934345038601
 40
1.84776644282338
 40
1.91644164318241
 40
1.98565473313696
 40
2.05569280201188
 40
2.12652016077134
 40
2.19767176520214
 40
2.26868385199909
 40
2.33920689799914
 40
2.40909910887462
 40
2.47826471073425
 40
2.54663033759948
 40
2.61414886385358
 40
2.68081263148807
 40
2.74673171559839
 40
2.81210020066885
 40
2.87715396368696
 40
2.94216961310901
 40
3.00736849791412
 40
3.07280773293206
 40
3.13852555015877
 40
3.20456489863377
 40
3.27098148500257
 40
3.33781574857284
 40
3.40506367636212
 40
3.47268485382997
 40
3.54066903576355
 40
3.60902096979925
 40
3.67770432188335
 40
3.74665841819221
 40
3.81587479245507
 40
3.88534748732643
 40
3.95504324273931
 40
4.02473094003151
 40
4.09383881270602
 40
4.16174198554186
 40
4.22788294412773
 40
4.29210754120301
 40
4.35437933415272
 40
4.35437933415272
 40
4.35437933415272
 40
4.35437933415272
 10
-59.5000000006155
 20
-51.02013340586
 30
0.0
 10
-59.5124486589115
 20
-51.0274186518207
 30
0.0
 10
-59.5622433057465
 20
-51.0565596351931
 30
0.0
 10
-59.6170944352588
 20
-51.0886026088994
 30
0.0
 10
-59.6773973622182
 20
-51.1237685010266
 30
0.0
 10
-59.7363386363773
 20
-51.1580469091687
 30
0.0
 10
-59.795703696517
 20
-51.1924633239827
 30
0.0
 10
-59.8549902441354
 20
-51.2267023877814
 30
0.0
 10
-59.9143501568856
 20
-51.2608294717311
 30
0.0
 10
-59.9737636647125
 20
-51.2948098826669
 30
0.0
 10
-60.0332568330738
 20
-51.3286354516604
 30
0.0
 10
-60.0928440331243
 20
-51.3622919771203
 30
0.0
 10
-60.1525386411939
 20
-51.395759335741
 30
0.0
 10
-60.2123516639464
 20
-51.4290142509724
 30
0.0
 10
-60.2722947623477
 20
-51.4620340915022
 30
0.0
 10
-60.3323792515277
 20
-51.4947966191699
 30
0.0
 10
-60.3926172133916
 20
-51.5272772523978
 30
0.0
 10
-60.4530233014914
 20
-51.5594428076557
 30
0.0
 10
-60.5136118073707
 20
-51.5912613364694
 30
0.0
 10
-60.5743971868729
 20
-51.6227002738295
 30
0.0
 10
-60.6353936006232
 20
-51.6537282858154
 30
0.0
 10
-60.6966193329342
 20
-51.684296611154
 30
0.0
 10
-60.7580929851956
 20
-51.7143552252141
 30
0.0
 10
-60.8198332336408
 20
-51.7438535004984
 30
0.0
 10
-60.8818581415776
 20
-51.7727444695352
 30
0.0
 10
-60.9441906098241
 20
-51.8009506372409
 30
0.0
 10
-61.0068535921027
 20
-51.8283870382829
 30
0.0
 10
-61.0698736569052
 20
-51.8549710544382
 30
0.0
 10
-61.1332629071287
 20
-51.8806178388388
 30
0.0
 10
-61.1973193628806
 20
-51.905263246394
 30
0.0
 10
-61.2623371330089
 20
-51.9288312086079
 30
0.0
 10
-61.3286812334587
 20
-51.951293464432
 30
0.0
 10
-61.3963962242261
 20
-51.9724164874022
 30
0.0
 10
-61.4649948768944
 20
-51.9916314168362
 30
0.0
 10
-61.5340790987583
 20
-52.0084156964268
 30
0.0
 10
-61.6032595408453
 20
-52.0222921188517
 30
0.0
 10
-61.6723462513288
 20
-52.0331288451907
 30
0.0
 10
-61.7411273935803
 20
-52.0407568011127
 30
0.0
 10
-61.8093958575686
 20
-52.0450170059654
 30
0.0
 10
-61.8769475116985
 20
-52.0457473397643
 30
0.0
 10
-61.9435615840213
 20
-52.0427881462073
 30
0.0
 10
-62.0091342922037
 20
-52.0359672942426
 30
0.0
 10
-62.0736023395597
 20
-52.0251070525566
 30
0.0
 10
-62.1368886286993
 20
-52.010035974095
 30
0.0
 10
-62.1989333519108
 20
-51.9905627976331
 30
0.0
 10
-62.2596177747865
 20
-51.9665739431794
 30
0.0
 10
-62.3186379435096
 20
-51.9381975126537
 30
0.0
 10
-62.3757205008346
 20
-51.9055321578069
 30
0.0
 10
-62.4305685651047
 20
-51.8686665967194
 30
0.0
 10
-62.4829541335773
 20
-51.8277650388687
 30
0.0
 10
-62.5328131568196
 20
-51.7831874386373
 30
0.0
 10
-62.5800618686382
 20
-51.7352620017364
 30
0.0
 10
-62.6245996942571
 20
-51.6843282525997
 30
0.0
 10
-62.6664420676639
 20
-51.6307085567674
 30
0.0
 10
-62.7057008367952
 20
-51.5747145556914
 30
0.0
 10
-62.7424687958779
 20
-51.5166575050254
 30
0.0
 10
-62.7768369549619
 20
-51.4568587926495
 30
0.0
 10
-62.8089611030992
 20
-51.3955279005147
 30
0.0
 10
-62.839000514243
 20
-51.332872236518
 30
0.0
 10
-62.8671281453211
 20
-51.2690534708857
 30
0.0
 10
-62.8934596416304
 20
-51.2044283170286
 30
0.0
 10
-62.918035492226
 20
-51.1396350618608
 30
0.0
 10
-62.940730327301
 20
-51.0758428857462
 30
0.0
 10
-62.9621006868586
 20
-51.0120127198992
 30
0.0
 10
-62.9804372301396
 20
-50.9549858809142
 30
0.0
 10
-62.9960874487511
 20
-50.9050946443166
 30
0.0
 10
-63.0
 20
-50.8926218353009
 30
0.0
  0
LINE
  5
7C
330
20
100
AcDbEntity
  8
0
  6
CONTINUOUS
100
AcDbLine
 10
-63.0
 20
-40.8926218353009
 11
-63.0
 21
-50.8926218353009
  0
LINE
  5
7D
330
20
100
AcDbEntity
  8
0
  6
CONTINUOUS
100
AcDbLine
 10
-51.0
 20
-40.8926218353009
 11
-68.0
 21
-40.8926218353009
  0
LINE
  5
7E
330
20
100
AcDbEntity
  8
0
  6
CONTINUOUS
100
AcDbLine
 10
-51.0
 20
-25.3926218353009
 11
-51.0
 21
-40.8926218353009
  0
LINE
  5
7F
330
20
100
AcDbEntity
  8
0
  6
CONTINUOUS
100
AcDbLine
 10
-68.0
 20
-25.3926218353009
 11
-68.0
 21
-40.8926218353009
  0
LINE
  5
80
330
20
100
AcDbEntity
  8
0
  6
CONTINUOUS
100
AcDbLine
 10
-52.0
 20
-24.3926218353009
 11
-51.0
 21
-25.3926218353009
  0
LINE
  5
81
330
20
100
AcDbEntity
  8
0
  6
CONTINUOUS
100
AcDbLine
 10
-67.0
 20
-24.3926218353009
 11
-68.0
 21
-25.3926218353009
  0
LINE
  5
82
330
20
100
AcDbEntity
  8
0
  6
CONTINUOUS
100
AcDbLine
 10
-51.0
 20
-26.3926218353009
 11
-68.0
 21
-26.3926218353009
  0
LINE
  5
83
330
20
100
AcDbEntity
  8
0
  6
CONTINUOUS
100
AcDbLine
 10
-51.0
 20
-35.8926218353009
 11
-68.0
 21
-35.8926218353009
  0
CIRCLE
  5
84
330
20
100
AcDbEntity
  8
0
  6
CONTINUOUS
100
AcDbCircle
 10
0.0
 20
0.0
 40
43.5
  0
CIRCLE
  5
85
330
20
100
AcDbEntity
  8
0
  6
CONTINUOUS
100
AcDbCircle
 10
-59.5
 20
-159.0
 40
8.5
  0
CIRCLE
  5
86
330
20
100
AcDbEntity
  8
0
  6
CONTINUOUS
100
AcDbCircle
 10
-59.5
 20
-159.0
 40
3.7
  0
CIRCLE
  5
87
330
20
100
AcDbEntity
  8
0
  6
CONTINUOUS
100
AcDbCircle
 10
-59.5
 20
-159.0
 40
4.7
  0
LINE
  5
88
330
20
100
AcDbEntity
  8
0
  6
CONTINUOUS
100
AcDbLine
 10
-73.0
 20
19.5437860531805
 11
-70.0
 21
19.5437860531805
  0
LINE
  5
89
330
20
100
AcDbEntity
  8
0
  6
CONTINUOUS
100
AcDbLine
 10
-73.0
 20
14.0437860531805
 11
-70.0
 21
14.0437860531805
  0
LINE
  5
8A
330
20
100
AcDbEntity
  8
0
  6
CONTINUOUS
100
AcDbLine
 10
-73.0
 20
-14.0437860531805
 11
-70.0
 21
-14.0437860531805
  0
LINE
  5
8B
330
20
100
AcDbEntity
  8
0
  6
CONTINUOUS
100
AcDbLine
 10
-73.0
 20
-19.5437860531805
 11
-70.0
 21
-19.5437860531805
  0
LINE
  5
8C
330
20
100
AcDbEntity
  8
0
  6
CONTINUOUS
100
AcDbLine
 10
-73.0
 20
19.5437860531805
 11
-73.0
 21
14.0437860531805
  0
LINE
  5
8D
330
20
100
AcDbEntity
  8
0
  6
CONTINUOUS
100
AcDbLine
 10
-73.0
 20
-14.0437860531805
 11
-73.0
 21
-19.5437860531805
  0
LINE
  5
8E
330
20
100
AcDbEntity
  8
0
  6
CONTINUOUS
100
AcDbLine
 10
-27.0
 20
-104.0
 11
-27.0
 21
-97.5
  0
LINE
  5
8F
330
20
100
AcDbEntity
  8
0
  6
CONTINUOUS
100
AcDbLine
 10
27.0
 20
-104.0
 11
27.0
 21
-97.5
  0
LINE
  5
90
330
20
100
AcDbEntity
  8
0
  6
CONTINUOUS
100
AcDbLine
 10
-26.5
 20
-97.0
 11
26.5
 21
-97.0
  0
LINE
  5
91
330
20
100
AcDbEntity
  8
0
  6
CONTINUOUS
100
AcDbLine
 10
27.0
 20
-97.5
 11
26.5
 21
-97.0
  0
LINE
  5
92
330
20
100
AcDbEntity
  8
0
  6
CONTINUOUS
100
AcDbLine
 10
-27.0
 20
-97.5
 11
-26.5
 21
-97.0
  0
LINE
  5
93
330
20
100
AcDbEntity
  8
0
  6
CONTINUOUS
100
AcDbLine
 10
-27.0
 20
-97.5
 11
27.0
 21
-97.5
  0
LINE
  5
94
330
20
100
AcDbEntity
  8
0
  6
CONTINUOUS
100
AcDbLine
 10
-22.5
 20
-97.0
 11
-22.5
 21
-96.0
  0
LINE
  5
95
330
20
100
AcDbEntity
  8
0
  6
CONTINUOUS
100
AcDbLine
 10
22.5
 20
-97.0
 11
22.5
 21
-96.0
  0
LINE
  5
96
330
20
100
AcDbEntity
  8
0
  6
CONTINUOUS
100
AcDbLine
 10
-22.5
 20
-96.0
 11
22.5
 21
-96.0
  0
LINE
  5
97
330
20
100
AcDbEntity
  8
0
  6
CONTINUOUS
100
AcDbLine
 10
22.2072549937474
 20
-90.1529817433371
 11
22.5
 21
-96.0
  0
LINE
  5
98
330
20
100
AcDbEntity
  8
0
  6
CONTINUOUS
100
AcDbLine
 10
-22.2072549937474
 20
-90.1529817433371
 11
-22.5
 21
-96.0
  0
LINE
  5
99
330
20
100
AcDbEntity
  8
0
  6
CONTINUOUS
100
AcDbLine
 10
-22.25
 20
-91.0067310015712
 11
22.25
 21
-91.0067310015712
  0
CIRCLE
  5
9A
330
20
100
AcDbEntity
  8
0
  6
CONTINUOUS
100
AcDbCircle
 10
0.0
 20
0.0
 40
27.0
  0
CIRCLE
  5
9B
330
20
100
AcDbEntity
  8
0
  6
CONTINUOUS
100
AcDbCircle
 10
0.0
 20
0.0
 40
26.5
  0
CIRCLE
  5
9C
330
20
100
AcDbEntity
  8
0
  6
CONTINUOUS
100
AcDbCircle
 10
0.0
 20
0.0
 40
22.5
  0
CIRCLE
  5
9D
330
20
100
AcDbEntity
  8
0
  6
CONTINUOUS
100
AcDbCircle
 10
0.0
 20
0.0
 40
22.25
  0
LINE
  5
9E
330
20
100
AcDbEntity
  8
0
  6
CENTER
100
AcDbLine
 10
0.0
 20
49.0
 11
0.0
 21
-49.0
  0
LINE
  5
9F
330
20
100
AcDbEntity
  8
0
  6
CENTER
100
AcDbLine
 10
-75.0
 20
0.0
 11
49.0
 21
0.0
  0
LINE
  5
A0
330
20
100
AcDbEntity
  8
0
  6
CENTER
100
AcDbLine
 10
-74.0
 20
-159.0
 11
-45.0
 21
-159.0
  0
LINE
  5
A1
330
20
100
AcDbEntity
  8
0
  6
CENTER
100
AcDbLine
 10
-59.5
 20
-173.5
 11
-59.5
 21
-144.5
  0
LINE
  5
A2
330
20
100
AcDbEntity
  8
0
  6
CENTER
100
AcDbLine
 10
0.0
 20
-80.0
 11
0.0
 21
-235.0
  0
ARC
  5
A3
330
20
100
AcDbEntity
  8
0
  6
CONTINUOUS
100
AcDbCircle
 10
0.0
 20
-238.5
 40
150.0
100
AcDbArc
 50
81.4861565529829
 51
98.5138434470171
  0
LINE
  5
A4
330
20
100
AcDbEntity
  8
0
  6
CONTINUOUS
100
AcDbLine
 10
-22.2072549937474
 20
-90.1529817433371
 11
22.2072549937474
 21
-90.1529817433371
  0
ENDSEC
  0
SECTION
  2
OBJECTS
  0
DICTIONARY
  5
C
100
AcDbDictionary
281
     1
  3
ACAD_GROUP
350
D
  3
ACAD_MLINESTYLE
350
E
  3
ACDBVARIABLEDICTIONARY
350
A5
  3
ACAD_PLOTSTYLENAME
350
A6
  3
ACAD_LAYOUT
350
A7
  3
ACAD_PLOTSETTINGS
350
A8
  0
DICTIONARY
  5
D
102
{ACAD_REACTORS
330
C
102
}
330
C
100
AcDbDictionary
281
     1
  0
DICTIONARY
  5
E
102
{ACAD_REACTORS
330
C
102
}
330
C
100
AcDbDictionary
281
     1
  3
STANDARD
350
13
  0
DICTIONARY
  5
A5
102
{ACAD_REACTORS
330
C
102
}
330
C
100
AcDbDictionary
281
     1
  3
SORTENTS
350
A9
  0
ACDBDICTIONARYWDFLT
  5
A6
102
{ACAD_REACTORS
330
C
102
}
330
C
100
AcDbDictionary
281
     1
  3
Normal
350
AA
100
AcDbDictionaryWithDefault
340
AA
  0
DICTIONARY
  5
A7
102
{ACAD_REACTORS
330
C
102
}
330
C
100
AcDbDictionary
281
     1
  3
Model
350
AB
  3
Layout1
350
AC
  0
DICTIONARY
  5
A8
102
{ACAD_REACTORS
330
C
102
}
330
C
100
AcDbDictionary
281
     1
  0
MLINESTYLE
  5
13
102
{ACAD_REACTORS
330
E
102
}
330
E
100
AcDbMlineStyle
  2
STANDARD
 70
     0
  3

 62
   256
 51
90.0
 52
90.0
 71
     2
 49
0.5
 62
   256
  6
BYLAYER
 49
-0.5
 62
   256
  6
BYLAYER
  0
DICTIONARYVAR
  5
A9
102
{ACAD_REACTORS
330
A5
102
}
330
A5
100
DictionaryVariables
280
     0
  1
96
  0
ACDBPLACEHOLDER
  5
AA
102
{ACAD_REACTORS
330
A6
102
}
330
A6
  0
LAYOUT
  5
AB
102
{ACAD_REACTORS
330
A7
102
}
330
A7
100
AcDbPlotSettings
  1

  2

  4

  6

 40
0.0
 41
0.0
 42
0.0
 43
0.0
 44
0.0
 45
0.0
 46
0.0
 47
0.0
 48
0.0
 49
0.0
140
0.0
141
0.0
142
1.0
143
1.0
 70
  1712
 72
     0
 73
     0
 74
     0
  7

 75
     0
147
1.0
148
0.0
149
0.0
100
AcDbLayout
  1
Model
 70
     1
 71
     0
 10
0.0
 20
0.0
 11
297.0
 21
210.0
 12
0.0
 22
0.0
 32
0.0
 14
0.0
 24
0.0
 34
0.0
 15
0.0
 25
0.0
 35
0.0
146
0.0
 13
0.0
 23
0.0
 33
0.0
 16
1.0
 26
0.0
 36
0.0
 17
0.0
 27
1.0
 37
0.0
 76
     0
330
20
  0
LAYOUT
  5
AC
102
{ACAD_REACTORS
330
A7
102
}
330
A7
100
AcDbPlotSettings
  1

  2
none_device
  4

  6

 40
0.0
 41
0.0
 42
0.0
 43
0.0
 44
0.0
 45
0.0
 46
0.0
 47
0.0
 48
0.0
 49
0.0
140
0.0
141
0.0
142
1.0
143
1.0
 70
   688
 72
     0
 73
     0
 74
     5
  7

 75
    16
147
1.0
148
0.0
149
0.0
100
AcDbLayout
  1
Layout1
 70
     0
 71
     1
 10
-9.0
 20
-9.0
 11
288.0
 21
201.0
 12
0.0
 22
0.0
 32
0.0
 14
1.00000000000000E+020
 24
1.00000000000000E+020
 34
1.00000000000000E+020
 15
-1.00000000000000E+020
 25
-1.00000000000000E+020
 35
-1.00000000000000E+020
146
0.0
 13
0.0
 23
0.0
 33
0.0
 16
1.0
 26
0.0
 36
0.0
 17
0.0
 27
1.0
 37
0.0
 76
     0
330
22
  0
ENDSEC
  0
EOF
