  0
SECTION
  2
HEADER
  9
$ACADVER
  1
AC1015
  9
$ACADMAINTVER
 70
     0
  9
$DWGCODEPAGE
  3
ANSI_932
  9
$INSBASE
 10
0.0
 20
0.0
 30
0.0
  9
$EXTMIN
 10
-75.0
 20
-235.0
  9
$EXTMAX
 10
49.0
 20
49.0
  9
$LIMMIN
 10
-75.0
 20
-235.0
  9
$LIMMAX
 10
49.0
 20
49.0
  9
$ORTHOMODE
 70
     0
  9
$REGENMODE
 70
     1
  9
$FILLMODE
 70
     1
  9
$QTEXTMODE
 70
     0
  9
$MIRRTEXT
 70
     1
  9
$LTSCALE
 40
1.0
  9
$OSMODE
 70
     0
  9
$ATTMODE
 70
     1
  9
$TEXTSIZE
 40
3.0
  9
$TRACEWID
 40
0.5
  9
$TEXTSTYLE
  7
STANDARD
  9
$CLAYER
  8
0
  9
$CELTYPE
  6
BYLAYER
  9
$CECOLOR
 62
   256
  9
$CELTSCALE
 40
1.0
  9
$DISPSILH
 70
     0
  9
$DIMSCALE
 40
1.0
  9
$DIMASZ
 40
3.0
  9
$DIMEXO
 40
1.0
  9
$DIMDLI
 40
5.0
  9
$DIMRND
 40
0.0
  9
$DIMDLE
 40
5.0
  9
$DIMEXE
 40
2.0
  9
$DIMTP
 40
0.0
  9
$DIMTM
 40
0.0
  9
$DIMTXT
 40
3.0
  9
$DIMCEN
 40
2.0
  9
$DIMTSZ
 40
0.0
  9
$DIMTOL
 70
     0
  9
$DIMLIM
 70
     0
  9
$DIMTIH
 70
     0
  9
$DIMTOH
 70
     0
  9
$DIMSE1
 70
     0
  9
$DIMSE2
 70
     0
  9
$DIMTAD
 70
     1
  9
$DIMZIN
 70
     8
  9
$DIMBLK
  1

  9
$DIMASO
 70
     1
  9
$DIMSHO
 70
     1
  9
$DIMPOST
  1

  9
$DIMAPOST
  1

  9
$DIMALT
 70
     0
  9
$DIMALTD
 70
     0
  9
$DIMALTF
 40
25.4
  9
$DIMLFAC
 40
1.0
  9
$DIMTOFL
 70
     1
  9
$DIMTVP
 40
1.0
  9
$DIMTIX
 70
     0
  9
$DIMSOXD
 70
     0
  9
$DIMSAH
 70
     0
  9
$DIMBLK1
  1

  9
$DIMBLK2
  1

  9
$DIMSTYLE
  2
ISO-25
  9
$DIMCLRD
 70
     0
  9
$DIMCLRE
 70
     0
  9
$DIMCLRT
 70
     0
  9
$DIMTFAC
 40
1.0
  9
$DIMGAP
 40
1.0
  9
$DIMJUST
 70
     0
  9
$DIMSD1
 70
     0
  9
$DIMSD2
 70
     0
  9
$DIMTOLJ
 70
     0
  9
$DIMTZIN
 70
     8
  9
$DIMALTZ
 70
     0
  9
$DIMALTTZ
 70
     0
  9
$DIMUPT
 70
     0
  9
$DIMDEC
 70
     2
  9
$DIMTDEC
 70
     2
  9
$DIMALTU
 70
     2
  9
$DIMALTTD
 70
     3
  9
$DIMTXSTY
  7
STANDARD
  9
$DIMAUNIT
 70
     0
  9
$DIMADEC
 70
     0
  9
$DIMALTRND
 40
0.0
  9
$DIMAZIN
 70
     0
  9
$DIMDSEP
 70
    46
  9
$DIMATFIT
 70
     3
  9
$DIMFRAC
 70
     0
  9
$DIMLDRBLK
  1

  9
$DIMLUNIT
 70
     2
  9
$DIMLWD
 70
    -2
  9
$DIMLWE
 70
    -2
  9
$DIMTMOVE
 70
     0
  9
$LUNITS
 70
     2
  9
$LUPREC
 70
     4
  9
$SKETCHINC
 40
1.0
  9
$FILLETRAD
 40
0.0
  9
$AUNITS
 70
     0
  9
$AUPREC
 70
     0
  9
$MENU
  1
.
  9
$ELEVATION
 40
0.0
  9
$PELEVATION
 40
0.0
  9
$THICKNESS
 40
0.0
  9
$LIMCHECK
 70
     0
  9
$CHAMFERA
 40
0.0
  9
$CHAMFERB
 40
0.0
  9
$CHAMFERC
 40
0.0
  9
$CHAMFERD
 40
0.0
  9
$SKPOLY
 70
     0
  9
$TDCREATE
 40
2454089.426238426
  9
$TDUCREATE
 40
2454089.426238426
  9
$TDUPDATE
 40
2454089.426238426
  9
$TDUUPDATE
 40
2454089.426238426
  9
$TDINDWG
 40
0.0
  9
$TDUSRTIMER
 40
0.0
  9
$USRTIMER
 70
     1
  9
$ANGBASE
 50
0.0
  9
$ANGDIR
 70
     0
  9
$PDMODE
 70
     0
  9
$PDSIZE
 40
0.0
  9
$PLINEWID
 40
0.0
  9
$SPLFRAME
 70
     0
  9
$SPLINETYPE
 70
     6
  9
$SPLINESEGS
 70
     8
  9
$HANDSEED
  5
BA
  9
$SURFTAB1
 70
     6
  9
$SURFTAB2
 70
     6
  9
$SURFTYPE
 70
     6
  9
$SURFU
 70
     6
  9
$SURFV
 70
     6
  9
$UCSBASE
  2

  9
$UCSNAME
  2

  9
$UCSORG
 10
0.0
 20
0.0
 30
0.0
  9
$UCSXDIR
 10
1.0
 20
0.0
 30
0.0
  9
$UCSYDIR
 10
0.0
 20
1.0
 30
0.0
  9
$UCSORTHOREF
  2

  9
$UCSORTHOVIEW
 70
     0
  9
$UCSORGTOP
 10
0.0
 20
0.0
 30
0.0
  9
$UCSORGBOTTOM
 10
0.0
 20
0.0
 30
0.0
  9
$UCSORGLEFT
 10
0.0
 20
0.0
 30
0.0
  9
$UCSORGRIGHT
 10
0.0
 20
0.0
 30
0.0
  9
$UCSORGFRONT
 10
0.0
 20
0.0
 30
0.0
  9
$UCSORGBACK
 10
0.0
 20
0.0
 30
0.0
  9
$PUCSBASE
  2

  9
$PUCSNAME
  2

  9
$PUCSORG
 10
0.0
 20
0.0
 30
0.0
  9
$PUCSXDIR
 10
1.0
 20
0.0
 30
0.0
  9
$PUCSYDIR
 10
0.0
 20
1.0
 30
0.0
  9
$PUCSORTHOREF
  2

  9
$PUCSORTHOVIEW
 70
     0
  9
$PUCSORGTOP
 10
0.0
 20
0.0
 30
0.0
  9
$PUCSORGBOTTOM
 10
0.0
 20
0.0
 30
0.0
  9
$PUCSORGLEFT
 10
0.0
 20
0.0
 30
0.0
  9
$PUCSORGRIGHT
 10
0.0
 20
0.0
 30
0.0
  9
$PUCSORGFRONT
 10
0.0
 20
0.0
 30
0.0
  9
$PUCSORGBACK
 10
0.0
 20
0.0
 30
0.0
  9
$USERI1
 70
     0
  9
$USERI2
 70
     0
  9
$USERI3
 70
     0
  9
$USERI4
 70
     0
  9
$USERI5
 70
     0
  9
$USERR1
 40
0.0
  9
$USERR2
 40
0.0
  9
$USERR3
 40
0.0
  9
$USERR4
 40
0.0
  9
$USERR5
 40
0.0
  9
$WORLDVIEW
 70
     1
  9
$SHADEDGE
 70
     3
  9
$SHADEDIF
 70
    70
  9
$MAXACTVP
 70
    16
  9
$PINSBASE
 10
0.0
 20
0.0
 30
0.0
  9
$PLIMCHECK
 70
     0
  9
$PEXTMIN
 10
1.000000E+20
 20
1.000000E+20
 30
1.000000E+20
  9
$PEXTMAX
 10
-1.000000E+20
 20
-1.000000E+20
 30
-1.000000E+20
  9
$PLIMMIN
 10
-75.0
 20
-235.0
  9
$PLIMMAX
 10
49.0
 20
49.0
  9
$UNITMODE
 70
     0
  9
$VISRETAIN
 70
     0
  9
$PLINEGEN
 70
     0
  9
$PSLTSCALE
 70
     0
  9
$TREEDEPTH
 70
  3020
  9
$CMLSTYLE
  2
STANDARD
  9
$CMLJUST
 70
     0
  9
$CMLSCALE
 40
1.0
  9
$PROXYGRAPHICS
 70
     1
  9
$MEASUREMENT
 70
     0
  9
$CELWEIGHT
370
    -3
  9
$ENDCAPS
280
     0
  9
$JOINSTYLE
280
     0
  9
$LWDISPLAY
290
     1
  9
$INSUNITS
 70
     0
  9
$HYPERLINKBASE
  1

  9
$STYLESHEET
  1

  9
$XEDIT
290
     1
  9
$CEPSNTYPE
380
     0
  9
$PSTYLEMODE
290
     1
  9
$FINGERPRINTGUID
  2
{6F25CFC2-5053-11D3-9BE9-00805F4AB38E}
  9
$VERSIONGUID
  2
{6F25CFC5-5053-11D3-9BE9-00805F4AB38E}
  9
$EXTNAMES
290
     1
  9
$PSVPSCALE
 40
0.0
  9
$OLESTARTUP
290
     0
  0
ENDSEC
  0
SECTION
  2
CLASSES
  0
CLASS
  1
LWPOLYLINE
  2
AcDbPolyline
  3
AutoCAD 2000
 90
    32768
280
     0
281
     1
  0
CLASS
  1
DICTIONARYVAR
  2
AcDbDictionaryVar
  3
AutoCAD 2000
 90
        0
280
     0
281
     1
  0
CLASS
  1
ACDBDICTIONARYWDFLT
  2
AcDbDictionaryWithDefault
  3
AutoCAD 2000
 90
        0
280
     0
281
     1
  0
CLASS
  1
ACDBPLACEHOLDER
  2
AcDbPlaceHolder
  3
AutoCAD 2000
 90
        0
280
     0
281
     1
  0
CLASS
  1
LAYOUT
  2
AcDbLayout
  3
AutoCAD 2000
 90
        0
280
     0
281
     1
  0
CLASS
  1
HATCH
  2
AcDbHatch
  3
AutoCAD 2000
 90
        0
280
     0
281
     1
  0
ENDSEC
  0
SECTION
  2
TABLES
  0
TABLE
  2
VPORT
  5
8
100
AcDbSymbolTable
 70
     1
  0
VPORT
  5
B1
330
0
100
AcDbSymbolTableRecord
100
AcDbViewportTableRecord
  2
*ACTIVE
 70
     0
 10
0.0
 20
0.0
 11
1.0
 21
1.0
 12
-13.0
 22
-93.0
 13
0.0
 23
0.0
 14
0.0
 24
0.0
 15
0.0
 25
0.0
 16
0.0
 26
0.0
 36
1.0
 17
0.0
 27
0.0
 37
0.0
 40
284.0
 41
1.5
 42
50.0
 43
0.0
 44
0.0
 50
0.0
 51
0.0
 71
     0
 72
   100
 73
     1
 74
     1
 75
     0
 76
     0
 77
     0
 78
     0
281
     0
 65
     1
110
0.0
120
0.0
130
0.0
111
1.0
121
0.0
131
0.0
112
0.0
122
1.0
132
0.0
 79
     0
146
0.0
  0
ENDTAB
  0
TABLE
  2
LTYPE
  5
5
330
0
100
AcDbSymbolTable
 70
    20
  0
LTYPE
  5
B2
330
5
100
AcDbSymbolTableRecord
100
AcDbLinetypeTableRecord
  2
BYBLOCK
 70
     0
  3

 72
    65
 73
     0
 40
0.0
  0
LTYPE
  5
B3
330
5
100
AcDbSymbolTableRecord
100
AcDbLinetypeTableRecord
  2
BYLAYER
 70
     0
  3

 72
    65
 73
     0
 40
0.0
  0
LTYPE
  5
B4
330
5
100
AcDbSymbolTableRecord
100
AcDbLinetypeTableRecord
  2
CONTINUOUS
 70
    64
  3
solid line
 72
    65
 73
     0
 40
0.0
  0
LTYPE
  5
B5
330
0
100
AcDbSymbolTableRecord
100
AcDbLinetypeTableRecord
  2
CENTER
 70
    64
  3
--- - --- - --- - --- - --- - 
 72
    65
 73
     4
 40
6.0
 49
3.0
 74
     0
 49
-1.0
 74
     0
 49
1.0
 74
     0
 49
-1.0
 74
     0
  0
ENDTAB
  0
TABLE
  2
LAYER
  5
2
330
0
100
AcDbSymbolTable
 70
    20
  0
LAYER
  5
B6
330
2
100
AcDbSymbolTableRecord
100
AcDbLayerTableRecord
  2
0
 70
    64
 62
     7
  6
CONTINUOUS
370
    -3
390
AD
  0
LAYER
  5
25
330
2
100
AcDbSymbolTableRecord
100
AcDbLayerTableRecord
  2
100
 70
    64
 62
     7
  6
CONTINUOUS
370
    -3
390
AD
  0
ENDTAB
  0
TABLE
  2
STYLE
  5
3
330
0
100
AcDbSymbolTable
 70
     4
  0
STYLE
  5
B7
330
3
100
AcDbSymbolTableRecord
100
AcDbTextStyleTableRecord
  2
STANDARD
 70
    64
 40
0.0
 41
1.052631578947368
 50
0.0
 71
     0
 42
3.0
  3
monotxt
  4

  0
ENDTAB
  0
TABLE
  2
VIEW
  5
6
330
0
100
AcDbSymbolTable
 70
     0
  0
ENDTAB
  0
TABLE
  2
UCS
  5
7
330
0
100
AcDbSymbolTable
 70
     0
  0
ENDTAB
  0
TABLE
  2
APPID
  5
9
330
0
100
AcDbSymbolTable
 70
     1
  0
APPID
  5
B8
330
9
100
AcDbSymbolTableRecord
100
AcDbRegAppTableRecord
  2
ACAD
 70
     0
  0
ENDTAB
  0
TABLE
  2
DIMSTYLE
  5
A
330
0
100
AcDbSymbolTable
 70
     8
100
AcDbDimStyleTable
 71
     0
  0
DIMSTYLE
105
B9
330
A
100
AcDbSymbolTableRecord
100
AcDbDimStyleTableRecord
  2
ISO-25
 70
     0
  3

  4

  5

  6

  7

 40
1.0
 41
3.0
 42
1.0
 43
5.0
 44
2.0
 45
0.0
 46
5.0
 47
0.0
 48
0.0
140
3.0
141
2.0
142
0.0
143
25.4
144
1.0
145
1.0
146
1.0
147
1.0
 71
     0
 72
     0
 73
     0
 74
     0
 75
     0
 76
     0
 77
     1
 78
     8
170
     0
171
     0
172
     1
173
     0
174
     0
175
     0
176
     0
177
     0
178
     0
270
     0
271
     2
272
     2
273
     2
274
     3
340
B7
275
     0
277
     2
280
     0
281
     0
282
     0
283
     0
284
     8
285
     0
286
     0
287
     3
288
     0
  0
ENDTAB
  0
TABLE
  2
BLOCK_RECORD
  5
1
330
0
100
AcDbSymbolTable
 70
     2
  0
BLOCK_RECORD
  5
20
330
1
100
AcDbSymbolTableRecord
100
AcDbBlockTableRecord
  2
*MODEL_SPACE
340
AE
  0
BLOCK_RECORD
  5
22
330
1
100
AcDbSymbolTableRecord
100
AcDbBlockTableRecord
  2
*PAPER_SPACE
340
0
  0
ENDTAB
  0
ENDSEC
  0
SECTION
  2
BLOCKS
  0
BLOCK
  5
21
330
20
100
AcDbEntity
  8
0
100
AcDbBlockBegin
  2
*MODEL_SPACE
 70
     0
 10
0.0
 20
0.0
 30
0.0
  3
*MODEL_SPACE
  1

  0
ENDBLK
  5
AF
330
20
100
AcDbEntity
  8
0
100
AcDbBlockEnd
  0
BLOCK
  5
23
330
22
100
AcDbEntity
 67
     1
  8
0
100
AcDbBlockBegin
  2
*PAPER_SPACE
 70
     0
 10
0.0
 20
0.0
 30
0.0
  3
*PAPER_SPACE
  1

  0
ENDBLK
  5
B0
330
22
100
AcDbEntity
 67
     1
  8
0
100
AcDbBlockEnd
  0
ENDSEC
  0
SECTION
  2
ENTITIES
  0
LINE
  5
24
330
20
100
AcDbEntity
  8
100
  6
CONTINUOUS
100
AcDbLine
 10
-43.5
 20
-200.0
 11
43.5
 21
-200.0
  0
LINE
  5
26
330
20
100
AcDbEntity
  8
100
  6
CONTINUOUS
100
AcDbLine
 10
-44.0
 20
-118.6
 11
44.0
 21
-118.6
  0
LINE
  5
27
330
20
100
AcDbEntity
  8
100
  6
CONTINUOUS
100
AcDbLine
 10
-44.0
 20
-120.6
 11
44.0
 21
-120.6
  0
ARC
  5
28
330
20
100
AcDbEntity
  8
100
  6
CONTINUOUS
100
AcDbCircle
 10
-43.5
 20
-119.6
 40
1.0
100
AcDbArc
 50
0.0
 51
90.0
  0
ARC
  5
29
330
20
100
AcDbEntity
  8
100
  6
CONTINUOUS
100
AcDbCircle
 10
-43.5
 20
-119.6
 40
1.0
100
AcDbArc
 50
270.0
 51
0.0
  0
ARC
  5
2A
330
20
100
AcDbEntity
  8
100
  6
CONTINUOUS
100
AcDbCircle
 10
43.5
 20
-119.6
 40
1.0
100
AcDbArc
 50
90.0
 51
270.0
  0
LINE
  5
2B
330
20
100
AcDbEntity
  8
100
  6
CONTINUOUS
100
AcDbLine
 10
44.0
 20
-118.0
 11
44.0
 21
-118.6
  0
LINE
  5
2C
330
20
100
AcDbEntity
  8
100
  6
CONTINUOUS
100
AcDbLine
 10
-44.0
 20
-120.6
 11
-44.0
 21
-199.5
  0
LINE
  5
2D
330
20
100
AcDbEntity
  8
100
  6
CONTINUOUS
100
AcDbLine
 10
-44.0
 20
-118.0
 11
-44.0
 21
-118.6
  0
LINE
  5
2E
330
20
100
AcDbEntity
  8
100
  6
CONTINUOUS
100
AcDbLine
 10
-43.5
 20
-104.0
 11
43.5
 21
-104.0
  0
LINE
  5
2F
330
20
100
AcDbEntity
  8
100
  6
CONTINUOUS
100
AcDbLine
 10
-44.0
 20
-117.4
 11
44.0
 21
-117.4
  0
LINE
  5
30
330
20
100
AcDbEntity
  8
100
  6
CONTINUOUS
100
AcDbLine
 10
-44.0
 20
-115.4
 11
44.0
 21
-115.4
  0
ARC
  5
31
330
20
100
AcDbEntity
  8
100
  6
CONTINUOUS
100
AcDbCircle
 10
43.5
 20
-116.4
 40
1.0
100
AcDbArc
 50
90.0
 51
270.0
  0
ARC
  5
32
330
20
100
AcDbEntity
  8
100
  6
CONTINUOUS
100
AcDbCircle
 10
-43.5
 20
-116.4
 40
1.0
100
AcDbArc
 50
0.0
 51
90.0
  0
ARC
  5
33
330
20
100
AcDbEntity
  8
100
  6
CONTINUOUS
100
AcDbCircle
 10
-43.5
 20
-116.4
 40
1.0
100
AcDbArc
 50
270.0
 51
0.0
  0
LINE
  5
34
330
20
100
AcDbEntity
  8
100
  6
CONTINUOUS
100
AcDbLine
 10
44.0
 20
-104.5
 11
44.0
 21
-115.4
  0
LINE
  5
35
330
20
100
AcDbEntity
  8
100
  6
CONTINUOUS
100
AcDbLine
 10
44.0
 20
-117.4
 11
44.0
 21
-118.0
  0
LINE
  5
36
330
20
100
AcDbEntity
  8
100
  6
CONTINUOUS
100
AcDbLine
 10
-44.0
 20
-104.5
 11
-44.0
 21
-115.4
  0
LINE
  5
37
330
20
100
AcDbEntity
  8
100
  6
CONTINUOUS
100
AcDbLine
 10
-44.0
 20
-117.4
 11
-44.0
 21
-118.0
  0
LINE
  5
38
330
20
100
AcDbEntity
  8
100
  6
CONTINUOUS
100
AcDbLine
 10
-43.5
 20
-104.0
 11
-44.0
 21
-104.5
  0
LINE
  5
39
330
20
100
AcDbEntity
  8
100
  6
CONTINUOUS
100
AcDbLine
 10
44.0
 20
-104.5
 11
43.5
 21
-104.0
  0
LINE
  5
3A
330
20
100
AcDbEntity
  8
100
  6
CONTINUOUS
100
AcDbLine
 10
-44.0
 20
-104.5
 11
44.0
 21
-104.5
  0
LINE
  5
3B
330
20
100
AcDbEntity
  8
100
  6
CONTINUOUS
100
AcDbLine
 10
-43.5
 20
-200.0
 11
-44.0
 21
-199.5
  0
LINE
  5
3C
330
20
100
AcDbEntity
  8
100
  6
CONTINUOUS
100
AcDbLine
 10
43.5
 20
-200.0
 11
44.0
 21
-199.5
  0
LINE
  5
3D
330
20
100
AcDbEntity
  8
100
  6
CONTINUOUS
100
AcDbLine
 10
-41.0
 20
-207.0
 11
41.0
 21
-207.0
  0
LINE
  5
3E
330
20
100
AcDbEntity
  8
100
  6
CONTINUOUS
100
AcDbLine
 10
-40.5
 20
-227.0
 11
40.5
 21
-227.0
  0
LINE
  5
3F
330
20
100
AcDbEntity
  8
100
  6
CONTINUOUS
100
AcDbLine
 10
-41.0
 20
-207.5
 11
-41.0
 21
-226.5
  0
LINE
  5
40
330
20
100
AcDbEntity
  8
100
  6
CONTINUOUS
100
AcDbLine
 10
41.0
 20
-207.5
 11
41.0
 21
-226.5
  0
LINE
  5
41
330
20
100
AcDbEntity
  8
100
  6
CONTINUOUS
100
AcDbLine
 10
-35.0
 20
-202.0
 11
35.0
 21
-202.0
  0
LINE
  5
42
330
20
100
AcDbEntity
  8
100
  6
CONTINUOUS
100
AcDbLine
 10
40.5
 20
-227.0
 11
41.0
 21
-226.5
  0
LINE
  5
43
330
20
100
AcDbEntity
  8
100
  6
CONTINUOUS
100
AcDbLine
 10
-40.5
 20
-227.0
 11
-41.0
 21
-226.5
  0
LINE
  5
44
330
20
100
AcDbEntity
  8
100
  6
CONTINUOUS
100
AcDbLine
 10
-41.0
 20
-207.5
 11
-40.5
 21
-207.0
  0
LINE
  5
45
330
20
100
AcDbEntity
  8
100
  6
CONTINUOUS
100
AcDbLine
 10
41.0
 20
-207.5
 11
40.5
 21
-207.0
  0
LINE
  5
46
330
20
100
AcDbEntity
  8
100
  6
CONTINUOUS
100
AcDbLine
 10
-41.0
 20
-226.5
 11
41.0
 21
-226.5
  0
LINE
  5
47
330
20
100
AcDbEntity
  8
100
  6
CONTINUOUS
100
AcDbLine
 10
41.0
 20
-207.5
 11
-41.0
 21
-207.5
  0
LINE
  5
48
330
20
100
AcDbEntity
  8
100
  6
CONTINUOUS
100
AcDbLine
 10
44.0
 20
-120.6
 11
44.0
 21
-199.5
  0
LINE
  5
49
330
20
100
AcDbEntity
  8
100
  6
CONTINUOUS
100
AcDbLine
 10
41.0
 20
-203.0
 11
41.0
 21
-207.0
  0
LINE
  5
4A
330
20
100
AcDbEntity
  8
100
  6
CONTINUOUS
100
AcDbLine
 10
-41.0
 20
-203.0
 11
-41.0
 21
-207.0
  0
LINE
  5
4B
330
20
100
AcDbEntity
  8
100
  6
CONTINUOUS
100
AcDbLine
 10
-41.0
 20
-203.0
 11
41.0
 21
-203.0
  0
LINE
  5
4C
330
20
100
AcDbEntity
  8
100
  6
CONTINUOUS
100
AcDbLine
 10
-36.5
 20
-202.0
 11
-36.5
 21
-203.0
  0
LINE
  5
4D
330
20
100
AcDbEntity
  8
100
  6
CONTINUOUS
100
AcDbLine
 10
36.5
 20
-202.0
 11
36.5
 21
-203.0
  0
LINE
  5
4E
330
20
100
AcDbEntity
  8
100
  6
CONTINUOUS
100
AcDbLine
 10
-36.5
 20
-202.0
 11
36.5
 21
-202.0
  0
LINE
  5
4F
330
20
100
AcDbEntity
  8
100
  6
CONTINUOUS
100
AcDbLine
 10
-39.5
 20
-200.0
 11
-36.5
 21
-202.0
  0
LINE
  5
50
330
20
100
AcDbEntity
  8
100
  6
CONTINUOUS
100
AcDbLine
 10
39.5
 20
-200.0
 11
36.5
 21
-202.0
  0
LINE
  5
51
330
20
100
AcDbEntity
  8
100
  6
CONTINUOUS
100
AcDbLine
 10
-44.0
 20
-199.5
 11
44.0
 21
-199.5
  0
LINE
  5
52
330
20
100
AcDbEntity
  8
100
  6
CONTINUOUS
100
AcDbLine
 10
-46.0
 20
-151.0
 11
-44.0
 21
-151.0
  0
LINE
  5
53
330
20
100
AcDbEntity
  8
100
  6
CONTINUOUS
100
AcDbLine
 10
-46.0
 20
-167.0
 11
-44.0
 21
-167.0
  0
LINE
  5
54
330
20
100
AcDbEntity
  8
100
  6
CONTINUOUS
100
AcDbLine
 10
-46.0
 20
-135.0
 11
-46.0
 21
-183.0
  0
LINE
  5
55
330
20
100
AcDbEntity
  8
100
  6
CONTINUOUS
100
AcDbLine
 10
-70.0
 20
-133.0
 11
-48.0
 21
-133.0
  0
LINE
  5
56
330
20
100
AcDbEntity
  8
100
  6
CONTINUOUS
100
AcDbLine
 10
-70.0
 20
-185.0
 11
-48.0
 21
-185.0
  0
LINE
  5
57
330
20
100
AcDbEntity
  8
100
  6
CONTINUOUS
100
AcDbLine
 10
-68.5
 20
-133.0
 11
-68.5
 21
-185.0
  0
LINE
  5
58
330
20
100
AcDbEntity
  8
100
  6
CONTINUOUS
100
AcDbLine
 10
-70.0
 20
-133.0
 11
-70.0
 21
-185.0
  0
LINE
  5
59
330
20
100
AcDbEntity
  8
100
  6
CONTINUOUS
100
AcDbLine
 10
-68.5
 20
-150.0
 11
-62.54138126514908
 21
-150.0
  0
LINE
  5
5A
330
20
100
AcDbEntity
  8
100
  6
CONTINUOUS
100
AcDbLine
 10
-68.5
 20
-168.0
 11
-62.54138126514908
 21
-168.0
  0
LINE
  5
5B
330
20
100
AcDbEntity
  8
100
  6
CONTINUOUS
100
AcDbLine
 10
-51.0
 20
-154.7573593128807
 11
-51.0
 21
-163.2426406871193
  0
ARC
  5
5C
330
20
100
AcDbEntity
  8
100
  6
CONTINUOUS
100
AcDbCircle
 10
-59.5
 20
-159.0
 40
9.0
100
AcDbArc
 50
0.0
 51
19.18813645372098
  0
ARC
  5
5D
330
20
100
AcDbEntity
  8
100
  6
CONTINUOUS
100
AcDbCircle
 10
-59.5
 20
-159.0
 40
9.0
100
AcDbArc
 50
340.811863546279
 51
0.0
  0
ARC
  5
5E
330
20
100
AcDbEntity
  8
100
  6
CONTINUOUS
100
AcDbCircle
 10
-59.5
 20
-159.0
 40
9.5
100
AcDbArc
 50
26.52535201660972
 51
153.4746479833903
  0
ARC
  5
5F
330
20
100
AcDbEntity
  8
100
  6
CONTINUOUS
100
AcDbCircle
 10
-59.5
 20
-159.0
 40
9.5
100
AcDbArc
 50
206.5253520166097
 51
333.4746479833903
  0
LINE
  5
60
330
20
100
AcDbEntity
  8
100
  6
CONTINUOUS
100
AcDbLine
 10
-68.0
 20
-154.7573593128807
 11
-68.0
 21
-163.2426406871193
  0
CIRCLE
  5
61
330
20
100
AcDbEntity
  8
100
  6
CONTINUOUS
100
AcDbCircle
 10
-59.5
 20
-159.0
 40
3.5
  0
LINE
  5
62
330
20
100
AcDbEntity
  8
100
  6
CONTINUOUS
100
AcDbLine
 10
-73.0
 20
-139.4562139468195
 11
-70.0
 21
-139.4562139468195
  0
LINE
  5
63
330
20
100
AcDbEntity
  8
100
  6
CONTINUOUS
100
AcDbLine
 10
-73.0
 20
-144.9562139468195
 11
-70.0
 21
-144.9562139468195
  0
LINE
  5
64
330
20
100
AcDbEntity
  8
100
  6
CONTINUOUS
100
AcDbLine
 10
-73.0
 20
-173.0437860531805
 11
-70.0
 21
-173.0437860531805
  0
LINE
  5
65
330
20
100
AcDbEntity
  8
100
  6
CONTINUOUS
100
AcDbLine
 10
-73.0
 20
-178.5437860531805
 11
-70.0
 21
-178.5437860531805
  0
LINE
  5
66
330
20
100
AcDbEntity
  8
100
  6
CONTINUOUS
100
AcDbLine
 10
-73.0
 20
-139.4562139468195
 11
-73.0
 21
-144.9562139468195
  0
LINE
  5
67
330
20
100
AcDbEntity
  8
100
  6
CONTINUOUS
100
AcDbLine
 10
-73.0
 20
-173.0437860531805
 11
-73.0
 21
-178.5437860531805
  0
CIRCLE
  5
68
330
20
100
AcDbEntity
  8
100
  6
CONTINUOUS
100
AcDbCircle
 10
0.0
 20
0.0
 40
44.0
  0
LINE
  5
69
330
20
100
AcDbEntity
  8
100
  6
CONTINUOUS
100
AcDbLine
 10
-70.0
 20
25.97922492676651
 11
-48.0
 21
25.97922492676651
  0
LINE
  5
6A
330
20
100
AcDbEntity
  8
100
  6
CONTINUOUS
100
AcDbLine
 10
-44.0
 20
8.0
 11
-44.0
 21
-8.0
  0
LINE
  5
6B
330
20
100
AcDbEntity
  8
100
  6
CONTINUOUS
100
AcDbLine
 10
-46.0
 20
23.97922492676651
 11
-46.0
 21
-24.0
  0
LINE
  5
6C
330
20
100
AcDbEntity
  8
100
  6
CONTINUOUS
100
AcDbLine
 10
-68.5
 20
25.97922492676651
 11
-68.5
 21
-26.0
  0
LINE
  5
6D
330
20
100
AcDbEntity
  8
100
  6
CONTINUOUS
100
AcDbLine
 10
-70.0
 20
25.97922492676651
 11
-70.0
 21
-26.0
  0
LINE
  5
6E
330
20
100
AcDbEntity
  8
100
  6
CONTINUOUS
100
AcDbLine
 10
-43.26661530556788
 20
8.0
 11
-46.0
 21
8.0
  0
LINE
  5
6F
330
20
100
AcDbEntity
  8
100
  6
CONTINUOUS
100
AcDbLine
 10
-43.26661530556788
 20
-8.0
 11
-46.0
 21
-8.0
  0
LINE
  5
70
330
20
100
AcDbEntity
  8
100
  6
CONTINUOUS
100
AcDbLine
 10
-68.5
 20
-24.39262183530093
 11
-50.5
 21
-24.39262183530093
  0
LINE
  5
71
330
20
100
AcDbEntity
  8
100
  6
CONTINUOUS
100
AcDbLine
 10
-50.5
 20
-24.39262183530093
 11
-50.5
 21
-26.0
  0
LINE
  5
72
330
20
100
AcDbEntity
  8
100
  6
CONTINUOUS
100
AcDbLine
 10
-70.0
 20
-26.0
 11
-68.5
 21
-26.0
  0
LINE
  5
73
330
20
100
AcDbEntity
  8
100
  6
CONTINUOUS
100
AcDbLine
 10
-50.5
 20
-26.0
 11
-48.0
 21
-26.0
  0
LINE
  5
74
330
20
100
AcDbEntity
  8
100
  6
CONTINUOUS
100
AcDbLine
 10
-48.0
 20
25.97922492676651
 11
-46.0
 21
23.97922492676651
  0
LINE
  5
75
330
20
100
AcDbEntity
  8
100
  6
CONTINUOUS
100
AcDbLine
 10
-48.0
 20
-26.0
 11
-46.0
 21
-24.0
  0
LINE
  5
76
330
20
100
AcDbEntity
  8
100
  6
CONTINUOUS
100
AcDbLine
 10
-48.0
 20
-26.0
 11
-48.0
 21
25.97922492676651
  0
LINE
  5
77
330
20
100
AcDbEntity
  8
100
  6
CONTINUOUS
100
AcDbLine
 10
-46.0
 20
-135.0
 11
-48.0
 21
-133.0
  0
LINE
  5
78
330
20
100
AcDbEntity
  8
100
  6
CONTINUOUS
100
AcDbLine
 10
-46.0
 20
-183.0
 11
-48.0
 21
-185.0
  0
LINE
  5
79
330
20
100
AcDbEntity
  8
100
  6
CONTINUOUS
100
AcDbLine
 10
-48.0
 20
-133.0
 11
-48.0
 21
-185.0
  0
LINE
  5
7A
330
20
100
AcDbEntity
  8
100
  6
CONTINUOUS
100
AcDbLine
 10
-56.0
 20
-40.89262183530093
 11
-56.0
 21
-50.89262183530093
  0
SPLINE
  5
7B
330
20
100
AcDbEntity
  8
100
  6
CONTINUOUS
100
AcDbSpline
210
0.0
220
0.0
230
1.0
 70
     8
 71
     3
 72
    10
 73
     6
 74
     0
 42
1.000000000000000E-007
 43
1.000000000000000E-007
 40
0.0
 40
0.0
 40
0.0
 40
0.0
 40
2.120822796555285
 40
6.604378677317836
 40
8.601219222045916
 40
8.601219222045916
 40
8.601219222045916
 40
8.601219222045916
 10
-55.99999999999994
 20
-50.89262183530093
 30
0.0
 10
-56.1428571428573
 20
-51.34803780504711
 30
0.0
 10
-56.71428571428564
 20
-53.16970168403189
 30
0.0
 10
-62.28571428571426
 20
-48.88398739831764
 30
0.0
 10
-62.85714285714285
 20
-50.49089494790428
 30
0.0
 10
-63.0
 20
-50.89262183530093
 30
0.0
  0
SPLINE
  5
7C
330
20
100
AcDbEntity
  8
100
  6
CONTINUOUS
100
AcDbSpline
210
0.0
220
0.0
230
1.0
 70
     8
 71
     3
 72
    23
 73
    19
 74
     0
 42
1.000000000000000E-007
 43
1.000000000000000E-007
 40
0.0
 40
0.0
 40
0.0
 40
0.0
 40
0.3173620552872203
 40
0.6307416145697844
 40
0.9365128681421679
 40
1.231127113536892
 40
1.51116529575942
 40
1.773419010852516
 40
2.015024880476346
 40
2.233701206149521
 40
2.603650236232822
 40
2.908215911035276
 40
3.177438889520947
 40
3.432899803701901
 40
3.683651969257457
 40
3.927705480386688
 40
4.155797600740582
 40
4.354524002704833
 40
4.354524002704833
 40
4.354524002704833
 40
4.354524002704833
 10
-59.49999999999997
 20
-51.02013340588107
 30
0.0
 10
-59.59151785714283
 20
-51.0737048344525
 30
0.0
 10
-59.77455357142928
 20
-51.18063796861785
 30
0.0
 10
-60.04680524553587
 20
-51.33706028664541
 30
0.0
 10
-60.31445312500013
 20
-51.48615700716808
 30
0.0
 10
-60.57519531250008
 20
-51.62457991589981
 30
0.0
 10
-60.82672991071433
 20
-51.74898079855493
 30
0.0
 10
-61.06675502232148
 20
-51.85601144084767
 30
0.0
 10
-61.29296874999993
 20
-51.94232362849232
 30
0.0
 10
-61.57310267857142
 20
-52.02531765344023
 30
0.0
 10
-61.87723214285713
 20
-52.06052297657632
 30
0.0
 10
-62.17606026785717
 20
-52.01215417896685
 30
0.0
 10
-62.41629464285713
 20
-51.89221454348983
 30
0.0
 10
-62.60546874999996
 20
-51.7197484176505
 30
0.0
 10
-62.75111607142856
 20
-51.51380014895395
 30
0.0
 10
-62.86077008928572
 20
-51.29341408490546
 30
0.0
 10
-62.94196428571437
 20
-51.07763457301005
 30
0.0
 10
-62.98214285714285
 20
-50.9495488315192
 30
0.0
 10
-63.0
 20
-50.89262183530093
 30
0.0
  0
LINE
  5
7D
330
20
100
AcDbEntity
  8
100
  6
CONTINUOUS
100
AcDbLine
 10
-63.0
 20
-40.89262183530093
 11
-63.0
 21
-50.89262183530093
  0
LINE
  5
7E
330
20
100
AcDbEntity
  8
100
  6
CONTINUOUS
100
AcDbLine
 10
-51.0
 20
-40.89262183530093
 11
-68.0
 21
-40.89262183530093
  0
LINE
  5
7F
330
20
100
AcDbEntity
  8
100
  6
CONTINUOUS
100
AcDbLine
 10
-51.0
 20
-25.39262183530093
 11
-51.0
 21
-40.89262183530093
  0
LINE
  5
80
330
20
100
AcDbEntity
  8
100
  6
CONTINUOUS
100
AcDbLine
 10
-68.0
 20
-25.39262183530093
 11
-68.0
 21
-40.89262183530093
  0
LINE
  5
81
330
20
100
AcDbEntity
  8
100
  6
CONTINUOUS
100
AcDbLine
 10
-52.0
 20
-24.39262183530093
 11
-51.0
 21
-25.39262183530093
  0
LINE
  5
82
330
20
100
AcDbEntity
  8
100
  6
CONTINUOUS
100
AcDbLine
 10
-66.99999999999999
 20
-24.39262183530093
 11
-68.0
 21
-25.39262183530093
  0
LINE
  5
83
330
20
100
AcDbEntity
  8
100
  6
CONTINUOUS
100
AcDbLine
 10
-51.0
 20
-26.39262183530093
 11
-68.0
 21
-26.39262183530093
  0
LINE
  5
84
330
20
100
AcDbEntity
  8
100
  6
CONTINUOUS
100
AcDbLine
 10
-51.0
 20
-35.89262183530093
 11
-68.0
 21
-35.89262183530093
  0
CIRCLE
  5
85
330
20
100
AcDbEntity
  8
100
  6
CONTINUOUS
100
AcDbCircle
 10
0.0
 20
0.0
 40
43.5
  0
CIRCLE
  5
86
330
20
100
AcDbEntity
  8
100
  6
CONTINUOUS
100
AcDbCircle
 10
-59.5
 20
-159.0
 40
8.5
  0
CIRCLE
  5
87
330
20
100
AcDbEntity
  8
100
  6
CONTINUOUS
100
AcDbCircle
 10
-59.5
 20
-159.0
 40
3.7
  0
CIRCLE
  5
88
330
20
100
AcDbEntity
  8
100
  6
CONTINUOUS
100
AcDbCircle
 10
-59.5
 20
-159.0
 40
4.7
  0
LINE
  5
89
330
20
100
AcDbEntity
  8
100
  6
CONTINUOUS
100
AcDbLine
 10
-13.0
 20
-97.0
 11
-13.0
 21
-96.0
  0
LINE
  5
8A
330
20
100
AcDbEntity
  8
100
  6
CONTINUOUS
100
AcDbLine
 10
13.0
 20
-97.0
 11
13.0
 21
-96.0
  0
LINE
  5
8B
330
20
100
AcDbEntity
  8
100
  6
CONTINUOUS
100
AcDbLine
 10
-13.0
 20
-96.0
 11
13.0
 21
-96.0
  0
LINE
  5
8C
330
20
100
AcDbEntity
  8
100
  6
CONTINUOUS
100
AcDbLine
 10
12.75
 20
-89.31614294654597
 11
13.0
 21
-96.0
  0
LINE
  5
8D
330
20
100
AcDbEntity
  8
100
  6
CONTINUOUS
100
AcDbLine
 10
-12.75
 20
-89.31614294654597
 11
-13.0
 21
-96.0
  0
LINE
  5
8E
330
20
100
AcDbEntity
  8
100
  6
CONTINUOUS
100
AcDbLine
 10
-12.75
 20
-89.31614294654597
 11
12.75
 21
-89.31614294654597
  0
ARC
  5
8F
330
20
100
AcDbEntity
  8
100
  6
CONTINUOUS
100
AcDbCircle
 10
0.0
 20
-188.5
 40
100.0
100
AcDbArc
 50
82.67484934815997
 51
97.32515065184005
  0
LINE
  5
90
330
20
100
AcDbEntity
  8
100
  6
CONTINUOUS
100
AcDbLine
 10
-18.0
 20
-100.0
 11
18.0
 21
-100.0
  0
LINE
  5
91
330
20
100
AcDbEntity
  8
100
  6
CONTINUOUS
100
AcDbLine
 10
-17.5
 20
-97.0
 11
17.5
 21
-97.0
  0
LINE
  5
92
330
20
100
AcDbEntity
  8
100
  6
CONTINUOUS
100
AcDbLine
 10
18.0
 20
-100.0
 11
18.0
 21
-97.5
  0
LINE
  5
93
330
20
100
AcDbEntity
  8
100
  6
CONTINUOUS
100
AcDbLine
 10
-18.0
 20
-100.0
 11
-18.0
 21
-97.5
  0
LINE
  5
94
330
20
100
AcDbEntity
  8
100
  6
CONTINUOUS
100
AcDbLine
 10
-15.5
 20
-104.0
 11
-15.5
 21
-100.0
  0
LINE
  5
95
330
20
100
AcDbEntity
  8
100
  6
CONTINUOUS
100
AcDbLine
 10
15.5
 20
-104.0
 11
15.5
 21
-100.0
  0
LINE
  5
96
330
20
100
AcDbEntity
  8
100
  6
CONTINUOUS
100
AcDbLine
 10
-18.0
 20
-97.5
 11
-17.5
 21
-97.0
  0
LINE
  5
97
330
20
100
AcDbEntity
  8
100
  6
CONTINUOUS
100
AcDbLine
 10
18.0
 20
-97.5
 11
17.5
 21
-97.0
  0
LINE
  5
98
330
20
100
AcDbEntity
  8
100
  6
CONTINUOUS
100
AcDbLine
 10
-18.0
 20
-97.5
 11
18.0
 21
-97.5
  0
CIRCLE
  5
99
330
20
100
AcDbEntity
  8
100
  6
CONTINUOUS
100
AcDbCircle
 10
0.0
 20
0.0
 40
18.0
  0
CIRCLE
  5
9A
330
20
100
AcDbEntity
  8
100
  6
CONTINUOUS
100
AcDbCircle
 10
0.0
 20
0.0
 40
13.0
  0
CIRCLE
  5
9B
330
20
100
AcDbEntity
  8
100
  6
CONTINUOUS
100
AcDbCircle
 10
0.0
 20
0.0
 40
17.5
  0
CIRCLE
  5
9C
330
20
100
AcDbEntity
  8
100
  6
CONTINUOUS
100
AcDbCircle
 10
0.0
 20
0.0
 40
12.75
  0
LINE
  5
9D
330
20
100
AcDbEntity
  8
100
  6
CONTINUOUS
100
AcDbLine
 10
-73.0
 20
19.5437860531805
 11
-70.0
 21
19.5437860531805
  0
LINE
  5
9E
330
20
100
AcDbEntity
  8
100
  6
CONTINUOUS
100
AcDbLine
 10
-73.0
 20
14.0437860531805
 11
-70.0
 21
14.0437860531805
  0
LINE
  5
9F
330
20
100
AcDbEntity
  8
100
  6
CONTINUOUS
100
AcDbLine
 10
-73.0
 20
-14.0437860531805
 11
-70.0
 21
-14.0437860531805
  0
LINE
  5
A0
330
20
100
AcDbEntity
  8
100
  6
CONTINUOUS
100
AcDbLine
 10
-73.0
 20
-19.5437860531805
 11
-70.0
 21
-19.5437860531805
  0
LINE
  5
A1
330
20
100
AcDbEntity
  8
100
  6
CONTINUOUS
100
AcDbLine
 10
-73.0
 20
19.5437860531805
 11
-73.0
 21
14.0437860531805
  0
LINE
  5
A2
330
20
100
AcDbEntity
  8
100
  6
CONTINUOUS
100
AcDbLine
 10
-73.0
 20
-14.0437860531805
 11
-73.0
 21
-19.5437860531805
  0
LINE
  5
A3
330
20
100
AcDbEntity
  8
100
  6
CENTER
100
AcDbLine
 10
-74.0
 20
-159.0
 11
-45.0
 21
-159.0
  0
LINE
  5
A4
330
20
100
AcDbEntity
  8
100
  6
CENTER
100
AcDbLine
 10
-59.5
 20
-173.5
 11
-59.5
 21
-144.5
  0
LINE
  5
A5
330
20
100
AcDbEntity
  8
100
  6
CENTER
100
AcDbLine
 10
0.0
 20
49.0
 11
0.0
 21
-49.0
  0
LINE
  5
A6
330
20
100
AcDbEntity
  8
100
  6
CENTER
100
AcDbLine
 10
-75.0
 20
0.0
 11
49.0
 21
0.0
  0
LINE
  5
A7
330
20
100
AcDbEntity
  8
100
  6
CENTER
100
AcDbLine
 10
0.0
 20
-80.0
 11
0.0
 21
-235.0
  0
ENDSEC
  0
SECTION
  2
OBJECTS
  0
DICTIONARY
  5
C
100
AcDbDictionary
281
     1
  3
ACAD_GROUP
350
D
  3
ACAD_MLINESTYLE
350
E
  3
ACDBVARIABLEDICTIONARY
350
A8
  3
ACAD_PLOTSTYLENAME
350
A9
  3
ACAD_LAYOUT
350
AA
  3
ACAD_PLOTSETTINGS
350
AB
  0
DICTIONARY
  5
D
102
{ACAD_REACTORS
330
C
102
}
330
C
100
AcDbDictionary
281
     1
  0
DICTIONARY
  5
E
102
{ACAD_REACTORS
330
C
102
}
330
C
100
AcDbDictionary
281
     1
  3
STANDARD
350
13
  0
DICTIONARY
  5
A8
102
{ACAD_REACTORS
330
C
102
}
330
C
100
AcDbDictionary
281
     1
  3
SORTENTS
350
AC
  0
ACDBDICTIONARYWDFLT
  5
A9
102
{ACAD_REACTORS
330
C
102
}
330
C
100
AcDbDictionary
281
     1
  3
Normal
350
AD
100
AcDbDictionaryWithDefault
340
AD
  0
DICTIONARY
  5
AA
102
{ACAD_REACTORS
330
C
102
}
330
C
100
AcDbDictionary
281
     1
  3
Model
350
AE
  0
DICTIONARY
  5
AB
102
{ACAD_REACTORS
330
C
102
}
330
C
100
AcDbDictionary
281
     1
  0
MLINESTYLE
  5
13
102
{ACAD_REACTORS
330
E
102
}
330
E
100
AcDbMlineStyle
  2
STANDARD
 70
     0
  3

 62
   256
 51
90.0
 52
90.0
 71
     2
 49
0.5
 62
   256
  6
BYLAYER
 49
-0.5
 62
   256
  6
BYLAYER
  0
DICTIONARYVAR
  5
AC
102
{ACAD_REACTORS
330
A8
102
}
330
A8
100
DictionaryVariables
280
     0
  1
96
  0
ACDBPLACEHOLDER
  5
AD
102
{ACAD_REACTORS
330
A9
102
}
330
A9
  0
LAYOUT
  5
AE
102
{ACAD_REACTORS
330
AA
102
}
330
AA
100
AcDbPlotSettings
  1

  2

  4

  6

 40
0.0
 41
0.0
 42
0.0
 43
0.0
 44
0.0
 45
0.0
 46
0.0
 47
0.0
 48
0.0
 49
0.0
140
0.0
141
0.0
142
1.0
143
1.0
 70
  1712
 72
     0
 73
     0
 74
     0
  7

 75
     0
147
1.0
148
0.0
149
0.0
100
AcDbLayout
  1
Model
 70
     1
 71
     0
 10
0.0
 20
0.0
 11
297.0
 21
210.0
 12
0.0
 22
0.0
 32
0.0
 14
0.0
 24
0.0
 34
0.0
 15
0.0
 25
0.0
 35
0.0
146
0.0
 13
0.0
 23
0.0
 33
0.0
 16
1.0
 26
0.0
 36
0.0
 17
0.0
 27
1.0
 37
0.0
 76
     0
330
20
  0
ENDSEC
  0
EOF
