  0
SECTION
  2
HEADER
  9
$ACADVER
  1
AC1015
  9
$ACADMAINTVER
 70
     0
  9
$DWGCODEPAGE
  3
ANSI_932
  9
$INSBASE
 10
0.0
 20
0.0
 30
0.0
  9
$EXTMIN
 10
-112.4
 20
-108.1054220302029
  9
$EXTMAX
 10
102.5978414034474
 20
509.3301132074245
  9
$LIMMIN
 10
-112.4
 20
-108.1054220302029
  9
$LIMMAX
 10
102.5978414034474
 20
509.3301132074245
  9
$ORTHOMODE
 70
     0
  9
$REGENMODE
 70
     1
  9
$FILLMODE
 70
     1
  9
$QTEXTMODE
 70
     0
  9
$MIRRTEXT
 70
     1
  9
$LTSCALE
 40
1.0
  9
$OSMODE
 70
     0
  9
$ATTMODE
 70
     1
  9
$TEXTSIZE
 40
3.0
  9
$TRACEWID
 40
0.5
  9
$TEXTSTYLE
  7
STANDARD
  9
$CLAYER
  8
0
  9
$CELTYPE
  6
BYLAYER
  9
$CECOLOR
 62
   256
  9
$CELTSCALE
 40
1.0
  9
$DISPSILH
 70
     0
  9
$DIMSCALE
 40
1.0
  9
$DIMASZ
 40
3.0
  9
$DIMEXO
 40
1.0
  9
$DIMDLI
 40
5.0
  9
$DIMRND
 40
0.0
  9
$DIMDLE
 40
5.0
  9
$DIMEXE
 40
2.0
  9
$DIMTP
 40
0.0
  9
$DIMTM
 40
0.0
  9
$DIMTXT
 40
3.0
  9
$DIMCEN
 40
2.0
  9
$DIMTSZ
 40
0.0
  9
$DIMTOL
 70
     0
  9
$DIMLIM
 70
     0
  9
$DIMTIH
 70
     0
  9
$DIMTOH
 70
     0
  9
$DIMSE1
 70
     0
  9
$DIMSE2
 70
     0
  9
$DIMTAD
 70
     1
  9
$DIMZIN
 70
     8
  9
$DIMBLK
  1

  9
$DIMASO
 70
     1
  9
$DIMSHO
 70
     1
  9
$DIMPOST
  1

  9
$DIMAPOST
  1

  9
$DIMALT
 70
     0
  9
$DIMALTD
 70
     0
  9
$DIMALTF
 40
25.4
  9
$DIMLFAC
 40
1.0
  9
$DIMTOFL
 70
     1
  9
$DIMTVP
 40
1.0
  9
$DIMTIX
 70
     0
  9
$DIMSOXD
 70
     0
  9
$DIMSAH
 70
     0
  9
$DIMBLK1
  1

  9
$DIMBLK2
  1

  9
$DIMSTYLE
  2
ISO-25
  9
$DIMCLRD
 70
     0
  9
$DIMCLRE
 70
     0
  9
$DIMCLRT
 70
     0
  9
$DIMTFAC
 40
1.0
  9
$DIMGAP
 40
1.0
  9
$DIMJUST
 70
     0
  9
$DIMSD1
 70
     0
  9
$DIMSD2
 70
     0
  9
$DIMTOLJ
 70
     0
  9
$DIMTZIN
 70
     8
  9
$DIMALTZ
 70
     0
  9
$DIMALTTZ
 70
     0
  9
$DIMUPT
 70
     0
  9
$DIMDEC
 70
     2
  9
$DIMTDEC
 70
     2
  9
$DIMALTU
 70
     2
  9
$DIMALTTD
 70
     3
  9
$DIMTXSTY
  7
STANDARD
  9
$DIMAUNIT
 70
     0
  9
$DIMADEC
 70
     0
  9
$DIMALTRND
 40
0.0
  9
$DIMAZIN
 70
     0
  9
$DIMDSEP
 70
    46
  9
$DIMATFIT
 70
     3
  9
$DIMFRAC
 70
     0
  9
$DIMLDRBLK
  1

  9
$DIMLUNIT
 70
     2
  9
$DIMLWD
 70
    -2
  9
$DIMLWE
 70
    -2
  9
$DIMTMOVE
 70
     0
  9
$LUNITS
 70
     2
  9
$LUPREC
 70
     4
  9
$SKETCHINC
 40
1.0
  9
$FILLETRAD
 40
0.0
  9
$AUNITS
 70
     0
  9
$AUPREC
 70
     0
  9
$MENU
  1
.
  9
$ELEVATION
 40
0.0
  9
$PELEVATION
 40
0.0
  9
$THICKNESS
 40
0.0
  9
$LIMCHECK
 70
     0
  9
$CHAMFERA
 40
0.0
  9
$CHAMFERB
 40
0.0
  9
$CHAMFERC
 40
0.0
  9
$CHAMFERD
 40
0.0
  9
$SKPOLY
 70
     0
  9
$TDCREATE
 40
2454085.648055556
  9
$TDUCREATE
 40
2454085.648055556
  9
$TDUPDATE
 40
2454085.648055556
  9
$TDUUPDATE
 40
2454085.648055556
  9
$TDINDWG
 40
0.0
  9
$TDUSRTIMER
 40
0.0
  9
$USRTIMER
 70
     1
  9
$ANGBASE
 50
0.0
  9
$ANGDIR
 70
     0
  9
$PDMODE
 70
     0
  9
$PDSIZE
 40
0.0
  9
$PLINEWID
 40
0.0
  9
$SPLFRAME
 70
     0
  9
$SPLINETYPE
 70
     6
  9
$SPLINESEGS
 70
     8
  9
$HANDSEED
  5
E3
  9
$SURFTAB1
 70
     6
  9
$SURFTAB2
 70
     6
  9
$SURFTYPE
 70
     6
  9
$SURFU
 70
     6
  9
$SURFV
 70
     6
  9
$UCSBASE
  2

  9
$UCSNAME
  2

  9
$UCSORG
 10
0.0
 20
0.0
 30
0.0
  9
$UCSXDIR
 10
1.0
 20
0.0
 30
0.0
  9
$UCSYDIR
 10
0.0
 20
1.0
 30
0.0
  9
$UCSORTHOREF
  2

  9
$UCSORTHOVIEW
 70
     0
  9
$UCSORGTOP
 10
0.0
 20
0.0
 30
0.0
  9
$UCSORGBOTTOM
 10
0.0
 20
0.0
 30
0.0
  9
$UCSORGLEFT
 10
0.0
 20
0.0
 30
0.0
  9
$UCSORGRIGHT
 10
0.0
 20
0.0
 30
0.0
  9
$UCSORGFRONT
 10
0.0
 20
0.0
 30
0.0
  9
$UCSORGBACK
 10
0.0
 20
0.0
 30
0.0
  9
$PUCSBASE
  2

  9
$PUCSNAME
  2

  9
$PUCSORG
 10
0.0
 20
0.0
 30
0.0
  9
$PUCSXDIR
 10
1.0
 20
0.0
 30
0.0
  9
$PUCSYDIR
 10
0.0
 20
1.0
 30
0.0
  9
$PUCSORTHOREF
  2

  9
$PUCSORTHOVIEW
 70
     0
  9
$PUCSORGTOP
 10
0.0
 20
0.0
 30
0.0
  9
$PUCSORGBOTTOM
 10
0.0
 20
0.0
 30
0.0
  9
$PUCSORGLEFT
 10
0.0
 20
0.0
 30
0.0
  9
$PUCSORGRIGHT
 10
0.0
 20
0.0
 30
0.0
  9
$PUCSORGFRONT
 10
0.0
 20
0.0
 30
0.0
  9
$PUCSORGBACK
 10
0.0
 20
0.0
 30
0.0
  9
$USERI1
 70
     0
  9
$USERI2
 70
     0
  9
$USERI3
 70
     0
  9
$USERI4
 70
     0
  9
$USERI5
 70
     0
  9
$USERR1
 40
0.0
  9
$USERR2
 40
0.0
  9
$USERR3
 40
0.0
  9
$USERR4
 40
0.0
  9
$USERR5
 40
0.0
  9
$WORLDVIEW
 70
     1
  9
$SHADEDGE
 70
     3
  9
$SHADEDIF
 70
    70
  9
$MAXACTVP
 70
    16
  9
$PINSBASE
 10
0.0
 20
0.0
 30
0.0
  9
$PLIMCHECK
 70
     0
  9
$PEXTMIN
 10
1.000000E+20
 20
1.000000E+20
 30
1.000000E+20
  9
$PEXTMAX
 10
-1.000000E+20
 20
-1.000000E+20
 30
-1.000000E+20
  9
$PLIMMIN
 10
-112.4
 20
-108.1054220302029
  9
$PLIMMAX
 10
102.5978414034474
 20
509.3301132074245
  9
$UNITMODE
 70
     0
  9
$VISRETAIN
 70
     0
  9
$PLINEGEN
 70
     0
  9
$PSLTSCALE
 70
     0
  9
$TREEDEPTH
 70
  3020
  9
$CMLSTYLE
  2
STANDARD
  9
$CMLJUST
 70
     0
  9
$CMLSCALE
 40
1.0
  9
$PROXYGRAPHICS
 70
     1
  9
$MEASUREMENT
 70
     0
  9
$CELWEIGHT
370
    -3
  9
$ENDCAPS
280
     0
  9
$JOINSTYLE
280
     0
  9
$LWDISPLAY
290
     1
  9
$INSUNITS
 70
     0
  9
$HYPERLINKBASE
  1

  9
$STYLESHEET
  1

  9
$XEDIT
290
     1
  9
$CEPSNTYPE
380
     0
  9
$PSTYLEMODE
290
     1
  9
$FINGERPRINTGUID
  2
{6F25CFC2-5053-11D3-9BE9-00805F4AB38E}
  9
$VERSIONGUID
  2
{6F25CFC5-5053-11D3-9BE9-00805F4AB38E}
  9
$EXTNAMES
290
     1
  9
$PSVPSCALE
 40
0.0
  9
$OLESTARTUP
290
     0
  0
ENDSEC
  0
SECTION
  2
CLASSES
  0
CLASS
  1
LWPOLYLINE
  2
AcDbPolyline
  3
AutoCAD 2000
 90
    32768
280
     0
281
     1
  0
CLASS
  1
DICTIONARYVAR
  2
AcDbDictionaryVar
  3
AutoCAD 2000
 90
        0
280
     0
281
     1
  0
CLASS
  1
ACDBDICTIONARYWDFLT
  2
AcDbDictionaryWithDefault
  3
AutoCAD 2000
 90
        0
280
     0
281
     1
  0
CLASS
  1
ACDBPLACEHOLDER
  2
AcDbPlaceHolder
  3
AutoCAD 2000
 90
        0
280
     0
281
     1
  0
CLASS
  1
LAYOUT
  2
AcDbLayout
  3
AutoCAD 2000
 90
        0
280
     0
281
     1
  0
CLASS
  1
HATCH
  2
AcDbHatch
  3
AutoCAD 2000
 90
        0
280
     0
281
     1
  0
ENDSEC
  0
SECTION
  2
TABLES
  0
TABLE
  2
VPORT
  5
8
100
AcDbSymbolTable
 70
     1
  0
VPORT
  5
D8
330
0
100
AcDbSymbolTableRecord
100
AcDbViewportTableRecord
  2
*ACTIVE
 70
     0
 10
0.0
 20
0.0
 11
1.0
 21
1.0
 12
-4.901079298276272
 22
200.6123455886108
 13
0.0
 23
0.0
 14
0.0
 24
0.0
 15
0.0
 25
0.0
 16
0.0
 26
0.0
 36
1.0
 17
0.0
 27
0.0
 37
0.0
 40
617.4355352376274
 41
1.5
 42
50.0
 43
0.0
 44
0.0
 50
0.0
 51
0.0
 71
     0
 72
   100
 73
     1
 74
     1
 75
     0
 76
     0
 77
     0
 78
     0
281
     0
 65
     1
110
0.0
120
0.0
130
0.0
111
1.0
121
0.0
131
0.0
112
0.0
122
1.0
132
0.0
 79
     0
146
0.0
  0
ENDTAB
  0
TABLE
  2
LTYPE
  5
5
330
0
100
AcDbSymbolTable
 70
    20
  0
LTYPE
  5
D9
330
5
100
AcDbSymbolTableRecord
100
AcDbLinetypeTableRecord
  2
BYBLOCK
 70
     0
  3

 72
    65
 73
     0
 40
0.0
  0
LTYPE
  5
DA
330
5
100
AcDbSymbolTableRecord
100
AcDbLinetypeTableRecord
  2
BYLAYER
 70
     0
  3

 72
    65
 73
     0
 40
0.0
  0
LTYPE
  5
DB
330
5
100
AcDbSymbolTableRecord
100
AcDbLinetypeTableRecord
  2
CONTINUOUS
 70
    64
  3
solid line
 72
    65
 73
     0
 40
0.0
  0
LTYPE
  5
DC
330
0
100
AcDbSymbolTableRecord
100
AcDbLinetypeTableRecord
  2
DASHED
 70
    64
  3
-- -- -- -- -- -- -- -- -- -- 
 72
    65
 73
     2
 40
3.75
 49
2.5
 74
     0
 49
-1.25
 74
     0
  0
LTYPE
  5
DD
330
0
100
AcDbSymbolTableRecord
100
AcDbLinetypeTableRecord
  2
CENTER
 70
    64
  3
--- - --- - --- - --- - --- - 
 72
    65
 73
     4
 40
7.5
 49
3.75
 74
     0
 49
-1.25
 74
     0
 49
1.25
 74
     0
 49
-1.25
 74
     0
  0
ENDTAB
  0
TABLE
  2
LAYER
  5
2
330
0
100
AcDbSymbolTable
 70
    20
  0
LAYER
  5
DE
330
2
100
AcDbSymbolTableRecord
100
AcDbLayerTableRecord
  2
0
 70
    64
 62
     7
  6
CONTINUOUS
370
    -3
390
D4
  0
LAYER
  5
25
330
2
100
AcDbSymbolTableRecord
100
AcDbLayerTableRecord
  2
100
 70
    64
 62
     7
  6
CONTINUOUS
370
    -3
390
D4
  0
ENDTAB
  0
TABLE
  2
STYLE
  5
3
330
0
100
AcDbSymbolTable
 70
     4
  0
STYLE
  5
DF
330
3
100
AcDbSymbolTableRecord
100
AcDbTextStyleTableRecord
  2
STANDARD
 70
    64
 40
0.0
 41
1.052631578947368
 50
0.0
 71
     0
 42
3.75
  3
monotxt
  4

  0
ENDTAB
  0
TABLE
  2
VIEW
  5
6
330
0
100
AcDbSymbolTable
 70
     0
  0
ENDTAB
  0
TABLE
  2
UCS
  5
7
330
0
100
AcDbSymbolTable
 70
     0
  0
ENDTAB
  0
TABLE
  2
APPID
  5
9
330
0
100
AcDbSymbolTable
 70
     1
  0
APPID
  5
E0
330
9
100
AcDbSymbolTableRecord
100
AcDbRegAppTableRecord
  2
ACAD
 70
     0
  0
ENDTAB
  0
TABLE
  2
DIMSTYLE
  5
A
330
0
100
AcDbSymbolTable
 70
     8
100
AcDbDimStyleTable
 71
     0
  0
DIMSTYLE
105
E1
330
A
100
AcDbSymbolTableRecord
100
AcDbDimStyleTableRecord
  2
ISO-25
 70
     0
  3

  4

  5

  6

  7

 40
1.0
 41
3.0
 42
1.0
 43
5.0
 44
2.0
 45
0.0
 46
5.0
 47
0.0
 48
0.0
140
3.0
141
2.0
142
0.0
143
25.4
144
1.0
145
1.0
146
1.0
147
1.0
 71
     0
 72
     0
 73
     0
 74
     0
 75
     0
 76
     0
 77
     1
 78
     8
170
     0
171
     0
172
     1
173
     0
174
     0
175
     0
176
     0
177
     0
178
     0
270
     0
271
     2
272
     2
273
     2
274
     3
340
DF
275
     0
277
     2
280
     0
281
     0
282
     0
283
     0
284
     8
285
     0
286
     0
287
     3
288
     0
  0
DIMSTYLE
105
E2
330
A
100
AcDbSymbolTableRecord
100
AcDbDimStyleTableRecord
  2
ISO-25 0.8
 70
     0
  3

  4

  5

  6

  7

 40
1.0
 41
3.0
 42
1.0
 43
5.0
 44
2.0
 45
0.0
 46
5.0
 47
0.0
 48
0.0
140
3.0
141
2.0
142
0.0
143
25.4
144
1.25
145
1.0
146
1.0
147
1.0
 71
     0
 72
     0
 73
     0
 74
     0
 75
     0
 76
     0
 77
     1
 78
     8
170
     0
171
     0
172
     1
173
     0
174
     0
175
     0
176
     0
177
     0
178
     0
270
     0
271
     2
272
     2
273
     2
274
     3
340
DF
275
     0
277
     2
280
     0
281
     0
282
     0
283
     0
284
     8
285
     0
286
     0
287
     3
288
     0
  0
ENDTAB
  0
TABLE
  2
BLOCK_RECORD
  5
1
330
0
100
AcDbSymbolTable
 70
     2
  0
BLOCK_RECORD
  5
20
330
1
100
AcDbSymbolTableRecord
100
AcDbBlockTableRecord
  2
*MODEL_SPACE
340
D5
  0
BLOCK_RECORD
  5
22
330
1
100
AcDbSymbolTableRecord
100
AcDbBlockTableRecord
  2
*PAPER_SPACE
340
0
  0
ENDTAB
  0
ENDSEC
  0
SECTION
  2
BLOCKS
  0
BLOCK
  5
21
330
20
100
AcDbEntity
  8
0
100
AcDbBlockBegin
  2
*MODEL_SPACE
 70
     0
 10
0.0
 20
0.0
 30
0.0
  3
*MODEL_SPACE
  1

  0
ENDBLK
  5
D6
330
20
100
AcDbEntity
  8
0
100
AcDbBlockEnd
  0
BLOCK
  5
23
330
22
100
AcDbEntity
 67
     1
  8
0
100
AcDbBlockBegin
  2
*PAPER_SPACE
 70
     0
 10
0.0
 20
0.0
 30
0.0
  3
*PAPER_SPACE
  1

  0
ENDBLK
  5
D7
330
22
100
AcDbEntity
 67
     1
  8
0
100
AcDbBlockEnd
  0
ENDSEC
  0
SECTION
  2
ENTITIES
  0
LINE
  5
24
330
20
100
AcDbEntity
  8
100
  6
CONTINUOUS
100
AcDbLine
 10
-75.75
 20
-21.20050107619798
 11
-75.75
 21
18.79949892380202
  0
LINE
  5
26
330
20
100
AcDbEntity
  8
100
  6
CONTINUOUS
100
AcDbLine
 10
-107.5
 20
-21.20050107619798
 11
-75.75
 21
-21.20050107619798
  0
LINE
  5
27
330
20
100
AcDbEntity
  8
100
  6
CONTINUOUS
100
AcDbLine
 10
-26.76996377317479
 20
188.799498923802
 11
26.76996377317482
 21
188.799498923802
  0
LINE
  5
28
330
20
100
AcDbEntity
  8
100
  6
CONTINUOUS
100
AcDbLine
 10
-29.0
 20
193.299498923802
 11
-29.0
 21
213.6858299322878
  0
LINE
  5
29
330
20
100
AcDbEntity
  8
100
  6
CONTINUOUS
100
AcDbLine
 10
29.0
 20
193.299498923802
 11
29.0
 21
213.6858299322878
  0
ARC
  5
2A
330
20
100
AcDbEntity
  8
100
  6
CONTINUOUS
100
AcDbCircle
 10
0.0
 20
15.79949892380202
 40
200.0
100
AcDbArc
 50
81.66272081109435
 51
98.3372791889057
  0
LINE
  5
2B
330
20
100
AcDbEntity
  8
100
  6
CONTINUOUS
100
AcDbLine
 10
-27.26794919243113
 20
190.299498923802
 11
27.2679491924311
 21
190.299498923802
  0
LINE
  5
2C
330
20
100
AcDbEntity
  8
100
  6
CONTINUOUS
100
AcDbLine
 10
-29.0
 20
193.299498923802
 11
29.0
 21
193.299498923802
  0
LINE
  5
2D
330
20
100
AcDbEntity
  8
100
  6
CONTINUOUS
100
AcDbLine
 10
-17.66352173265568
 20
194.2694989238021
 11
17.66352173265568
 21
194.2694989238021
  0
LINE
  5
2E
330
20
100
AcDbEntity
  8
100
  6
CONTINUOUS
100
AcDbLine
 10
17.66352173265568
 20
194.2694989238021
 11
17.66352173265568
 21
213.6858299322878
  0
LINE
  5
2F
330
20
100
AcDbEntity
  8
100
  6
CONTINUOUS
100
AcDbLine
 10
-17.66352173265568
 20
194.2694989238021
 11
-17.66352173265568
 21
213.6858299322878
  0
LINE
  5
30
330
20
100
AcDbEntity
  8
100
  6
CONTINUOUS
100
AcDbLine
 10
-29.0
 20
213.6858299322878
 11
-17.66352173265568
 21
213.6858299322878
  0
LINE
  5
31
330
20
100
AcDbEntity
  8
100
  6
CONTINUOUS
100
AcDbLine
 10
17.66352173265568
 20
213.6858299322878
 11
29.0
 21
213.6858299322878
  0
ARC
  5
32
330
20
100
AcDbEntity
  8
100
  6
CONTINUOUS
100
AcDbCircle
 10
0.0
 20
67.73945669285106
 40
147.0113732394368
100
AcDbArc
 50
83.09919910436238
 51
96.90080089563763
  0
LINE
  5
33
330
20
100
AcDbEntity
  8
100
  6
CONTINUOUS
100
AcDbLine
 10
27.2679491924311
 20
190.299498923802
 11
29.0
 21
193.299498923802
  0
LINE
  5
34
330
20
100
AcDbEntity
  8
100
  6
CONTINUOUS
100
AcDbLine
 10
-27.2679491924311
 20
190.299498923802
 11
-29.0
 21
193.299498923802
  0
LINE
  5
35
330
20
100
AcDbEntity
  8
100
  6
CONTINUOUS
100
AcDbLine
 10
-23.5
 20
188.799498923802
 11
-23.5
 21
190.299498923802
  0
LINE
  5
36
330
20
100
AcDbEntity
  8
100
  6
CONTINUOUS
100
AcDbLine
 10
23.5
 20
188.799498923802
 11
23.5
 21
190.299498923802
  0
LINE
  5
37
330
20
100
AcDbEntity
  8
100
  6
CENTER
100
AcDbLine
 10
0.0
 20
-108.1054220302029
 11
0.0
 21
227.5033267545538
  0
LINE
  5
38
330
20
100
AcDbEntity
  8
100
  6
CONTINUOUS
100
AcDbLine
 10
-40.23460387384831
 20
188.799498923802
 11
40.23460387384833
 21
188.799498923802
  0
LINE
  5
39
330
20
100
AcDbEntity
  8
100
  6
CONTINUOUS
100
AcDbLine
 10
-72.5
 20
-101.200501076198
 11
72.5
 21
-101.200501076198
  0
LINE
  5
3A
330
20
100
AcDbEntity
  8
100
  6
CONTINUOUS
100
AcDbLine
 10
-82.5
 20
-99.60050107619799
 11
-82.5
 21
-21.20050107619798
  0
LINE
  5
3B
330
20
100
AcDbEntity
  8
100
  6
CONTINUOUS
100
AcDbLine
 10
-82.5
 20
18.79949892380202
 11
-82.5
 21
173.799498923802
  0
LINE
  5
3C
330
20
100
AcDbEntity
  8
100
  6
CONTINUOUS
100
AcDbLine
 10
82.5
 20
-99.60050107619799
 11
82.5
 21
173.799498923802
  0
LINE
  5
3D
330
20
100
AcDbEntity
  8
100
  6
CONTINUOUS
100
AcDbLine
 10
-82.5
 20
173.799498923802
 11
82.5
 21
173.799498923802
  0
LINE
  5
3E
330
20
100
AcDbEntity
  8
100
  6
CONTINUOUS
100
AcDbLine
 10
-82.5
 20
-99.60050107619799
 11
82.5
 21
-99.60050107619799
  0
LINE
  5
3F
330
20
100
AcDbEntity
  8
100
  6
CONTINUOUS
100
AcDbLine
 10
-72.5
 20
-101.200501076198
 11
-72.5
 21
-99.60050107619799
  0
LINE
  5
40
330
20
100
AcDbEntity
  8
100
  6
CONTINUOUS
100
AcDbLine
 10
72.5
 20
-101.200501076198
 11
72.5
 21
-99.60050107619799
  0
LINE
  5
41
330
20
100
AcDbEntity
  8
100
  6
CONTINUOUS
100
AcDbLine
 10
-50.8
 20
176.979498923802
 11
50.8
 21
176.979498923802
  0
LINE
  5
42
330
20
100
AcDbEntity
  8
100
  6
CONTINUOUS
100
AcDbLine
 10
-50.8
 20
182.459498923802
 11
50.8
 21
182.459498923802
  0
LINE
  5
43
330
20
100
AcDbEntity
  8
100
  6
CONTINUOUS
100
AcDbLine
 10
-46.83
 20
173.799498923802
 11
-46.83
 21
176.979498923802
  0
LINE
  5
44
330
20
100
AcDbEntity
  8
100
  6
CONTINUOUS
100
AcDbLine
 10
46.82999999999998
 20
173.799498923802
 11
46.83
 21
176.979498923802
  0
LINE
  5
45
330
20
100
AcDbEntity
  8
100
  6
CONTINUOUS
100
AcDbLine
 10
-50.8
 20
176.979498923802
 11
-50.8
 21
182.459498923802
  0
LINE
  5
46
330
20
100
AcDbEntity
  8
100
  6
CONTINUOUS
100
AcDbLine
 10
50.8
 20
176.979498923802
 11
50.8
 21
182.459498923802
  0
LINE
  5
47
330
20
100
AcDbEntity
  8
100
  6
CONTINUOUS
100
AcDbLine
 10
41.35251693154
 20
182.459498923802
 11
40.23460387384833
 21
188.799498923802
  0
LINE
  5
48
330
20
100
AcDbEntity
  8
100
  6
CONTINUOUS
100
AcDbLine
 10
-41.35251693153998
 20
182.459498923802
 11
-40.23460387384831
 21
188.799498923802
  0
LINE
  5
49
330
20
100
AcDbEntity
  8
100
  6
CONTINUOUS
100
AcDbLine
 10
-40.03630508421759
 20
188.799498923802
 11
38.53105469710954
 21
188.799498923802
  0
CIRCLE
  5
4A
330
20
100
AcDbEntity
  8
100
  6
CONTINUOUS
100
AcDbCircle
 10
0.0
 20
413.0
 40
29.0
  0
CIRCLE
  5
4B
330
20
100
AcDbEntity
  8
100
  6
CONTINUOUS
100
AcDbCircle
 10
0.0
 20
413.0
 40
82.5
  0
CIRCLE
  5
4C
330
20
100
AcDbEntity
  8
100
  6
CONTINUOUS
100
AcDbCircle
 10
0.0
 20
412.9809663895153
 40
50.8
  0
LINE
  5
4D
330
20
100
AcDbEntity
  8
100
  6
CENTER
100
AcDbLine
 10
0.0
 20
318.4356261636727
 11
0.0
 21
509.3301132074245
  0
LINE
  5
4E
330
20
100
AcDbEntity
  8
100
  6
CENTER
100
AcDbLine
 10
-91.32671686322104
 20
412.9989283906383
 11
102.5978414034474
 21
412.9989283906383
  0
LINE
  5
4F
330
20
100
AcDbEntity
  8
100
  6
DASHED
100
AcDbLine
 10
-26.0
 20
122.119498923802
 11
26.0
 21
122.119498923802
  0
LINE
  5
50
330
20
100
AcDbEntity
  8
100
  6
DASHED
100
AcDbLine
 10
-26.0
 20
128.469498923802
 11
26.0
 21
128.469498923802
  0
LINE
  5
51
330
20
100
AcDbEntity
  8
100
  6
DASHED
100
AcDbLine
 10
0.0
 20
118.939498923802
 11
5.507921568069008
 21
122.119498923802
  0
LINE
  5
52
330
20
100
AcDbEntity
  8
100
  6
DASHED
100
AcDbLine
 10
0.0
 20
118.939498923802
 11
-5.507921568069051
 21
122.119498923802
  0
LINE
  5
53
330
20
100
AcDbEntity
  8
100
  6
DASHED
100
AcDbLine
 10
-22.9175
 20
129.6718308593894
 11
-22.9175
 21
177.9869989238021
  0
LINE
  5
54
330
20
100
AcDbEntity
  8
100
  6
DASHED
100
AcDbLine
 10
22.9175
 20
129.6718308593894
 11
22.9175
 21
177.9869989238021
  0
LINE
  5
55
330
20
100
AcDbEntity
  8
100
  6
DASHED
100
AcDbLine
 10
-26.0
 20
122.119498923802
 11
-26.0
 21
128.469498923802
  0
LINE
  5
56
330
20
100
AcDbEntity
  8
100
  6
DASHED
100
AcDbLine
 10
26.0
 20
122.119498923802
 11
26.0
 21
128.469498923802
  0
LINE
  5
57
330
20
100
AcDbEntity
  8
100
  6
DASHED
100
AcDbLine
 10
-25.0
 20
128.469498923802
 11
-25.0
 21
180.069498923802
  0
LINE
  5
58
330
20
100
AcDbEntity
  8
100
  6
DASHED
100
AcDbLine
 10
25.0
 20
128.469498923802
 11
25.0
 21
180.069498923802
  0
LINE
  5
59
330
20
100
AcDbEntity
  8
100
  6
DASHED
100
AcDbLine
 10
24.99999999999999
 20
128.469498923802
 11
22.9175
 21
129.6718308593894
  0
LINE
  5
5A
330
20
100
AcDbEntity
  8
100
  6
DASHED
100
AcDbLine
 10
-24.99999999999999
 20
128.469498923802
 11
-22.9175
 21
129.6718308593894
  0
LINE
  5
5B
330
20
100
AcDbEntity
  8
100
  6
DASHED
100
AcDbLine
 10
-22.9175
 20
129.6718308593894
 11
22.91750000000002
 21
129.6718308593894
  0
LINE
  5
5C
330
20
100
AcDbEntity
  8
100
  6
DASHED
100
AcDbLine
 10
-25.6
 20
180.069498923802
 11
25.6
 21
180.069498923802
  0
LINE
  5
5D
330
20
100
AcDbEntity
  8
100
  6
DASHED
100
AcDbLine
 10
-25.6
 20
180.0694989238021
 11
-25.6
 21
185.824498923802
  0
LINE
  5
5E
330
20
100
AcDbEntity
  8
100
  6
DASHED
100
AcDbLine
 10
25.6
 20
180.0694989238021
 11
25.6
 21
185.8244989238021
  0
LINE
  5
5F
330
20
100
AcDbEntity
  8
100
  6
DASHED
100
AcDbLine
 10
25.60000000000001
 20
185.8244989238021
 11
28.575
 21
188.799498923802
  0
LINE
  5
60
330
20
100
AcDbEntity
  8
100
  6
DASHED
100
AcDbLine
 10
-25.60000000000007
 20
185.824498923802
 11
-28.575
 21
188.799498923802
  0
LINE
  5
61
330
20
100
AcDbEntity
  8
100
  6
DASHED
100
AcDbLine
 10
-25.60000000000004
 20
185.824498923802
 11
25.59999999999999
 21
185.824498923802
  0
LINE
  5
62
330
20
100
AcDbEntity
  8
100
  6
DASHED
100
AcDbLine
 10
-22.9175
 20
177.9869989238021
 11
-25.00000000000001
 21
180.0694989238021
  0
LINE
  5
63
330
20
100
AcDbEntity
  8
100
  6
DASHED
100
AcDbLine
 10
22.91749999999999
 20
177.986998923802
 11
25.00000000000003
 21
180.069498923802
  0
LINE
  5
64
330
20
100
AcDbEntity
  8
100
  6
DASHED
100
AcDbLine
 10
-22.91750000000002
 20
177.9869989238021
 11
22.91749999999999
 21
177.9869989238021
  0
LINE
  5
65
330
20
100
AcDbEntity
  8
100
  6
DASHED
100
AcDbLine
 10
-25.60000000000007
 20
-98.22550107619799
 11
-28.575
 21
-101.2005010761979
  0
LINE
  5
66
330
20
100
AcDbEntity
  8
100
  6
DASHED
100
AcDbLine
 10
-25.60000000000004
 20
-98.22550107619796
 11
25.59999999999999
 21
-98.22550107619796
  0
LINE
  5
67
330
20
100
AcDbEntity
  8
100
  6
DASHED
100
AcDbLine
 10
25.60000000000002
 20
-98.22550107619802
 11
28.57499999999999
 21
-101.200501076198
  0
LINE
  5
68
330
20
100
AcDbEntity
  8
100
  6
DASHED
100
AcDbLine
 10
25.59999999999999
 20
-92.47050107619802
 11
25.59999999999999
 21
-98.22550107619802
  0
LINE
  5
69
330
20
100
AcDbEntity
  8
100
  6
DASHED
100
AcDbLine
 10
-25.59999999999999
 20
-92.47050107619799
 11
25.59999999999999
 21
-92.47050107619799
  0
LINE
  5
6A
330
20
100
AcDbEntity
  8
100
  6
DASHED
100
AcDbLine
 10
-25.59999999999999
 20
-92.47050107619802
 11
-25.59999999999999
 21
-98.22550107619796
  0
LINE
  5
6B
330
20
100
AcDbEntity
  8
100
  6
DASHED
100
AcDbLine
 10
-22.91750000000002
 20
-90.38800107619801
 11
22.91749999999999
 21
-90.38800107619801
  0
LINE
  5
6C
330
20
100
AcDbEntity
  8
100
  6
DASHED
100
AcDbLine
 10
22.91749999999999
 20
-90.38800107619795
 11
25.00000000000003
 21
-92.47050107619799
  0
LINE
  5
6D
330
20
100
AcDbEntity
  8
100
  6
DASHED
100
AcDbLine
 10
-22.9175
 20
-90.38800107619801
 11
-25.00000000000001
 21
-92.47050107619802
  0
LINE
  5
6E
330
20
100
AcDbEntity
  8
100
  6
DASHED
100
AcDbLine
 10
-22.9175
 20
-42.07283301178535
 11
-22.9175
 21
-90.38800107619801
  0
LINE
  5
6F
330
20
100
AcDbEntity
  8
100
  6
DASHED
100
AcDbLine
 10
-25.0
 20
-40.87050107619797
 11
-25.0
 21
-92.47050107619799
  0
LINE
  5
70
330
20
100
AcDbEntity
  8
100
  6
DASHED
100
AcDbLine
 10
22.91749999999999
 20
-42.07283301178535
 11
22.91749999999999
 21
-90.38800107619801
  0
LINE
  5
71
330
20
100
AcDbEntity
  8
100
  6
DASHED
100
AcDbLine
 10
25.0
 20
-40.87050107619797
 11
25.0
 21
-92.47050107619799
  0
LINE
  5
72
330
20
100
AcDbEntity
  8
100
  6
DASHED
100
AcDbLine
 10
-24.99999999999999
 20
-40.87050107619797
 11
-22.9175
 21
-42.07283301178535
  0
LINE
  5
73
330
20
100
AcDbEntity
  8
100
  6
DASHED
100
AcDbLine
 10
-22.9175
 20
-42.07283301178535
 11
22.91750000000002
 21
-42.07283301178535
  0
LINE
  5
74
330
20
100
AcDbEntity
  8
100
  6
DASHED
100
AcDbLine
 10
-26.0
 20
-40.87050107619797
 11
26.0
 21
-40.87050107619797
  0
LINE
  5
75
330
20
100
AcDbEntity
  8
100
  6
DASHED
100
AcDbLine
 10
-26.0
 20
-34.52050107619797
 11
-26.0
 21
-40.87050107619797
  0
LINE
  5
76
330
20
100
AcDbEntity
  8
100
  6
DASHED
100
AcDbLine
 10
-26.0
 20
-34.52050107619797
 11
26.0
 21
-34.52050107619797
  0
LINE
  5
77
330
20
100
AcDbEntity
  8
100
  6
DASHED
100
AcDbLine
 10
0.0
 20
-31.34050107619797
 11
-5.507921568069051
 21
-34.52050107619797
  0
LINE
  5
78
330
20
100
AcDbEntity
  8
100
  6
DASHED
100
AcDbLine
 10
25.0
 20
-40.87050107619797
 11
22.91750000000002
 21
-42.07283301178535
  0
LINE
  5
79
330
20
100
AcDbEntity
  8
100
  6
DASHED
100
AcDbLine
 10
26.0
 20
-34.52050107619797
 11
26.0
 21
-40.87050107619797
  0
LINE
  5
7A
330
20
100
AcDbEntity
  8
100
  6
DASHED
100
AcDbLine
 10
0.0
 20
-31.34050107619797
 11
5.507921568069008
 21
-34.52050107619795
  0
CIRCLE
  5
7B
330
20
100
AcDbEntity
  8
100
  6
CONTINUOUS
100
AcDbCircle
 10
0.0
 20
412.9989283906383
 40
40.23460388
  0
LINE
  5
7C
330
20
100
AcDbEntity
  8
100
  6
CONTINUOUS
100
AcDbLine
 10
-17.66491700751213
 20
435.9989283906383
 11
17.66491700751213
 21
435.9989283906383
  0
LINE
  5
7D
330
20
100
AcDbEntity
  8
100
  6
CONTINUOUS
100
AcDbLine
 10
-17.66491700751213
 20
389.9989283906383
 11
17.66491700751213
 21
389.9989283906383
  0
LINE
  5
7E
330
20
100
AcDbEntity
  8
100
  6
CONTINUOUS
100
AcDbLine
 10
-106.0
 20
373.2498062762666
 11
-80.0
 21
373.2498062762666
  0
LINE
  5
7F
330
20
100
AcDbEntity
  8
100
  6
CONTINUOUS
100
AcDbLine
 10
-104.0388271720236
 20
371.312275781022
 11
-103.20875
 21
344.7498062762666
  0
LINE
  5
80
330
20
100
AcDbEntity
  8
100
  6
CONTINUOUS
100
AcDbLine
 10
-93.0
 20
358.3498062762666
 11
-103.63375
 21
358.3498062762666
  0
LINE
  5
81
330
20
100
AcDbEntity
  8
100
  6
CONTINUOUS
100
AcDbLine
 10
-107.5
 20
379.2489283906383
 11
-107.5
 21
446.7189283906383
  0
ARC
  5
82
330
20
100
AcDbEntity
  8
100
  6
CONTINUOUS
100
AcDbCircle
 10
-106.0378513241977
 20
371.2498062762666
 40
1.999999999999998
100
AcDbArc
 50
1.789910608245612
 51
88.91557469397333
  0
LINE
  5
83
330
20
100
AcDbEntity
  8
100
  6
CONTINUOUS
100
AcDbLine
 10
-93.0
 20
358.3498062762666
 11
-82.36624999999998
 21
358.3498062762666
  0
LINE
  5
84
330
20
100
AcDbEntity
  8
100
  6
CONTINUOUS
100
AcDbLine
 10
-83.52825000000001
 20
358.3498062762666
 11
-83.95325000000003
 21
344.7498062762666
  0
LINE
  5
85
330
20
100
AcDbEntity
  8
100
  6
CONTINUOUS
100
AcDbLine
 10
-81.96117282797638
 20
371.312275781022
 11
-82.79124999999999
 21
344.7498062762666
  0
LINE
  5
86
330
20
100
AcDbEntity
  8
100
  6
CONTINUOUS
100
AcDbLine
 10
-102.47175
 20
358.3498062762666
 11
-102.04675
 21
344.7498062762666
  0
LINE
  5
87
330
20
100
AcDbEntity
  8
100
  6
CENTER
100
AcDbLine
 10
-93.0
 20
317.4998062762666
 11
-93.0
 21
382.4998062762666
  0
LINE
  5
88
330
20
100
AcDbEntity
  8
100
  6
CONTINUOUS
100
AcDbLine
 10
-88.0
 20
320.3499738271277
 11
-88.0
 21
344.7498062762666
  0
LINE
  5
89
330
20
100
AcDbEntity
  8
100
  6
CONTINUOUS
100
AcDbLine
 10
-98.0
 20
320.3499738271277
 11
-98.0
 21
344.7498062762666
  0
LINE
  5
8A
330
20
100
AcDbEntity
  8
100
  6
CONTINUOUS
100
AcDbLine
 10
-103.20875
 20
344.7498062762666
 11
-82.79124999999999
 21
344.7498062762666
  0
POLYLINE
  5
8B
330
20
100
AcDbEntity
  8
100
  6
CONTINUOUS
100
AcDb2dPolyline
 66
     1
 10
0.0
 20
0.0
 70
     0
 40
0.0
 41
0.0
  0
VERTEX
  5
8C
330
20
100
AcDbEntity
  8
100
100
AcDbVertex
100
AcDb2dVertex
 10
-98.00000000000006
 20
320.3499738271277
  0
VERTEX
  5
8D
330
20
100
AcDbEntity
  8
100
100
AcDbVertex
100
AcDb2dVertex
 10
-97.24869589857924
 20
321.2034563225315
  0
VERTEX
  5
8E
330
20
100
AcDbEntity
  8
100
100
AcDbVertex
100
AcDb2dVertex
 10
-96.60522344686849
 20
321.79936535241
  0
VERTEX
  5
8F
330
20
100
AcDbEntity
  8
100
100
AcDbVertex
100
AcDb2dVertex
 10
-96.01958472753121
 20
322.1844666744674
  0
VERTEX
  5
90
330
20
100
AcDbEntity
  8
100
100
AcDbVertex
100
AcDb2dVertex
 10
-95.75147005335171
 20
322.294698774493
  0
VERTEX
  5
91
330
20
100
AcDbEntity
  8
100
100
AcDbVertex
100
AcDb2dVertex
 10
-95.49999999999994
 20
322.3499738271277
  0
VERTEX
  5
92
330
20
100
AcDbEntity
  8
100
100
AcDbVertex
100
AcDb2dVertex
 10
-95.22996381511408
 20
322.3482866464923
  0
VERTEX
  5
93
330
20
100
AcDbEntity
  8
100
100
AcDbVertex
100
AcDb2dVertex
 10
-94.95701302514291
 20
322.2816205736405
  0
VERTEX
  5
94
330
20
100
AcDbEntity
  8
100
100
AcDbVertex
100
AcDb2dVertex
 10
-94.67909335511581
 20
322.1495167659214
  0
VERTEX
  5
95
330
20
100
AcDbEntity
  8
100
100
AcDbVertex
100
AcDb2dVertex
 10
-94.39273091251886
 20
321.9503482575129
  0
VERTEX
  5
96
330
20
100
AcDbEntity
  8
100
100
AcDbVertex
100
AcDb2dVertex
 10
-93.79434697855754
 20
321.3597204158216
  0
VERTEX
  5
97
330
20
100
AcDbEntity
  8
100
100
AcDbVertex
100
AcDb2dVertex
 10
-92.99999999999994
 20
320.3499738271277
  0
VERTEX
  5
98
330
20
100
AcDbEntity
  8
100
100
AcDbVertex
100
AcDb2dVertex
 10
-92.20565302144242
 20
319.3402272384336
  0
VERTEX
  5
99
330
20
100
AcDbEntity
  8
100
100
AcDbVertex
100
AcDb2dVertex
 10
-91.60726908748102
 20
318.7495993967422
  0
VERTEX
  5
9A
330
20
100
AcDbEntity
  8
100
100
AcDbVertex
100
AcDb2dVertex
 10
-91.32090664488396
 20
318.5504308883337
  0
VERTEX
  5
9B
330
20
100
AcDbEntity
  8
100
100
AcDbVertex
100
AcDb2dVertex
 10
-91.04298697485677
 20
318.4183270806146
  0
VERTEX
  5
9C
330
20
100
AcDbEntity
  8
100
100
AcDbVertex
100
AcDb2dVertex
 10
-90.77003618488531
 20
318.3516610077627
  0
VERTEX
  5
9D
330
20
100
AcDbEntity
  8
100
100
AcDbVertex
100
AcDb2dVertex
 10
-90.49999999999994
 20
318.3499738271277
  0
VERTEX
  5
9E
330
20
100
AcDbEntity
  8
100
100
AcDbVertex
100
AcDb2dVertex
 10
-90.24852994664811
 20
318.4052488797623
  0
VERTEX
  5
9F
330
20
100
AcDbEntity
  8
100
100
AcDbVertex
100
AcDb2dVertex
 10
-89.98041527246846
 20
318.515480979788
  0
VERTEX
  5
A0
330
20
100
AcDbEntity
  8
100
100
AcDbVertex
100
AcDb2dVertex
 10
-89.394776553131
 20
318.9005823018456
  0
VERTEX
  5
A1
330
20
100
AcDbEntity
  8
100
100
AcDbVertex
100
AcDb2dVertex
 10
-88.75130410142003
 20
319.4964913317244
  0
VERTEX
  5
A2
330
20
100
AcDbEntity
  8
100
100
AcDbVertex
100
AcDb2dVertex
 10
-88.0
 20
320.3499738271277
  0
SEQEND
  5
A3
330
20
100
AcDbEntity
  8
100
  0
SPLINE
  5
A4
330
20
100
AcDbEntity
  8
100
  6
CONTINUOUS
100
AcDbSpline
210
0.0
220
0.0
230
1.0
 70
     8
 71
     3
 72
     9
 73
     5
 74
     0
 42
1.000000000000000E-007
 43
1.000000000000000E-007
 40
0.0
 40
0.0
 40
0.0
 40
0.0
 40
3.302058246347658
 40
6.604116492695566
 40
6.604116492695566
 40
6.604116492695566
 40
6.604116492695566
 10
-97.99999999999994
 20
320.3499738271277
 30
0.0
 10
-97.50000000000028
 20
319.683307160461
 30
0.0
 10
-95.49999999999997
 20
317.0166404937944
 30
0.0
 10
-93.5
 20
319.683307160461
 30
0.0
 10
-92.99999999999994
 20
320.3499738271277
 30
0.0
  0
ARC
  5
A5
330
20
100
AcDbEntity
  8
100
  6
CONTINUOUS
100
AcDbCircle
 10
-79.96214867580221
 20
371.2498062762666
 40
2.000000000000001
100
AcDbArc
 50
90.0
 51
178.2100893917544
  0
LINE
  5
A6
330
20
100
AcDbEntity
  8
100
  6
CONTINUOUS
100
AcDbLine
 10
-75.75
 20
448.5622513553103
 11
-75.75
 21
449.4966934575863
  0
LINE
  5
A7
330
20
100
AcDbEntity
  8
100
  6
CONTINUOUS
100
AcDbLine
 10
-75.75
 20
377.8349324692024
 11
-75.75
 21
380.3168621457486
  0
LINE
  5
A8
330
20
100
AcDbEntity
  8
100
  6
CONTINUOUS
100
AcDbLine
 10
-75.75
 20
445.6831378542514
 11
-75.75
 21
449.4966934575863
  0
LINE
  5
A9
330
20
100
AcDbEntity
  8
100
  6
CONTINUOUS
100
AcDbLine
 10
-107.5
 20
379.2489283906383
 11
-75.75
 21
377.8349324692023
  0
LINE
  5
AA
330
20
100
AcDbEntity
  8
100
  6
CONTINUOUS
100
AcDbLine
 10
-75.75
 20
377.8349324692023
 11
-79.96214867580221
 21
373.2498062762666
  0
LINE
  5
AB
330
20
100
AcDbEntity
  8
100
  6
CENTER
100
AcDbLine
 10
-106.7476770903001
 20
-1.20050107619798
 11
-78.44984094537654
 21
-1.20050107619798
  0
LINE
  5
AC
330
20
100
AcDbEntity
  8
100
  6
CONTINUOUS
100
AcDbLine
 10
-106.0
 20
-14.20050107619798
 11
-106.0
 21
11.79949892380201
  0
LINE
  5
AD
330
20
100
AcDbEntity
  8
100
  6
CONTINUOUS
100
AcDbLine
 10
-106.0
 20
11.79949892380201
 11
-80.0
 21
11.79949892380201
  0
LINE
  5
AE
330
20
100
AcDbEntity
  8
100
  6
CONTINUOUS
100
AcDbLine
 10
-106.0
 20
-14.20050107619798
 11
-80.0
 21
-14.20050107619798
  0
CIRCLE
  5
AF
330
20
100
AcDbEntity
  8
100
  6
CONTINUOUS
100
AcDbCircle
 10
-93.0
 20
-1.20050107619798
 40
8.0
  0
CIRCLE
  5
B0
330
20
100
AcDbEntity
  8
100
  6
CONTINUOUS
100
AcDbCircle
 10
-93.0
 20
-1.20050107619798
 40
5.0
  0
CIRCLE
  5
B1
330
20
100
AcDbEntity
  8
100
  6
CONTINUOUS
100
AcDbCircle
 10
-93.0
 20
-1.20050107619798
 40
10.20875
  0
LINE
  5
B2
330
20
100
AcDbEntity
  8
100
  6
CONTINUOUS
100
AcDbLine
 10
-107.5
 20
18.79949892380201
 11
-75.75
 21
18.79949892380201
  0
LINE
  5
B3
330
20
100
AcDbEntity
  8
100
  6
CONTINUOUS
100
AcDbLine
 10
-107.5
 20
-21.20050107619798
 11
-107.5
 21
18.79949892380201
  0
LINE
  5
B4
330
20
100
AcDbEntity
  8
100
  6
CONTINUOUS
100
AcDbLine
 10
-80.0
 20
-14.20050107619798
 11
-80.0
 21
11.79949892380201
  0
LINE
  5
B5
330
20
100
AcDbEntity
  8
100
  6
CENTER
100
AcDbLine
 10
-93.0
 20
-16.65981166569178
 11
-93.0
 21
13.58040623345939
  0
LINE
  5
B6
330
20
100
AcDbEntity
  8
100
  6
CONTINUOUS
100
AcDbLine
 10
-110.5
 20
379.2798062762666
 11
-110.5
 21
446.7189283906383
  0
LINE
  5
B7
330
20
100
AcDbEntity
  8
100
  6
CONTINUOUS
100
AcDbLine
 10
-110.5
 20
379.2789283906383
 11
-110.5
 21
446.7189283906383
  0
LINE
  5
B8
330
20
100
AcDbEntity
  8
100
  6
CONTINUOUS
100
AcDbLine
 10
-110.5
 20
446.7189283906383
 11
-107.5
 21
446.7189283906383
  0
LINE
  5
B9
330
20
100
AcDbEntity
  8
100
  6
CONTINUOUS
100
AcDbLine
 10
-110.5
 20
379.2789283906383
 11
-107.5
 21
379.2789283906383
  0
LINE
  5
BA
330
20
100
AcDbEntity
  8
100
  6
CONTINUOUS
100
AcDbLine
 10
-110.5
 20
-20.74550107619803
 11
-110.5
 21
18.34449892380201
  0
LINE
  5
BB
330
20
100
AcDbEntity
  8
100
  6
CONTINUOUS
100
AcDbLine
 10
-110.5
 20
18.34449892380201
 11
-107.5
 21
18.34449892380201
  0
LINE
  5
BC
330
20
100
AcDbEntity
  8
100
  6
CONTINUOUS
100
AcDbLine
 10
-110.5
 20
-20.74550107619803
 11
-107.5
 21
-20.74550107619803
  0
LINE
  5
BD
330
20
100
AcDbEntity
  8
100
  6
CONTINUOUS
100
AcDbLine
 10
-111.8
 20
385.8851931280546
 11
-110.5
 21
385.9989283906383
  0
LINE
  5
BE
330
20
100
AcDbEntity
  8
100
  6
CONTINUOUS
100
AcDbLine
 10
-111.8
 20
379.812663653222
 11
-110.5
 21
379.6989283906383
  0
ARC
  5
BF
330
20
100
AcDbEntity
  8
100
  6
CONTINUOUS
100
AcDbCircle
 10
-104.4175803702686
 20
382.8489283906383
 40
7.982419629731323
100
AcDbArc
 50
157.6434605857299
 51
202.3565394142704
  0
ARC
  5
C0
330
20
100
AcDbEntity
  8
100
  6
CONTINUOUS
100
AcDbCircle
 10
-104.4175803702686
 20
443.1489283906383
 40
7.982419629731323
100
AcDbArc
 50
157.6434605857296
 51
202.3565394142701
  0
LINE
  5
C1
330
20
100
AcDbEntity
  8
100
  6
CONTINUOUS
100
AcDbLine
 10
-111.8
 20
440.112663653222
 11
-110.5
 21
439.9989283906383
  0
LINE
  5
C2
330
20
100
AcDbEntity
  8
100
  6
CONTINUOUS
100
AcDbLine
 10
-111.8
 20
446.1851931280546
 11
-110.5
 21
446.2989283906383
  0
LINE
  5
C3
330
20
100
AcDbEntity
  8
100
  6
CONTINUOUS
100
AcDbLine
 10
-111.8
 20
-14.81423633878171
 11
-110.5
 21
-14.70050107619801
  0
LINE
  5
C4
330
20
100
AcDbEntity
  8
100
  6
CONTINUOUS
100
AcDbLine
 10
-111.8
 20
-20.88676581361432
 11
-110.5
 21
-21.00050107619802
  0
ARC
  5
C5
330
20
100
AcDbEntity
  8
100
  6
CONTINUOUS
100
AcDbCircle
 10
-104.4175803702686
 20
-17.85050107619802
 40
7.982419629731341
100
AcDbArc
 50
157.6434605857297
 51
202.3565394142703
  0
LINE
  5
C6
330
20
100
AcDbEntity
  8
100
  6
CONTINUOUS
100
AcDbLine
 10
-110.5
 20
-21.00050107619802
 11
-110.5
 21
-20.74550107619803
  0
LINE
  5
C7
330
20
100
AcDbEntity
  8
100
  6
CONTINUOUS
100
AcDbLine
 10
-111.8
 20
12.41323418638569
 11
-110.5
 21
12.29949892380199
  0
LINE
  5
C8
330
20
100
AcDbEntity
  8
100
  6
CONTINUOUS
100
AcDbLine
 10
-111.8
 20
18.4857636612183
 11
-110.5
 21
18.599498923802
  0
ARC
  5
C9
330
20
100
AcDbEntity
  8
100
  6
CONTINUOUS
100
AcDbCircle
 10
-104.4175803702686
 20
15.449498923802
 40
7.982419629731341
100
AcDbArc
 50
157.6434605857297
 51
202.3565394142703
  0
LINE
  5
CA
330
20
100
AcDbEntity
  8
100
  6
CONTINUOUS
100
AcDbLine
 10
-110.5
 20
18.34449892380201
 11
-110.5
 21
18.599498923802
  0
LINE
  5
CB
330
20
100
AcDbEntity
  8
100
  6
CONTINUOUS
100
AcDbLine
 10
-107.5
 20
446.7189283906383
 11
-107.5
 21
446.7489283906384
  0
LINE
  5
CC
330
20
100
AcDbEntity
  8
100
  6
CONTINUOUS
100
AcDbLine
 10
-107.5000000000002
 20
446.7489283906383
 11
-75.75
 21
449.5266934575864
  0
LINE
  5
CD
330
20
100
AcDbEntity
  8
100
  6
CONTINUOUS
100
AcDbLine
 10
-75.75
 20
449.2213829949739
 11
-75.75
 21
449.5266934575864
  0
LINE
  5
CE
330
20
100
AcDbEntity
  8
100
  6
CONTINUOUS
100
AcDbLine
 10
-106.0378513241977
 20
373.2498062762666
 11
-106.0378513241977
 21
379.1838111539732
  0
ENDSEC
  0
SECTION
  2
OBJECTS
  0
DICTIONARY
  5
C
100
AcDbDictionary
281
     1
  3
ACAD_GROUP
350
D
  3
ACAD_MLINESTYLE
350
E
  3
ACDBVARIABLEDICTIONARY
350
CF
  3
ACAD_PLOTSTYLENAME
350
D0
  3
ACAD_LAYOUT
350
D1
  3
ACAD_PLOTSETTINGS
350
D2
  0
DICTIONARY
  5
D
102
{ACAD_REACTORS
330
C
102
}
330
C
100
AcDbDictionary
281
     1
  0
DICTIONARY
  5
E
102
{ACAD_REACTORS
330
C
102
}
330
C
100
AcDbDictionary
281
     1
  3
STANDARD
350
13
  0
DICTIONARY
  5
CF
102
{ACAD_REACTORS
330
C
102
}
330
C
100
AcDbDictionary
281
     1
  3
SORTENTS
350
D3
  0
ACDBDICTIONARYWDFLT
  5
D0
102
{ACAD_REACTORS
330
C
102
}
330
C
100
AcDbDictionary
281
     1
  3
Normal
350
D4
100
AcDbDictionaryWithDefault
340
D4
  0
DICTIONARY
  5
D1
102
{ACAD_REACTORS
330
C
102
}
330
C
100
AcDbDictionary
281
     1
  3
Model
350
D5
  0
DICTIONARY
  5
D2
102
{ACAD_REACTORS
330
C
102
}
330
C
100
AcDbDictionary
281
     1
  0
MLINESTYLE
  5
13
102
{ACAD_REACTORS
330
E
102
}
330
E
100
AcDbMlineStyle
  2
STANDARD
 70
     0
  3

 62
   256
 51
90.0
 52
90.0
 71
     2
 49
0.5
 62
   256
  6
BYLAYER
 49
-0.5
 62
   256
  6
BYLAYER
  0
DICTIONARYVAR
  5
D3
102
{ACAD_REACTORS
330
CF
102
}
330
CF
100
DictionaryVariables
280
     0
  1
96
  0
ACDBPLACEHOLDER
  5
D4
102
{ACAD_REACTORS
330
D0
102
}
330
D0
  0
LAYOUT
  5
D5
102
{ACAD_REACTORS
330
D1
102
}
330
D1
100
AcDbPlotSettings
  1

  2

  4

  6

 40
0.0
 41
0.0
 42
0.0
 43
0.0
 44
0.0
 45
0.0
 46
0.0
 47
0.0
 48
0.0
 49
0.0
140
0.0
141
0.0
142
1.0
143
1.0
 70
  1712
 72
     0
 73
     0
 74
     0
  7

 75
     0
147
1.0
148
0.0
149
0.0
100
AcDbLayout
  1
Model
 70
     1
 71
     0
 10
0.0
 20
0.0
 11
297.0
 21
210.0
 12
0.0
 22
0.0
 32
0.0
 14
0.0
 24
0.0
 34
0.0
 15
0.0
 25
0.0
 35
0.0
146
0.0
 13
0.0
 23
0.0
 33
0.0
 16
1.0
 26
0.0
 36
0.0
 17
0.0
 27
1.0
 37
0.0
 76
     0
330
20
  0
ENDSEC
  0
EOF
