  0
SECTION
  2
HEADER
  9
$ACADVER
  1
AC1015
  9
$ACADMAINTVER
 70
     0
  9
$DWGCODEPAGE
  3
ANSI_932
  9
$INSBASE
 10
0.0
 20
0.0
 30
0.0
  9
$EXTMIN
 10
-63.40000000000001
 20
-80.60764338003298
  9
$EXTMAX
 10
49.5
 20
304.85
  9
$LIMMIN
 10
-63.40000000000001
 20
-80.60764338003298
  9
$LIMMAX
 10
49.5
 20
304.85
  9
$ORTHOMODE
 70
     0
  9
$REGENMODE
 70
     1
  9
$FILLMODE
 70
     1
  9
$QTEXTMODE
 70
     0
  9
$MIRRTEXT
 70
     1
  9
$LTSCALE
 40
1.0
  9
$OSMODE
 70
     0
  9
$ATTMODE
 70
     1
  9
$TEXTSIZE
 40
3.0
  9
$TRACEWID
 40
0.5
  9
$TEXTSTYLE
  7
STANDARD
  9
$CLAYER
  8
0
  9
$CELTYPE
  6
BYLAYER
  9
$CECOLOR
 62
   256
  9
$CELTSCALE
 40
1.0
  9
$DISPSILH
 70
     0
  9
$DIMSCALE
 40
1.0
  9
$DIMASZ
 40
3.0
  9
$DIMEXO
 40
1.0
  9
$DIMDLI
 40
5.0
  9
$DIMRND
 40
0.0
  9
$DIMDLE
 40
5.0
  9
$DIMEXE
 40
2.0
  9
$DIMTP
 40
0.0
  9
$DIMTM
 40
0.0
  9
$DIMTXT
 40
3.0
  9
$DIMCEN
 40
2.0
  9
$DIMTSZ
 40
0.0
  9
$DIMTOL
 70
     0
  9
$DIMLIM
 70
     0
  9
$DIMTIH
 70
     0
  9
$DIMTOH
 70
     0
  9
$DIMSE1
 70
     0
  9
$DIMSE2
 70
     0
  9
$DIMTAD
 70
     1
  9
$DIMZIN
 70
     8
  9
$DIMBLK
  1

  9
$DIMASO
 70
     1
  9
$DIMSHO
 70
     1
  9
$DIMPOST
  1

  9
$DIMAPOST
  1

  9
$DIMALT
 70
     0
  9
$DIMALTD
 70
     0
  9
$DIMALTF
 40
25.4
  9
$DIMLFAC
 40
1.0
  9
$DIMTOFL
 70
     1
  9
$DIMTVP
 40
1.0
  9
$DIMTIX
 70
     0
  9
$DIMSOXD
 70
     0
  9
$DIMSAH
 70
     0
  9
$DIMBLK1
  1

  9
$DIMBLK2
  1

  9
$DIMSTYLE
  2
ISO-25
  9
$DIMCLRD
 70
     0
  9
$DIMCLRE
 70
     0
  9
$DIMCLRT
 70
     0
  9
$DIMTFAC
 40
1.0
  9
$DIMGAP
 40
1.0
  9
$DIMJUST
 70
     0
  9
$DIMSD1
 70
     0
  9
$DIMSD2
 70
     0
  9
$DIMTOLJ
 70
     0
  9
$DIMTZIN
 70
     8
  9
$DIMALTZ
 70
     0
  9
$DIMALTTZ
 70
     0
  9
$DIMUPT
 70
     0
  9
$DIMDEC
 70
     2
  9
$DIMTDEC
 70
     2
  9
$DIMALTU
 70
     2
  9
$DIMALTTD
 70
     3
  9
$DIMTXSTY
  7
STANDARD
  9
$DIMAUNIT
 70
     0
  9
$DIMADEC
 70
     0
  9
$DIMALTRND
 40
0.0
  9
$DIMAZIN
 70
     0
  9
$DIMDSEP
 70
    46
  9
$DIMATFIT
 70
     3
  9
$DIMFRAC
 70
     0
  9
$DIMLDRBLK
  1

  9
$DIMLUNIT
 70
     2
  9
$DIMLWD
 70
    -2
  9
$DIMLWE
 70
    -2
  9
$DIMTMOVE
 70
     0
  9
$LUNITS
 70
     2
  9
$LUPREC
 70
     4
  9
$SKETCHINC
 40
1.0
  9
$FILLETRAD
 40
0.0
  9
$AUNITS
 70
     0
  9
$AUPREC
 70
     0
  9
$MENU
  1
.
  9
$ELEVATION
 40
0.0
  9
$PELEVATION
 40
0.0
  9
$THICKNESS
 40
0.0
  9
$LIMCHECK
 70
     0
  9
$CHAMFERA
 40
0.0
  9
$CHAMFERB
 40
0.0
  9
$CHAMFERC
 40
0.0
  9
$CHAMFERD
 40
0.0
  9
$SKPOLY
 70
     0
  9
$TDCREATE
 40
2454085.658923611
  9
$TDUCREATE
 40
2454085.658923611
  9
$TDUPDATE
 40
2454085.658923611
  9
$TDUUPDATE
 40
2454085.658923611
  9
$TDINDWG
 40
0.0
  9
$TDUSRTIMER
 40
0.0
  9
$USRTIMER
 70
     1
  9
$ANGBASE
 50
0.0
  9
$ANGDIR
 70
     0
  9
$PDMODE
 70
     0
  9
$PDSIZE
 40
0.0
  9
$PLINEWID
 40
0.0
  9
$SPLFRAME
 70
     0
  9
$SPLINETYPE
 70
     6
  9
$SPLINESEGS
 70
     8
  9
$HANDSEED
  5
E2
  9
$SURFTAB1
 70
     6
  9
$SURFTAB2
 70
     6
  9
$SURFTYPE
 70
     6
  9
$SURFU
 70
     6
  9
$SURFV
 70
     6
  9
$UCSBASE
  2

  9
$UCSNAME
  2

  9
$UCSORG
 10
0.0
 20
0.0
 30
0.0
  9
$UCSXDIR
 10
1.0
 20
0.0
 30
0.0
  9
$UCSYDIR
 10
0.0
 20
1.0
 30
0.0
  9
$UCSORTHOREF
  2

  9
$UCSORTHOVIEW
 70
     0
  9
$UCSORGTOP
 10
0.0
 20
0.0
 30
0.0
  9
$UCSORGBOTTOM
 10
0.0
 20
0.0
 30
0.0
  9
$UCSORGLEFT
 10
0.0
 20
0.0
 30
0.0
  9
$UCSORGRIGHT
 10
0.0
 20
0.0
 30
0.0
  9
$UCSORGFRONT
 10
0.0
 20
0.0
 30
0.0
  9
$UCSORGBACK
 10
0.0
 20
0.0
 30
0.0
  9
$PUCSBASE
  2

  9
$PUCSNAME
  2

  9
$PUCSORG
 10
0.0
 20
0.0
 30
0.0
  9
$PUCSXDIR
 10
1.0
 20
0.0
 30
0.0
  9
$PUCSYDIR
 10
0.0
 20
1.0
 30
0.0
  9
$PUCSORTHOREF
  2

  9
$PUCSORTHOVIEW
 70
     0
  9
$PUCSORGTOP
 10
0.0
 20
0.0
 30
0.0
  9
$PUCSORGBOTTOM
 10
0.0
 20
0.0
 30
0.0
  9
$PUCSORGLEFT
 10
0.0
 20
0.0
 30
0.0
  9
$PUCSORGRIGHT
 10
0.0
 20
0.0
 30
0.0
  9
$PUCSORGFRONT
 10
0.0
 20
0.0
 30
0.0
  9
$PUCSORGBACK
 10
0.0
 20
0.0
 30
0.0
  9
$USERI1
 70
     0
  9
$USERI2
 70
     0
  9
$USERI3
 70
     0
  9
$USERI4
 70
     0
  9
$USERI5
 70
     0
  9
$USERR1
 40
0.0
  9
$USERR2
 40
0.0
  9
$USERR3
 40
0.0
  9
$USERR4
 40
0.0
  9
$USERR5
 40
0.0
  9
$WORLDVIEW
 70
     1
  9
$SHADEDGE
 70
     3
  9
$SHADEDIF
 70
    70
  9
$MAXACTVP
 70
    16
  9
$PINSBASE
 10
0.0
 20
0.0
 30
0.0
  9
$PLIMCHECK
 70
     0
  9
$PEXTMIN
 10
1.000000E+20
 20
1.000000E+20
 30
1.000000E+20
  9
$PEXTMAX
 10
-1.000000E+20
 20
-1.000000E+20
 30
-1.000000E+20
  9
$PLIMMIN
 10
-63.40000000000001
 20
-80.60764338003298
  9
$PLIMMAX
 10
49.5
 20
304.85
  9
$UNITMODE
 70
     0
  9
$VISRETAIN
 70
     0
  9
$PLINEGEN
 70
     0
  9
$PSLTSCALE
 70
     0
  9
$TREEDEPTH
 70
  3020
  9
$CMLSTYLE
  2
STANDARD
  9
$CMLJUST
 70
     0
  9
$CMLSCALE
 40
1.0
  9
$PROXYGRAPHICS
 70
     1
  9
$MEASUREMENT
 70
     0
  9
$CELWEIGHT
370
    -3
  9
$ENDCAPS
280
     0
  9
$JOINSTYLE
280
     0
  9
$LWDISPLAY
290
     1
  9
$INSUNITS
 70
     0
  9
$HYPERLINKBASE
  1

  9
$STYLESHEET
  1

  9
$XEDIT
290
     1
  9
$CEPSNTYPE
380
     0
  9
$PSTYLEMODE
290
     1
  9
$FINGERPRINTGUID
  2
{6F25CFC2-5053-11D3-9BE9-00805F4AB38E}
  9
$VERSIONGUID
  2
{6F25CFC5-5053-11D3-9BE9-00805F4AB38E}
  9
$EXTNAMES
290
     1
  9
$PSVPSCALE
 40
0.0
  9
$OLESTARTUP
290
     0
  0
ENDSEC
  0
SECTION
  2
CLASSES
  0
CLASS
  1
LWPOLYLINE
  2
AcDbPolyline
  3
AutoCAD 2000
 90
    32768
280
     0
281
     1
  0
CLASS
  1
DICTIONARYVAR
  2
AcDbDictionaryVar
  3
AutoCAD 2000
 90
        0
280
     0
281
     1
  0
CLASS
  1
ACDBDICTIONARYWDFLT
  2
AcDbDictionaryWithDefault
  3
AutoCAD 2000
 90
        0
280
     0
281
     1
  0
CLASS
  1
ACDBPLACEHOLDER
  2
AcDbPlaceHolder
  3
AutoCAD 2000
 90
        0
280
     0
281
     1
  0
CLASS
  1
LAYOUT
  2
AcDbLayout
  3
AutoCAD 2000
 90
        0
280
     0
281
     1
  0
CLASS
  1
HATCH
  2
AcDbHatch
  3
AutoCAD 2000
 90
        0
280
     0
281
     1
  0
ENDSEC
  0
SECTION
  2
TABLES
  0
TABLE
  2
VPORT
  5
8
100
AcDbSymbolTable
 70
     1
  0
VPORT
  5
D7
330
0
100
AcDbSymbolTableRecord
100
AcDbViewportTableRecord
  2
*ACTIVE
 70
     0
 10
0.0
 20
0.0
 11
1.0
 21
1.0
 12
-6.950000000000003
 22
112.1211783099835
 13
0.0
 23
0.0
 14
0.0
 24
0.0
 15
0.0
 25
0.0
 16
0.0
 26
0.0
 36
1.0
 17
0.0
 27
0.0
 37
0.0
 40
385.457643380033
 41
1.5
 42
50.0
 43
0.0
 44
0.0
 50
0.0
 51
0.0
 71
     0
 72
   100
 73
     1
 74
     1
 75
     0
 76
     0
 77
     0
 78
     0
281
     0
 65
     1
110
0.0
120
0.0
130
0.0
111
1.0
121
0.0
131
0.0
112
0.0
122
1.0
132
0.0
 79
     0
146
0.0
  0
ENDTAB
  0
TABLE
  2
LTYPE
  5
5
330
0
100
AcDbSymbolTable
 70
    20
  0
LTYPE
  5
D8
330
5
100
AcDbSymbolTableRecord
100
AcDbLinetypeTableRecord
  2
BYBLOCK
 70
     0
  3

 72
    65
 73
     0
 40
0.0
  0
LTYPE
  5
D9
330
5
100
AcDbSymbolTableRecord
100
AcDbLinetypeTableRecord
  2
BYLAYER
 70
     0
  3

 72
    65
 73
     0
 40
0.0
  0
LTYPE
  5
DA
330
5
100
AcDbSymbolTableRecord
100
AcDbLinetypeTableRecord
  2
CONTINUOUS
 70
    64
  3
solid line
 72
    65
 73
     0
 40
0.0
  0
LTYPE
  5
DB
330
0
100
AcDbSymbolTableRecord
100
AcDbLinetypeTableRecord
  2
DASHED
 70
    64
  3
-- -- -- -- -- -- -- -- -- -- 
 72
    65
 73
     2
 40
3.75
 49
2.5
 74
     0
 49
-1.25
 74
     0
  0
LTYPE
  5
DC
330
0
100
AcDbSymbolTableRecord
100
AcDbLinetypeTableRecord
  2
CENTER
 70
    64
  3
--- - --- - --- - --- - --- - 
 72
    65
 73
     4
 40
7.5
 49
3.75
 74
     0
 49
-1.25
 74
     0
 49
1.25
 74
     0
 49
-1.25
 74
     0
  0
ENDTAB
  0
TABLE
  2
LAYER
  5
2
330
0
100
AcDbSymbolTable
 70
    20
  0
LAYER
  5
DD
330
2
100
AcDbSymbolTableRecord
100
AcDbLayerTableRecord
  2
0
 70
    64
 62
     7
  6
CONTINUOUS
370
    -3
390
D3
  0
LAYER
  5
25
330
2
100
AcDbSymbolTableRecord
100
AcDbLayerTableRecord
  2
100
 70
    64
 62
     7
  6
CONTINUOUS
370
    -3
390
D3
  0
ENDTAB
  0
TABLE
  2
STYLE
  5
3
330
0
100
AcDbSymbolTable
 70
     4
  0
STYLE
  5
DE
330
3
100
AcDbSymbolTableRecord
100
AcDbTextStyleTableRecord
  2
STANDARD
 70
    64
 40
0.0
 41
1.052631578947368
 50
0.0
 71
     0
 42
3.75
  3
monotxt
  4

  0
ENDTAB
  0
TABLE
  2
VIEW
  5
6
330
0
100
AcDbSymbolTable
 70
     0
  0
ENDTAB
  0
TABLE
  2
UCS
  5
7
330
0
100
AcDbSymbolTable
 70
     0
  0
ENDTAB
  0
TABLE
  2
APPID
  5
9
330
0
100
AcDbSymbolTable
 70
     1
  0
APPID
  5
DF
330
9
100
AcDbSymbolTableRecord
100
AcDbRegAppTableRecord
  2
ACAD
 70
     0
  0
ENDTAB
  0
TABLE
  2
DIMSTYLE
  5
A
330
0
100
AcDbSymbolTable
 70
     8
100
AcDbDimStyleTable
 71
     0
  0
DIMSTYLE
105
E0
330
A
100
AcDbSymbolTableRecord
100
AcDbDimStyleTableRecord
  2
ISO-25
 70
     0
  3

  4

  5

  6

  7

 40
1.0
 41
3.0
 42
1.0
 43
5.0
 44
2.0
 45
0.0
 46
5.0
 47
0.0
 48
0.0
140
3.0
141
2.0
142
0.0
143
25.4
144
1.0
145
1.0
146
1.0
147
1.0
 71
     0
 72
     0
 73
     0
 74
     0
 75
     0
 76
     0
 77
     1
 78
     8
170
     0
171
     0
172
     1
173
     0
174
     0
175
     0
176
     0
177
     0
178
     0
270
     0
271
     2
272
     2
273
     2
274
     3
340
DE
275
     0
277
     2
280
     0
281
     0
282
     0
283
     0
284
     8
285
     0
286
     0
287
     3
288
     0
  0
DIMSTYLE
105
E1
330
A
100
AcDbSymbolTableRecord
100
AcDbDimStyleTableRecord
  2
ISO-25 0.8
 70
     0
  3

  4

  5

  6

  7

 40
1.0
 41
3.0
 42
1.0
 43
5.0
 44
2.0
 45
0.0
 46
5.0
 47
0.0
 48
0.0
140
3.0
141
2.0
142
0.0
143
25.4
144
1.25
145
1.0
146
1.0
147
1.0
 71
     0
 72
     0
 73
     0
 74
     0
 75
     0
 76
     0
 77
     1
 78
     8
170
     0
171
     0
172
     1
173
     0
174
     0
175
     0
176
     0
177
     0
178
     0
270
     0
271
     2
272
     2
273
     2
274
     3
340
DE
275
     0
277
     2
280
     0
281
     0
282
     0
283
     0
284
     8
285
     0
286
     0
287
     3
288
     0
  0
ENDTAB
  0
TABLE
  2
BLOCK_RECORD
  5
1
330
0
100
AcDbSymbolTable
 70
     2
  0
BLOCK_RECORD
  5
20
330
1
100
AcDbSymbolTableRecord
100
AcDbBlockTableRecord
  2
*MODEL_SPACE
340
D4
  0
BLOCK_RECORD
  5
22
330
1
100
AcDbSymbolTableRecord
100
AcDbBlockTableRecord
  2
*PAPER_SPACE
340
0
  0
ENDTAB
  0
ENDSEC
  0
SECTION
  2
BLOCKS
  0
BLOCK
  5
21
330
20
100
AcDbEntity
  8
0
100
AcDbBlockBegin
  2
*MODEL_SPACE
 70
     0
 10
0.0
 20
0.0
 30
0.0
  3
*MODEL_SPACE
  1

  0
ENDBLK
  5
D5
330
20
100
AcDbEntity
  8
0
100
AcDbBlockEnd
  0
BLOCK
  5
23
330
22
100
AcDbEntity
 67
     1
  8
0
100
AcDbBlockBegin
  2
*PAPER_SPACE
 70
     0
 10
0.0
 20
0.0
 30
0.0
  3
*PAPER_SPACE
  1

  0
ENDBLK
  5
D6
330
22
100
AcDbEntity
 67
     1
  8
0
100
AcDbBlockEnd
  0
ENDSEC
  0
SECTION
  2
ENTITIES
  0
LINE
  5
24
330
20
100
AcDbEntity
  8
100
  6
CONTINUOUS
100
AcDbLine
 10
-44.5
 20
69.0
 11
44.5
 21
69.0
  0
CIRCLE
  5
26
330
20
100
AcDbEntity
  8
100
  6
CONTINUOUS
100
AcDbCircle
 10
0.0
 20
255.35
 40
44.5
  0
LINE
  5
27
330
20
100
AcDbEntity
  8
100
  6
CENTER
100
AcDbLine
 10
-49.5
 20
255.35
 11
49.5
 21
255.35
  0
LINE
  5
28
330
20
100
AcDbEntity
  8
100
  6
CENTER
100
AcDbLine
 10
0.0
 20
205.85
 11
0.0
 21
304.85
  0
LINE
  5
29
330
20
100
AcDbEntity
  8
100
  6
CONTINUOUS
100
AcDbLine
 10
44.5
 20
-70.40000000000001
 11
44.5
 21
69.0
  0
ARC
  5
2A
330
20
100
AcDbEntity
  8
100
  6
CONTINUOUS
100
AcDbCircle
 10
0.0
 20
-4.0
 40
100.0
100
AcDbArc
 50
82.53040768358308
 51
97.46959231641694
  0
LINE
  5
2B
330
20
100
AcDbEntity
  8
100
  6
CONTINUOUS
100
AcDbLine
 10
-13.0
 20
81.19999999999999
 11
-13.0
 21
95.15139938498095
  0
LINE
  5
2C
330
20
100
AcDbEntity
  8
100
  6
CONTINUOUS
100
AcDbLine
 10
13.0
 20
81.19999999999999
 11
13.0
 21
95.15139938498095
  0
LINE
  5
2D
330
20
100
AcDbEntity
  8
100
  6
CONTINUOUS
100
AcDbLine
 10
-13.0
 20
95.15139938498095
 11
-6.9282032302755
 21
95.15139938498095
  0
LINE
  5
2E
330
20
100
AcDbEntity
  8
100
  6
CONTINUOUS
100
AcDbLine
 10
6.9282032302755
 20
95.15139938498095
 11
13.0
 21
95.15139938498095
  0
LINE
  5
2F
330
20
100
AcDbEntity
  8
100
  6
CONTINUOUS
100
AcDbLine
 10
-6.9282032302755
 20
82.07999999999998
 11
-6.9282032302755
 21
95.15139938498095
  0
LINE
  5
30
330
20
100
AcDbEntity
  8
100
  6
CONTINUOUS
100
AcDbLine
 10
6.9282032302755
 20
82.07999999999998
 11
6.9282032302755
 21
95.15139938498095
  0
ARC
  5
31
330
20
100
AcDbEntity
  8
100
  6
CONTINUOUS
100
AcDbCircle
 10
0.0
 20
38.79979732275939
 40
56.77590206222155
100
AcDbArc
 50
82.990888616307
 51
97.009111383693
  0
LINE
  5
32
330
20
100
AcDbEntity
  8
100
  6
CONTINUOUS
100
AcDbLine
 10
-12.13397459621555
 20
79.69999999999999
 11
12.13397459621555
 21
79.69999999999999
  0
LINE
  5
33
330
20
100
AcDbEntity
  8
100
  6
CONTINUOUS
100
AcDbLine
 10
-13.0
 20
81.19999999999999
 11
12.99999999999999
 21
81.19999999999999
  0
LINE
  5
34
330
20
100
AcDbEntity
  8
100
  6
CONTINUOUS
100
AcDbLine
 10
-6.9282032302755
 20
82.07999999999998
 11
6.9282032302755
 21
82.07999999999998
  0
LINE
  5
35
330
20
100
AcDbEntity
  8
100
  6
CONTINUOUS
100
AcDbLine
 10
12.13397459621558
 20
79.70000000000005
 11
13.00000000000001
 21
81.20000000000005
  0
LINE
  5
36
330
20
100
AcDbEntity
  8
100
  6
CONTINUOUS
100
AcDbLine
 10
-12.13397459621552
 20
79.69999999999993
 11
-12.99999999999997
 21
81.19999999999996
  0
LINE
  5
37
330
20
100
AcDbEntity
  8
100
  6
CONTINUOUS
100
AcDbLine
 10
11.30500000000001
 20
78.0
 11
11.30500000000001
 21
79.69999999999999
  0
LINE
  5
38
330
20
100
AcDbEntity
  8
100
  6
CONTINUOUS
100
AcDbLine
 10
-11.30500000000001
 20
78.0
 11
-11.30500000000001
 21
79.69999999999999
  0
LINE
  5
39
330
20
100
AcDbEntity
  8
100
  6
CENTER
100
AcDbLine
 10
0.0
 20
-80.60764338003298
 11
0.0
 21
104.4905481614005
  0
LINE
  5
3A
330
20
100
AcDbEntity
  8
100
  6
CONTINUOUS
100
AcDbLine
 10
-16.38032367250125
 20
78.0
 11
16.38032367250124
 21
78.0
  0
LINE
  5
3B
330
20
100
AcDbEntity
  8
100
  6
CONTINUOUS
100
AcDbLine
 10
16.80703496581573
 20
75.58000000000001
 11
16.38032367250125
 21
77.99999999999997
  0
LINE
  5
3C
330
20
100
AcDbEntity
  8
100
  6
CONTINUOUS
100
AcDbLine
 10
-16.80703496581573
 20
75.58000000000001
 11
-16.38032367250125
 21
78.0
  0
CIRCLE
  5
3D
330
20
100
AcDbEntity
  8
100
  6
CONTINUOUS
100
AcDbCircle
 10
0.0
 20
255.35
 40
13.0
  0
LINE
  5
3E
330
20
100
AcDbEntity
  8
100
  6
CONTINUOUS
100
AcDbLine
 10
-6.928203230275479
 20
266.35
 11
6.928203230275479
 21
266.35
  0
LINE
  5
3F
330
20
100
AcDbEntity
  8
100
  6
CONTINUOUS
100
AcDbLine
 10
-6.928203230275479
 20
244.35
 11
6.928203230275479
 21
244.35
  0
LINE
  5
40
330
20
100
AcDbEntity
  8
100
  6
CONTINUOUS
100
AcDbLine
 10
-23.815
 20
71.38
 11
23.815
 21
71.38
  0
LINE
  5
41
330
20
100
AcDbEntity
  8
100
  6
CONTINUOUS
100
AcDbLine
 10
-23.815
 20
75.58000000000001
 11
23.815
 21
75.58000000000001
  0
LINE
  5
42
330
20
100
AcDbEntity
  8
100
  6
CONTINUOUS
100
AcDbLine
 10
-23.815
 20
71.38
 11
-23.815
 21
75.58000000000001
  0
LINE
  5
43
330
20
100
AcDbEntity
  8
100
  6
CONTINUOUS
100
AcDbLine
 10
23.815
 20
71.38
 11
23.815
 21
75.58000000000001
  0
LINE
  5
44
330
20
100
AcDbEntity
  8
100
  6
CONTINUOUS
100
AcDbLine
 10
-21.43
 20
69.0
 11
-21.43
 21
71.38
  0
LINE
  5
45
330
20
100
AcDbEntity
  8
100
  6
CONTINUOUS
100
AcDbLine
 10
21.43000000000001
 20
69.0
 11
21.43000000000001
 21
71.38
  0
CIRCLE
  5
46
330
20
100
AcDbEntity
  8
100
  6
CONTINUOUS
100
AcDbCircle
 10
0.0
 20
255.35
 40
23.815
  0
LINE
  5
47
330
20
100
AcDbEntity
  8
100
  6
CONTINUOUS
100
AcDbLine
 10
-26.75
 20
-25.99999999999999
 11
-26.75
 21
14.00000000000001
  0
LINE
  5
48
330
20
100
AcDbEntity
  8
100
  6
DASHED
100
AcDbLine
 10
-11.595
 20
46.25
 11
11.595
 21
46.25
  0
LINE
  5
49
330
20
100
AcDbEntity
  8
100
  6
DASHED
100
AcDbLine
 10
-13.095
 20
47.75
 11
-13.095
 21
52.59999999999997
  0
LINE
  5
4A
330
20
100
AcDbEntity
  8
100
  6
DASHED
100
AcDbLine
 10
13.095
 20
47.75
 11
13.095
 21
52.59999999999997
  0
LINE
  5
4B
330
20
100
AcDbEntity
  8
100
  6
DASHED
100
AcDbLine
 10
-13.095
 20
52.59999999999999
 11
13.095
 21
52.59999999999999
  0
LINE
  5
4C
330
20
100
AcDbEntity
  8
100
  6
DASHED
100
AcDbLine
 10
5.507921568069058
 20
46.25
 11
0.0
 21
43.06999999999999
  0
LINE
  5
4D
330
20
100
AcDbEntity
  8
100
  6
DASHED
100
AcDbLine
 10
1.421085471520200E-014
 20
43.06999999999998
 11
-5.507921568069044
 21
46.25
  0
ARC
  5
4E
330
20
100
AcDbEntity
  8
100
  6
DASHED
100
AcDbCircle
 10
11.595
 20
47.75
 40
1.5
100
AcDbArc
 50
270.0
 51
0.0
  0
ARC
  5
4F
330
20
100
AcDbEntity
  8
100
  6
DASHED
100
AcDbCircle
 10
-11.595
 20
47.75
 40
1.5
100
AcDbArc
 50
180.0
 51
270.0
  0
LINE
  5
50
330
20
100
AcDbEntity
  8
100
  6
DASHED
100
AcDbLine
 10
-12.765
 20
74.03
 11
12.765
 21
74.03
  0
LINE
  5
51
330
20
100
AcDbEntity
  8
100
  6
DASHED
100
AcDbLine
 10
-12.765
 20
74.03
 11
-12.765
 21
76.72694282964193
  0
LINE
  5
52
330
20
100
AcDbEntity
  8
100
  6
DASHED
100
AcDbLine
 10
12.765
 20
74.03
 11
12.765
 21
76.72694282964193
  0
LINE
  5
53
330
20
100
AcDbEntity
  8
100
  6
DASHED
100
AcDbLine
 10
12.765
 20
76.72694282964193
 11
13.49999990000001
 21
78.0
  0
LINE
  5
54
330
20
100
AcDbEntity
  8
100
  6
DASHED
100
AcDbLine
 10
-12.76500000000001
 20
76.72694282964196
 11
-13.49999990000001
 21
78.0
  0
LINE
  5
55
330
20
100
AcDbEntity
  8
100
  6
DASHED
100
AcDbLine
 10
-12.765
 20
76.72694282964193
 11
12.765
 21
76.72694282964193
  0
LINE
  5
56
330
20
100
AcDbEntity
  8
100
  6
DASHED
100
AcDbLine
 10
-10.9175
 20
72.94750000000002
 11
-11.99999999999999
 21
74.03
  0
LINE
  5
57
330
20
100
AcDbEntity
  8
100
  6
DASHED
100
AcDbLine
 10
10.9175
 20
72.94749999999999
 11
12.0
 21
74.03
  0
LINE
  5
58
330
20
100
AcDbEntity
  8
100
  6
DASHED
100
AcDbLine
 10
-10.9175
 20
72.94750000000002
 11
10.91750000000003
 21
72.94750000000002
  0
LINE
  5
59
330
20
100
AcDbEntity
  8
100
  6
DASHED
100
AcDbLine
 10
-10.9175
 20
-66.94750000000002
 11
10.91750000000003
 21
-66.94750000000002
  0
LINE
  5
5A
330
20
100
AcDbEntity
  8
100
  6
DASHED
100
AcDbLine
 10
10.9175
 20
-66.94749999999999
 11
12.0
 21
-68.03
  0
LINE
  5
5B
330
20
100
AcDbEntity
  8
100
  6
DASHED
100
AcDbLine
 10
-12.765
 20
-68.03
 11
12.765
 21
-68.03
  0
LINE
  5
5C
330
20
100
AcDbEntity
  8
100
  6
DASHED
100
AcDbLine
 10
12.765
 20
-68.03
 11
12.765
 21
-70.72694282964193
  0
LINE
  5
5D
330
20
100
AcDbEntity
  8
100
  6
DASHED
100
AcDbLine
 10
-12.765
 20
-70.72694282964193
 11
12.765
 21
-70.72694282964193
  0
LINE
  5
5E
330
20
100
AcDbEntity
  8
100
  6
DASHED
100
AcDbLine
 10
12.765
 20
-70.72694282964193
 11
13.49999990000001
 21
-72.0
  0
LINE
  5
5F
330
20
100
AcDbEntity
  8
100
  6
DASHED
100
AcDbLine
 10
-12.76500000000001
 20
-70.72694282964196
 11
-13.49999990000001
 21
-72.0
  0
LINE
  5
60
330
20
100
AcDbEntity
  8
100
  6
DASHED
100
AcDbLine
 10
-12.765
 20
-68.03
 11
-12.765
 21
-70.72694282964193
  0
LINE
  5
61
330
20
100
AcDbEntity
  8
100
  6
DASHED
100
AcDbLine
 10
-10.9175
 20
-66.94750000000002
 11
-11.99999999999999
 21
-68.03
  0
LINE
  5
62
330
20
100
AcDbEntity
  8
100
  6
DASHED
100
AcDbLine
 10
-13.095
 20
-46.59999999999999
 11
13.095
 21
-46.59999999999999
  0
LINE
  5
63
330
20
100
AcDbEntity
  8
100
  6
DASHED
100
AcDbLine
 10
-13.095
 20
-41.75
 11
-13.095
 21
-46.59999999999997
  0
LINE
  5
64
330
20
100
AcDbEntity
  8
100
  6
DASHED
100
AcDbLine
 10
-11.595
 20
-40.25
 11
11.595
 21
-40.25
  0
LINE
  5
65
330
20
100
AcDbEntity
  8
100
  6
DASHED
100
AcDbLine
 10
1.421085471520200E-014
 20
-37.06999999999998
 11
-5.507921568069044
 21
-40.25
  0
ARC
  5
66
330
20
100
AcDbEntity
  8
100
  6
DASHED
100
AcDbCircle
 10
-11.595
 20
-41.75
 40
1.5
100
AcDbArc
 50
90.0
 51
180.0
  0
LINE
  5
67
330
20
100
AcDbEntity
  8
100
  6
DASHED
100
AcDbLine
 10
13.095
 20
-41.75
 11
13.095
 21
-46.59999999999997
  0
ARC
  5
68
330
20
100
AcDbEntity
  8
100
  6
DASHED
100
AcDbCircle
 10
11.595
 20
-41.75
 40
1.5
100
AcDbArc
 50
0.0
 51
90.0
  0
LINE
  5
69
330
20
100
AcDbEntity
  8
100
  6
DASHED
100
AcDbLine
 10
5.507921568069065
 20
-40.25
 11
0.0
 21
-37.06999999999999
  0
LINE
  5
6A
330
20
100
AcDbEntity
  8
100
  6
CONTINUOUS
100
AcDbLine
 10
-44.5
 20
-70.40000000000001
 11
44.5
 21
-70.40000000000001
  0
LINE
  5
6B
330
20
100
AcDbEntity
  8
100
  6
CONTINUOUS
100
AcDbLine
 10
-32.0
 20
-72.0
 11
32.0
 21
-72.0
  0
LINE
  5
6C
330
20
100
AcDbEntity
  8
100
  6
CONTINUOUS
100
AcDbLine
 10
-32.0
 20
-72.0
 11
-32.0
 21
-70.40000000000001
  0
LINE
  5
6D
330
20
100
AcDbEntity
  8
100
  6
CONTINUOUS
100
AcDbLine
 10
32.0
 20
-72.0
 11
32.0
 21
-70.40000000000001
  0
LINE
  5
6E
330
20
100
AcDbEntity
  8
100
  6
DASHED
100
AcDbLine
 10
13.09499999999998
 20
52.59999999999999
 11
10.91750000000004
 21
53.85718021116037
  0
LINE
  5
6F
330
20
100
AcDbEntity
  8
100
  6
DASHED
100
AcDbLine
 10
-10.91750000000001
 20
53.85718021116037
 11
-13.09499999999996
 21
52.59999999999999
  0
LINE
  5
70
330
20
100
AcDbEntity
  8
100
  6
DASHED
100
AcDbLine
 10
10.91750000000003
 20
53.85718021116037
 11
10.91750000000003
 21
72.94750000000002
  0
LINE
  5
71
330
20
100
AcDbEntity
  8
100
  6
DASHED
100
AcDbLine
 10
12.0
 20
53.23219854476261
 11
12.0
 21
74.03
  0
LINE
  5
72
330
20
100
AcDbEntity
  8
100
  6
DASHED
100
AcDbLine
 10
-10.9175
 20
53.85718021116037
 11
-10.9175
 21
72.94750000000002
  0
LINE
  5
73
330
20
100
AcDbEntity
  8
100
  6
DASHED
100
AcDbLine
 10
-11.99999999999999
 20
53.23219854476261
 11
-11.99999999999999
 21
74.03
  0
LINE
  5
74
330
20
100
AcDbEntity
  8
100
  6
DASHED
100
AcDbLine
 10
-10.9175
 20
53.85718021116037
 11
10.91750000000003
 21
53.85718021116037
  0
LINE
  5
75
330
20
100
AcDbEntity
  8
100
  6
DASHED
100
AcDbLine
 10
10.91750000000003
 20
-47.85718021116038
 11
13.095
 21
-46.59999999999999
  0
LINE
  5
76
330
20
100
AcDbEntity
  8
100
  6
DASHED
100
AcDbLine
 10
-10.9175
 20
-47.8571802111604
 11
-13.095
 21
-46.59999999999999
  0
LINE
  5
77
330
20
100
AcDbEntity
  8
100
  6
DASHED
100
AcDbLine
 10
12.0
 20
-68.03
 11
12.0
 21
-47.23219854476263
  0
LINE
  5
78
330
20
100
AcDbEntity
  8
100
  6
DASHED
100
AcDbLine
 10
10.91750000000003
 20
-66.94750000000002
 11
10.91750000000003
 21
-47.85718021116038
  0
LINE
  5
79
330
20
100
AcDbEntity
  8
100
  6
DASHED
100
AcDbLine
 10
-10.9175
 20
-66.94750000000002
 11
-10.9175
 21
-47.8571802111604
  0
LINE
  5
7A
330
20
100
AcDbEntity
  8
100
  6
DASHED
100
AcDbLine
 10
-11.99999999999999
 20
-68.03
 11
-11.99999999999999
 21
-47.23219854476265
  0
LINE
  5
7B
330
20
100
AcDbEntity
  8
100
  6
DASHED
100
AcDbLine
 10
-10.9175
 20
-47.8571802111604
 11
10.91750000000003
 21
-47.8571802111604
  0
CIRCLE
  5
7C
330
20
100
AcDbEntity
  8
100
  6
CONTINUOUS
100
AcDbCircle
 10
0.0
 20
255.35
 40
16.38032368
  0
LINE
  5
7D
330
20
100
AcDbEntity
  8
100
  6
CONTINUOUS
100
AcDbLine
 10
-44.5
 20
-70.40000000000001
 11
-44.5
 21
-26.0
  0
LINE
  5
7E
330
20
100
AcDbEntity
  8
100
  6
CONTINUOUS
100
AcDbLine
 10
-44.5
 20
14.00000000000001
 11
-44.5
 21
69.0
  0
LINE
  5
7F
330
20
100
AcDbEntity
  8
100
  6
CONTINUOUS
100
AcDbLine
 10
-57.0
 20
215.6008778856283
 11
-31.0
 21
215.6008778856283
  0
LINE
  5
80
330
20
100
AcDbEntity
  8
100
  6
CONTINUOUS
100
AcDbLine
 10
-55.03882717202356
 20
213.6633473903837
 11
-54.20875000000001
 21
187.1008778856283
  0
LINE
  5
81
330
20
100
AcDbEntity
  8
100
  6
CONTINUOUS
100
AcDbLine
 10
-44.0
 20
200.7008778856283
 11
-54.63374999999996
 21
200.7008778856283
  0
LINE
  5
82
330
20
100
AcDbEntity
  8
100
  6
CONTINUOUS
100
AcDbLine
 10
-58.5
 20
221.6
 11
-58.5
 21
289.1
  0
ARC
  5
83
330
20
100
AcDbEntity
  8
100
  6
CONTINUOUS
100
AcDbCircle
 10
-57.03785132419773
 20
213.6008778856283
 40
1.999999999999998
100
AcDbArc
 50
1.789910608245612
 51
88.91557469397333
  0
LINE
  5
84
330
20
100
AcDbEntity
  8
100
  6
CONTINUOUS
100
AcDbLine
 10
-57.0
 20
215.6008778856283
 11
-57.0
 21
221.5031970430817
  0
LINE
  5
85
330
20
100
AcDbEntity
  8
100
  6
CONTINUOUS
100
AcDbLine
 10
-44.0
 20
200.7008778856283
 11
-33.36624999999998
 21
200.7008778856283
  0
LINE
  5
86
330
20
100
AcDbEntity
  8
100
  6
CONTINUOUS
100
AcDbLine
 10
-34.52825000000001
 20
200.7008778856283
 11
-34.95325000000003
 21
187.1008778856283
  0
LINE
  5
87
330
20
100
AcDbEntity
  8
100
  6
CONTINUOUS
100
AcDbLine
 10
-32.96117282797638
 20
213.6633473903838
 11
-33.79124999999999
 21
187.1008778856283
  0
LINE
  5
88
330
20
100
AcDbEntity
  8
100
  6
CONTINUOUS
100
AcDbLine
 10
-53.47174999999999
 20
200.7008778856283
 11
-53.04674999999998
 21
187.1008778856283
  0
LINE
  5
89
330
20
100
AcDbEntity
  8
100
  6
CENTER
100
AcDbLine
 10
-44.0
 20
159.8508778856283
 11
-44.0
 21
224.8508778856283
  0
LINE
  5
8A
330
20
100
AcDbEntity
  8
100
  6
CONTINUOUS
100
AcDbLine
 10
-39.0
 20
162.7010454364894
 11
-39.0
 21
187.1008778856283
  0
LINE
  5
8B
330
20
100
AcDbEntity
  8
100
  6
CONTINUOUS
100
AcDbLine
 10
-49.0
 20
162.7010454364894
 11
-49.0
 21
187.1008778856283
  0
LINE
  5
8C
330
20
100
AcDbEntity
  8
100
  6
CONTINUOUS
100
AcDbLine
 10
-54.20875000000001
 20
187.1008778856283
 11
-33.79124999999999
 21
187.1008778856283
  0
POLYLINE
  5
8D
330
20
100
AcDbEntity
  8
100
  6
CONTINUOUS
100
AcDb2dPolyline
 66
     1
 10
0.0
 20
0.0
 70
     0
 40
0.0
 41
0.0
  0
VERTEX
  5
8E
330
20
100
AcDbEntity
  8
100
100
AcDbVertex
100
AcDb2dVertex
 10
-49.00000000000006
 20
162.7010454364894
  0
VERTEX
  5
8F
330
20
100
AcDbEntity
  8
100
100
AcDbVertex
100
AcDb2dVertex
 10
-48.24869589857917
 20
163.5545279318932
  0
VERTEX
  5
90
330
20
100
AcDbEntity
  8
100
100
AcDbVertex
100
AcDb2dVertex
 10
-47.60522344686849
 20
164.1504369617717
  0
VERTEX
  5
91
330
20
100
AcDbEntity
  8
100
100
AcDbVertex
100
AcDb2dVertex
 10
-47.01958472753124
 20
164.5355382838291
  0
VERTEX
  5
92
330
20
100
AcDbEntity
  8
100
100
AcDbVertex
100
AcDb2dVertex
 10
-46.75147005335176
 20
164.6457703838548
  0
VERTEX
  5
93
330
20
100
AcDbEntity
  8
100
100
AcDbVertex
100
AcDb2dVertex
 10
-46.49999999999994
 20
164.7010454364894
  0
VERTEX
  5
94
330
20
100
AcDbEntity
  8
100
100
AcDbVertex
100
AcDb2dVertex
 10
-46.2299638151141
 20
164.6993582558541
  0
VERTEX
  5
95
330
20
100
AcDbEntity
  8
100
100
AcDbVertex
100
AcDb2dVertex
 10
-45.9570130251429
 20
164.6326921830022
  0
VERTEX
  5
96
330
20
100
AcDbEntity
  8
100
100
AcDbVertex
100
AcDb2dVertex
 10
-45.67909335511575
 20
164.5005883752831
  0
VERTEX
  5
97
330
20
100
AcDbEntity
  8
100
100
AcDbVertex
100
AcDb2dVertex
 10
-45.39273091251884
 20
164.3014198668746
  0
VERTEX
  5
98
330
20
100
AcDbEntity
  8
100
100
AcDbVertex
100
AcDb2dVertex
 10
-44.79434697855751
 20
163.7107920251833
  0
VERTEX
  5
99
330
20
100
AcDbEntity
  8
100
100
AcDbVertex
100
AcDb2dVertex
 10
-43.99999999999994
 20
162.7010454364894
  0
VERTEX
  5
9A
330
20
100
AcDbEntity
  8
100
100
AcDbVertex
100
AcDb2dVertex
 10
-43.2056530214424
 20
161.6912988477953
  0
VERTEX
  5
9B
330
20
100
AcDbEntity
  8
100
100
AcDbVertex
100
AcDb2dVertex
 10
-42.60726908748107
 20
161.100671006104
  0
VERTEX
  5
9C
330
20
100
AcDbEntity
  8
100
100
AcDbVertex
100
AcDb2dVertex
 10
-42.32090664488406
 20
160.9015024976955
  0
VERTEX
  5
9D
330
20
100
AcDbEntity
  8
100
100
AcDbVertex
100
AcDb2dVertex
 10
-42.04298697485692
 20
160.7693986899764
  0
VERTEX
  5
9E
330
20
100
AcDbEntity
  8
100
100
AcDbVertex
100
AcDb2dVertex
 10
-41.77003618488561
 20
160.7027326171246
  0
VERTEX
  5
9F
330
20
100
AcDbEntity
  8
100
100
AcDbVertex
100
AcDb2dVertex
 10
-41.49999999999994
 20
160.7010454364894
  0
VERTEX
  5
A0
330
20
100
AcDbEntity
  8
100
100
AcDbVertex
100
AcDb2dVertex
 10
-41.24852994664805
 20
160.756320489124
  0
VERTEX
  5
A1
330
20
100
AcDbEntity
  8
100
100
AcDbVertex
100
AcDb2dVertex
 10
-40.98041527246846
 20
160.8665525891497
  0
VERTEX
  5
A2
330
20
100
AcDbEntity
  8
100
100
AcDbVertex
100
AcDb2dVertex
 10
-40.39477655313102
 20
161.2516539112073
  0
VERTEX
  5
A3
330
20
100
AcDbEntity
  8
100
100
AcDbVertex
100
AcDb2dVertex
 10
-39.75130410142009
 20
161.847562941086
  0
VERTEX
  5
A4
330
20
100
AcDbEntity
  8
100
100
AcDbVertex
100
AcDb2dVertex
 10
-39.0
 20
162.7010454364894
  0
SEQEND
  5
A5
330
20
100
AcDbEntity
  8
100
  0
SPLINE
  5
A6
330
20
100
AcDbEntity
  8
100
  6
CONTINUOUS
100
AcDbSpline
210
0.0
220
0.0
230
1.0
 70
     8
 71
     3
 72
     9
 73
     5
 74
     0
 42
1.000000000000000E-007
 43
1.000000000000000E-007
 40
0.0
 40
0.0
 40
0.0
 40
0.0
 40
3.302058246347658
 40
6.604116492695446
 40
6.604116492695446
 40
6.604116492695446
 40
6.604116492695446
 10
-48.99999999999994
 20
162.7010454364894
 30
0.0
 10
-48.50000000000028
 20
162.0343787698227
 30
0.0
 10
-46.49999999999996
 20
159.3677121031561
 30
0.0
 10
-44.5
 20
162.0343787698227
 30
0.0
 10
-43.99999999999994
 20
162.7010454364894
 30
0.0
  0
ARC
  5
A7
330
20
100
AcDbEntity
  8
100
  6
CONTINUOUS
100
AcDbCircle
 10
-30.96214867580221
 20
213.6008778856283
 40
2.000000000000001
100
AcDbArc
 50
90.0
 51
178.2100893917536
  0
LINE
  5
A8
330
20
100
AcDbEntity
  8
100
  6
CONTINUOUS
100
AcDbLine
 10
-26.75
 20
290.913322964672
 11
-26.75
 21
291.8477650669481
  0
LINE
  5
A9
330
20
100
AcDbEntity
  8
100
  6
CONTINUOUS
100
AcDbLine
 10
-58.5
 20
221.6
 11
-27.30340823910278
 21
220.2106502830673
  0
LINE
  5
AA
330
20
100
AcDbEntity
  8
100
  6
CONTINUOUS
100
AcDbLine
 10
-26.96590064431936
 20
219.9509858549606
 11
-30.96214867580221
 21
215.6008778856283
  0
LINE
  5
AB
330
20
100
AcDbEntity
  8
100
  6
CENTER
100
AcDbLine
 10
-57.7476770903001
 20
-6.0
 11
-29.44984094537654
 21
-6.0
  0
LINE
  5
AC
330
20
100
AcDbEntity
  8
100
  6
CONTINUOUS
100
AcDbLine
 10
-57.0
 20
-19.0
 11
-57.0
 21
7.0
  0
LINE
  5
AD
330
20
100
AcDbEntity
  8
100
  6
CONTINUOUS
100
AcDbLine
 10
-57.0
 20
7.0
 11
-31.0
 21
7.0
  0
LINE
  5
AE
330
20
100
AcDbEntity
  8
100
  6
CONTINUOUS
100
AcDbLine
 10
-57.0
 20
-19.0
 11
-31.0
 21
-19.0
  0
CIRCLE
  5
AF
330
20
100
AcDbEntity
  8
100
  6
CONTINUOUS
100
AcDbCircle
 10
-44.0
 20
-6.0
 40
8.0
  0
CIRCLE
  5
B0
330
20
100
AcDbEntity
  8
100
  6
CONTINUOUS
100
AcDbCircle
 10
-44.0
 20
-6.0
 40
5.0
  0
CIRCLE
  5
B1
330
20
100
AcDbEntity
  8
100
  6
CONTINUOUS
100
AcDbCircle
 10
-44.0
 20
-6.0
 40
10.20875
  0
LINE
  5
B2
330
20
100
AcDbEntity
  8
100
  6
CONTINUOUS
100
AcDbLine
 10
-58.5
 20
14.0
 11
-26.75
 21
14.0
  0
LINE
  5
B3
330
20
100
AcDbEntity
  8
100
  6
CONTINUOUS
100
AcDbLine
 10
-58.5
 20
-26.0
 11
-26.75
 21
-26.0
  0
LINE
  5
B4
330
20
100
AcDbEntity
  8
100
  6
CONTINUOUS
100
AcDbLine
 10
-58.5
 20
-26.0
 11
-58.5
 21
14.0
  0
LINE
  5
B5
330
20
100
AcDbEntity
  8
100
  6
CONTINUOUS
100
AcDbLine
 10
-31.0
 20
-19.0
 11
-31.0
 21
7.0
  0
LINE
  5
B6
330
20
100
AcDbEntity
  8
100
  6
CENTER
100
AcDbLine
 10
-44.0
 20
-21.4593105894938
 11
-44.0
 21
8.780907309657351
  0
LINE
  5
B7
330
20
100
AcDbEntity
  8
100
  6
CONTINUOUS
100
AcDbLine
 10
-61.5
 20
221.6308778856283
 11
-61.5
 21
289.0700000000001
  0
LINE
  5
B8
330
20
100
AcDbEntity
  8
100
  6
CONTINUOUS
100
AcDbLine
 10
-61.5
 20
221.63
 11
-61.5
 21
289.0700000000001
  0
LINE
  5
B9
330
20
100
AcDbEntity
  8
100
  6
CONTINUOUS
100
AcDbLine
 10
-61.5
 20
289.0700000000001
 11
-58.5
 21
289.0700000000001
  0
LINE
  5
BA
330
20
100
AcDbEntity
  8
100
  6
CONTINUOUS
100
AcDbLine
 10
-61.5
 20
221.63
 11
-58.5
 21
221.63
  0
LINE
  5
BB
330
20
100
AcDbEntity
  8
100
  6
CONTINUOUS
100
AcDbLine
 10
-61.5
 20
-25.545
 11
-61.5
 21
13.545
  0
LINE
  5
BC
330
20
100
AcDbEntity
  8
100
  6
CONTINUOUS
100
AcDbLine
 10
-61.5
 20
13.545
 11
-58.5
 21
13.545
  0
LINE
  5
BD
330
20
100
AcDbEntity
  8
100
  6
CONTINUOUS
100
AcDbLine
 10
-61.5
 20
-25.545
 11
-58.5
 21
-25.545
  0
LINE
  5
BE
330
20
100
AcDbEntity
  8
100
  6
CONTINUOUS
100
AcDbLine
 10
-62.79999999999998
 20
228.2362647374163
 11
-61.5
 21
228.35
  0
LINE
  5
BF
330
20
100
AcDbEntity
  8
100
  6
CONTINUOUS
100
AcDbLine
 10
-62.79999999999998
 20
222.1637352625837
 11
-61.50000000000003
 21
222.05
  0
ARC
  5
C0
330
20
100
AcDbEntity
  8
100
  6
CONTINUOUS
100
AcDbCircle
 10
-55.41758037026867
 20
225.2
 40
7.982419629731323
100
AcDbArc
 50
157.6434605857297
 51
202.3565394142703
  0
ARC
  5
C1
330
20
100
AcDbEntity
  8
100
  6
CONTINUOUS
100
AcDbCircle
 10
-55.41758037026867
 20
285.5
 40
7.982419629731323
100
AcDbArc
 50
157.6434605857296
 51
202.3565394142704
  0
LINE
  5
C2
330
20
100
AcDbEntity
  8
100
  6
CONTINUOUS
100
AcDbLine
 10
-62.79999999999998
 20
282.4637352625837
 11
-61.5
 21
282.35
  0
LINE
  5
C3
330
20
100
AcDbEntity
  8
100
  6
CONTINUOUS
100
AcDbLine
 10
-62.79999999999998
 20
288.5362647374163
 11
-61.50000000000003
 21
288.65
  0
LINE
  5
C4
330
20
100
AcDbEntity
  8
100
  6
CONTINUOUS
100
AcDbLine
 10
-62.79999999999998
 20
-19.6137352625837
 11
-61.5
 21
-19.49999999999999
  0
LINE
  5
C5
330
20
100
AcDbEntity
  8
100
  6
CONTINUOUS
100
AcDbLine
 10
-62.79999999999998
 20
-25.68626473741629
 11
-61.5
 21
-25.79999999999999
  0
ARC
  5
C6
330
20
100
AcDbEntity
  8
100
  6
CONTINUOUS
100
AcDbCircle
 10
-55.41758037026867
 20
-22.64999999999999
 40
7.982419629731341
100
AcDbArc
 50
157.6434605857298
 51
202.3565394142702
  0
LINE
  5
C7
330
20
100
AcDbEntity
  8
100
  6
CONTINUOUS
100
AcDbLine
 10
-61.5
 20
-25.79999999999999
 11
-61.5
 21
-25.545
  0
LINE
  5
C8
330
20
100
AcDbEntity
  8
100
  6
CONTINUOUS
100
AcDbLine
 10
-62.79999999999998
 20
7.613735262583703
 11
-61.5
 21
7.5
  0
LINE
  5
C9
330
20
100
AcDbEntity
  8
100
  6
CONTINUOUS
100
AcDbLine
 10
-62.79999999999998
 20
13.6862647374163
 11
-61.5
 21
13.8
  0
ARC
  5
CA
330
20
100
AcDbEntity
  8
100
  6
CONTINUOUS
100
AcDbCircle
 10
-55.41758037026867
 20
10.65000000000001
 40
7.982419629731341
100
AcDbArc
 50
157.6434605857299
 51
202.3565394142703
  0
LINE
  5
CB
330
20
100
AcDbEntity
  8
100
  6
CONTINUOUS
100
AcDbLine
 10
-61.5
 20
13.545
 11
-61.5
 21
13.8
  0
LINE
  5
CC
330
20
100
AcDbEntity
  8
100
  6
CONTINUOUS
100
AcDbLine
 10
-58.5
 20
289.1
 11
-26.75
 21
291.8777650669481
  0
LINE
  5
CD
330
20
100
AcDbEntity
  8
100
  6
CONTINUOUS
100
AcDbLine
 10
-26.75
 20
291.8477650669481
 11
-26.75
 21
291.8777650669481
  0
ENDSEC
  0
SECTION
  2
OBJECTS
  0
DICTIONARY
  5
C
100
AcDbDictionary
281
     1
  3
ACAD_GROUP
350
D
  3
ACAD_MLINESTYLE
350
E
  3
ACDBVARIABLEDICTIONARY
350
CE
  3
ACAD_PLOTSTYLENAME
350
CF
  3
ACAD_LAYOUT
350
D0
  3
ACAD_PLOTSETTINGS
350
D1
  0
DICTIONARY
  5
D
102
{ACAD_REACTORS
330
C
102
}
330
C
100
AcDbDictionary
281
     1
  0
DICTIONARY
  5
E
102
{ACAD_REACTORS
330
C
102
}
330
C
100
AcDbDictionary
281
     1
  3
STANDARD
350
13
  0
DICTIONARY
  5
CE
102
{ACAD_REACTORS
330
C
102
}
330
C
100
AcDbDictionary
281
     1
  3
SORTENTS
350
D2
  0
ACDBDICTIONARYWDFLT
  5
CF
102
{ACAD_REACTORS
330
C
102
}
330
C
100
AcDbDictionary
281
     1
  3
Normal
350
D3
100
AcDbDictionaryWithDefault
340
D3
  0
DICTIONARY
  5
D0
102
{ACAD_REACTORS
330
C
102
}
330
C
100
AcDbDictionary
281
     1
  3
Model
350
D4
  0
DICTIONARY
  5
D1
102
{ACAD_REACTORS
330
C
102
}
330
C
100
AcDbDictionary
281
     1
  0
MLINESTYLE
  5
13
102
{ACAD_REACTORS
330
E
102
}
330
E
100
AcDbMlineStyle
  2
STANDARD
 70
     0
  3

 62
   256
 51
90.0
 52
90.0
 71
     2
 49
0.5
 62
   256
  6
BYLAYER
 49
-0.5
 62
   256
  6
BYLAYER
  0
DICTIONARYVAR
  5
D2
102
{ACAD_REACTORS
330
CE
102
}
330
CE
100
DictionaryVariables
280
     0
  1
96
  0
ACDBPLACEHOLDER
  5
D3
102
{ACAD_REACTORS
330
CF
102
}
330
CF
  0
LAYOUT
  5
D4
102
{ACAD_REACTORS
330
D0
102
}
330
D0
100
AcDbPlotSettings
  1

  2

  4

  6

 40
0.0
 41
0.0
 42
0.0
 43
0.0
 44
0.0
 45
0.0
 46
0.0
 47
0.0
 48
0.0
 49
0.0
140
0.0
141
0.0
142
1.0
143
1.0
 70
  1712
 72
     0
 73
     0
 74
     0
  7

 75
     0
147
1.0
148
0.0
149
0.0
100
AcDbLayout
  1
Model
 70
     1
 71
     0
 10
0.0
 20
0.0
 11
297.0
 21
210.0
 12
0.0
 22
0.0
 32
0.0
 14
0.0
 24
0.0
 34
0.0
 15
0.0
 25
0.0
 35
0.0
146
0.0
 13
0.0
 23
0.0
 33
0.0
 16
1.0
 26
0.0
 36
0.0
 17
0.0
 27
1.0
 37
0.0
 76
     0
330
20
  0
ENDSEC
  0
EOF
