  0
SECTION
  2
HEADER
  9
$ACADVER
  1
AC1015
  9
$ACADMAINTVER
 70
     0
  9
$DWGCODEPAGE
  3
ANSI_932
  9
$INSBASE
 10
0.0
 20
0.0
 30
0.0
  9
$EXTMIN
 10
-462.0
 20
-490.7473248000442
  9
$EXTMAX
 10
460.0
 20
199.7108519236964
  9
$LIMMIN
 10
-462.0
 20
-490.7473248000442
  9
$LIMMAX
 10
460.0
 20
199.7108519236964
  9
$ORTHOMODE
 70
     0
  9
$REGENMODE
 70
     1
  9
$FILLMODE
 70
     1
  9
$QTEXTMODE
 70
     0
  9
$MIRRTEXT
 70
     1
  9
$LTSCALE
 40
1.0
  9
$OSMODE
 70
     0
  9
$ATTMODE
 70
     1
  9
$TEXTSIZE
 40
3.0
  9
$TRACEWID
 40
0.5
  9
$TEXTSTYLE
  7
STANDARD
  9
$CLAYER
  8
0
  9
$CELTYPE
  6
BYLAYER
  9
$CECOLOR
 62
   256
  9
$CELTSCALE
 40
1.0
  9
$DISPSILH
 70
     0
  9
$DIMSCALE
 40
1.0
  9
$DIMASZ
 40
3.0
  9
$DIMEXO
 40
1.0
  9
$DIMDLI
 40
5.0
  9
$DIMRND
 40
0.0
  9
$DIMDLE
 40
5.0
  9
$DIMEXE
 40
2.0
  9
$DIMTP
 40
0.0
  9
$DIMTM
 40
0.0
  9
$DIMTXT
 40
3.0
  9
$DIMCEN
 40
2.0
  9
$DIMTSZ
 40
0.0
  9
$DIMTOL
 70
     0
  9
$DIMLIM
 70
     0
  9
$DIMTIH
 70
     0
  9
$DIMTOH
 70
     0
  9
$DIMSE1
 70
     0
  9
$DIMSE2
 70
     0
  9
$DIMTAD
 70
     1
  9
$DIMZIN
 70
     8
  9
$DIMBLK
  1

  9
$DIMASO
 70
     1
  9
$DIMSHO
 70
     1
  9
$DIMPOST
  1

  9
$DIMAPOST
  1

  9
$DIMALT
 70
     0
  9
$DIMALTD
 70
     0
  9
$DIMALTF
 40
25.4
  9
$DIMLFAC
 40
1.0
  9
$DIMTOFL
 70
     1
  9
$DIMTVP
 40
1.0
  9
$DIMTIX
 70
     0
  9
$DIMSOXD
 70
     0
  9
$DIMSAH
 70
     0
  9
$DIMBLK1
  1

  9
$DIMBLK2
  1

  9
$DIMSTYLE
  2
ISO-25
  9
$DIMCLRD
 70
     0
  9
$DIMCLRE
 70
     0
  9
$DIMCLRT
 70
     0
  9
$DIMTFAC
 40
1.0
  9
$DIMGAP
 40
1.0
  9
$DIMJUST
 70
     0
  9
$DIMSD1
 70
     0
  9
$DIMSD2
 70
     0
  9
$DIMTOLJ
 70
     0
  9
$DIMTZIN
 70
     8
  9
$DIMALTZ
 70
     0
  9
$DIMALTTZ
 70
     0
  9
$DIMUPT
 70
     0
  9
$DIMDEC
 70
     2
  9
$DIMTDEC
 70
     2
  9
$DIMALTU
 70
     2
  9
$DIMALTTD
 70
     3
  9
$DIMTXSTY
  7
STANDARD
  9
$DIMAUNIT
 70
     0
  9
$DIMADEC
 70
     0
  9
$DIMALTRND
 40
0.0
  9
$DIMAZIN
 70
     0
  9
$DIMDSEP
 70
    46
  9
$DIMATFIT
 70
     3
  9
$DIMFRAC
 70
     0
  9
$DIMLDRBLK
  1

  9
$DIMLUNIT
 70
     2
  9
$DIMLWD
 70
    -2
  9
$DIMLWE
 70
    -2
  9
$DIMTMOVE
 70
     0
  9
$LUNITS
 70
     2
  9
$LUPREC
 70
     4
  9
$SKETCHINC
 40
1.0
  9
$FILLETRAD
 40
0.0
  9
$AUNITS
 70
     0
  9
$AUPREC
 70
     0
  9
$MENU
  1
.
  9
$ELEVATION
 40
0.0
  9
$PELEVATION
 40
0.0
  9
$THICKNESS
 40
0.0
  9
$LIMCHECK
 70
     0
  9
$CHAMFERA
 40
0.0
  9
$CHAMFERB
 40
0.0
  9
$CHAMFERC
 40
0.0
  9
$CHAMFERD
 40
0.0
  9
$SKPOLY
 70
     0
  9
$TDCREATE
 40
2454085.656111111
  9
$TDUCREATE
 40
2454085.656111111
  9
$TDUPDATE
 40
2454085.656111111
  9
$TDUUPDATE
 40
2454085.656111111
  9
$TDINDWG
 40
0.0
  9
$TDUSRTIMER
 40
0.0
  9
$USRTIMER
 70
     1
  9
$ANGBASE
 50
0.0
  9
$ANGDIR
 70
     0
  9
$PDMODE
 70
     0
  9
$PDSIZE
 40
0.0
  9
$PLINEWID
 40
0.0
  9
$SPLFRAME
 70
     0
  9
$SPLINETYPE
 70
     6
  9
$SPLINESEGS
 70
     8
  9
$HANDSEED
  5
D7
  9
$SURFTAB1
 70
     6
  9
$SURFTAB2
 70
     6
  9
$SURFTYPE
 70
     6
  9
$SURFU
 70
     6
  9
$SURFV
 70
     6
  9
$UCSBASE
  2

  9
$UCSNAME
  2

  9
$UCSORG
 10
0.0
 20
0.0
 30
0.0
  9
$UCSXDIR
 10
1.0
 20
0.0
 30
0.0
  9
$UCSYDIR
 10
0.0
 20
1.0
 30
0.0
  9
$UCSORTHOREF
  2

  9
$UCSORTHOVIEW
 70
     0
  9
$UCSORGTOP
 10
0.0
 20
0.0
 30
0.0
  9
$UCSORGBOTTOM
 10
0.0
 20
0.0
 30
0.0
  9
$UCSORGLEFT
 10
0.0
 20
0.0
 30
0.0
  9
$UCSORGRIGHT
 10
0.0
 20
0.0
 30
0.0
  9
$UCSORGFRONT
 10
0.0
 20
0.0
 30
0.0
  9
$UCSORGBACK
 10
0.0
 20
0.0
 30
0.0
  9
$PUCSBASE
  2

  9
$PUCSNAME
  2

  9
$PUCSORG
 10
0.0
 20
0.0
 30
0.0
  9
$PUCSXDIR
 10
1.0
 20
0.0
 30
0.0
  9
$PUCSYDIR
 10
0.0
 20
1.0
 30
0.0
  9
$PUCSORTHOREF
  2

  9
$PUCSORTHOVIEW
 70
     0
  9
$PUCSORGTOP
 10
0.0
 20
0.0
 30
0.0
  9
$PUCSORGBOTTOM
 10
0.0
 20
0.0
 30
0.0
  9
$PUCSORGLEFT
 10
0.0
 20
0.0
 30
0.0
  9
$PUCSORGRIGHT
 10
0.0
 20
0.0
 30
0.0
  9
$PUCSORGFRONT
 10
0.0
 20
0.0
 30
0.0
  9
$PUCSORGBACK
 10
0.0
 20
0.0
 30
0.0
  9
$USERI1
 70
     0
  9
$USERI2
 70
     0
  9
$USERI3
 70
     0
  9
$USERI4
 70
     0
  9
$USERI5
 70
     0
  9
$USERR1
 40
0.0
  9
$USERR2
 40
0.0
  9
$USERR3
 40
0.0
  9
$USERR4
 40
0.0
  9
$USERR5
 40
0.0
  9
$WORLDVIEW
 70
     1
  9
$SHADEDGE
 70
     3
  9
$SHADEDIF
 70
    70
  9
$MAXACTVP
 70
    16
  9
$PINSBASE
 10
0.0
 20
0.0
 30
0.0
  9
$PLIMCHECK
 70
     0
  9
$PEXTMIN
 10
1.000000E+20
 20
1.000000E+20
 30
1.000000E+20
  9
$PEXTMAX
 10
-1.000000E+20
 20
-1.000000E+20
 30
-1.000000E+20
  9
$PLIMMIN
 10
-462.0
 20
-490.7473248000442
  9
$PLIMMAX
 10
460.0
 20
199.7108519236964
  9
$UNITMODE
 70
     0
  9
$VISRETAIN
 70
     0
  9
$PLINEGEN
 70
     0
  9
$PSLTSCALE
 70
     0
  9
$TREEDEPTH
 70
  3020
  9
$CMLSTYLE
  2
STANDARD
  9
$CMLJUST
 70
     0
  9
$CMLSCALE
 40
1.0
  9
$PROXYGRAPHICS
 70
     1
  9
$MEASUREMENT
 70
     0
  9
$CELWEIGHT
370
    -3
  9
$ENDCAPS
280
     0
  9
$JOINSTYLE
280
     0
  9
$LWDISPLAY
290
     1
  9
$INSUNITS
 70
     0
  9
$HYPERLINKBASE
  1

  9
$STYLESHEET
  1

  9
$XEDIT
290
     1
  9
$CEPSNTYPE
380
     0
  9
$PSTYLEMODE
290
     1
  9
$FINGERPRINTGUID
  2
{6F25CFC2-5053-11D3-9BE9-00805F4AB38E}
  9
$VERSIONGUID
  2
{6F25CFC5-5053-11D3-9BE9-00805F4AB38E}
  9
$EXTNAMES
290
     1
  9
$PSVPSCALE
 40
0.0
  9
$OLESTARTUP
290
     0
  0
ENDSEC
  0
SECTION
  2
CLASSES
  0
CLASS
  1
LWPOLYLINE
  2
AcDbPolyline
  3
AutoCAD 2000
 90
    32768
280
     0
281
     1
  0
CLASS
  1
DICTIONARYVAR
  2
AcDbDictionaryVar
  3
AutoCAD 2000
 90
        0
280
     0
281
     1
  0
CLASS
  1
ACDBDICTIONARYWDFLT
  2
AcDbDictionaryWithDefault
  3
AutoCAD 2000
 90
        0
280
     0
281
     1
  0
CLASS
  1
ACDBPLACEHOLDER
  2
AcDbPlaceHolder
  3
AutoCAD 2000
 90
        0
280
     0
281
     1
  0
CLASS
  1
LAYOUT
  2
AcDbLayout
  3
AutoCAD 2000
 90
        0
280
     0
281
     1
  0
CLASS
  1
HATCH
  2
AcDbHatch
  3
AutoCAD 2000
 90
        0
280
     0
281
     1
  0
ENDSEC
  0
SECTION
  2
TABLES
  0
TABLE
  2
VPORT
  5
8
100
AcDbSymbolTable
 70
     1
  0
VPORT
  5
CD
330
0
100
AcDbSymbolTableRecord
100
AcDbViewportTableRecord
  2
*ACTIVE
 70
     0
 10
0.0
 20
0.0
 11
1.0
 21
1.0
 12
-1.0
 22
-145.5182364381739
 13
0.0
 23
0.0
 14
0.0
 24
0.0
 15
0.0
 25
0.0
 16
0.0
 26
0.0
 36
1.0
 17
0.0
 27
0.0
 37
0.0
 40
690.4581767237406
 41
1.5
 42
50.0
 43
0.0
 44
0.0
 50
0.0
 51
0.0
 71
     0
 72
   100
 73
     1
 74
     1
 75
     0
 76
     0
 77
     0
 78
     0
281
     0
 65
     1
110
0.0
120
0.0
130
0.0
111
1.0
121
0.0
131
0.0
112
0.0
122
1.0
132
0.0
 79
     0
146
0.0
  0
ENDTAB
  0
TABLE
  2
LTYPE
  5
5
330
0
100
AcDbSymbolTable
 70
    20
  0
LTYPE
  5
CE
330
5
100
AcDbSymbolTableRecord
100
AcDbLinetypeTableRecord
  2
BYBLOCK
 70
     0
  3

 72
    65
 73
     0
 40
0.0
  0
LTYPE
  5
CF
330
5
100
AcDbSymbolTableRecord
100
AcDbLinetypeTableRecord
  2
BYLAYER
 70
     0
  3

 72
    65
 73
     0
 40
0.0
  0
LTYPE
  5
D0
330
5
100
AcDbSymbolTableRecord
100
AcDbLinetypeTableRecord
  2
CONTINUOUS
 70
    64
  3
solid line
 72
    65
 73
     0
 40
0.0
  0
LTYPE
  5
D1
330
0
100
AcDbSymbolTableRecord
100
AcDbLinetypeTableRecord
  2
DASHED
 70
    64
  3
-- -- -- -- -- -- -- -- -- -- 
 72
    65
 73
     2
 40
3.0
 49
2.0
 74
     0
 49
-1.0
 74
     0
  0
LTYPE
  5
D2
330
0
100
AcDbSymbolTableRecord
100
AcDbLinetypeTableRecord
  2
CENTER
 70
    64
  3
--- - --- - --- - --- - --- - 
 72
    65
 73
     4
 40
6.0
 49
3.0
 74
     0
 49
-1.0
 74
     0
 49
1.0
 74
     0
 49
-1.0
 74
     0
  0
ENDTAB
  0
TABLE
  2
LAYER
  5
2
330
0
100
AcDbSymbolTable
 70
    20
  0
LAYER
  5
D3
330
2
100
AcDbSymbolTableRecord
100
AcDbLayerTableRecord
  2
0
 70
    64
 62
     7
  6
CONTINUOUS
370
    -3
390
C9
  0
LAYER
  5
25
330
2
100
AcDbSymbolTableRecord
100
AcDbLayerTableRecord
  2
100
 70
    64
 62
     7
  6
CONTINUOUS
370
    -3
390
C9
  0
ENDTAB
  0
TABLE
  2
STYLE
  5
3
330
0
100
AcDbSymbolTable
 70
     4
  0
STYLE
  5
D4
330
3
100
AcDbSymbolTableRecord
100
AcDbTextStyleTableRecord
  2
STANDARD
 70
    64
 40
0.0
 41
1.052631578947368
 50
0.0
 71
     0
 42
3.0
  3
monotxt
  4

  0
ENDTAB
  0
TABLE
  2
VIEW
  5
6
330
0
100
AcDbSymbolTable
 70
     0
  0
ENDTAB
  0
TABLE
  2
UCS
  5
7
330
0
100
AcDbSymbolTable
 70
     0
  0
ENDTAB
  0
TABLE
  2
APPID
  5
9
330
0
100
AcDbSymbolTable
 70
     1
  0
APPID
  5
D5
330
9
100
AcDbSymbolTableRecord
100
AcDbRegAppTableRecord
  2
ACAD
 70
     0
  0
ENDTAB
  0
TABLE
  2
DIMSTYLE
  5
A
330
0
100
AcDbSymbolTable
 70
     8
100
AcDbDimStyleTable
 71
     0
  0
DIMSTYLE
105
D6
330
A
100
AcDbSymbolTableRecord
100
AcDbDimStyleTableRecord
  2
ISO-25
 70
     0
  3

  4

  5

  6

  7

 40
1.0
 41
3.0
 42
1.0
 43
5.0
 44
2.0
 45
0.0
 46
5.0
 47
0.0
 48
0.0
140
3.0
141
2.0
142
0.0
143
25.4
144
1.0
145
1.0
146
1.0
147
1.0
 71
     0
 72
     0
 73
     0
 74
     0
 75
     0
 76
     0
 77
     1
 78
     8
170
     0
171
     0
172
     1
173
     0
174
     0
175
     0
176
     0
177
     0
178
     0
270
     0
271
     2
272
     2
273
     2
274
     3
340
D4
275
     0
277
     2
280
     0
281
     0
282
     0
283
     0
284
     8
285
     0
286
     0
287
     3
288
     0
  0
ENDTAB
  0
TABLE
  2
BLOCK_RECORD
  5
1
330
0
100
AcDbSymbolTable
 70
     2
  0
BLOCK_RECORD
  5
20
330
1
100
AcDbSymbolTableRecord
100
AcDbBlockTableRecord
  2
*MODEL_SPACE
340
CA
  0
BLOCK_RECORD
  5
22
330
1
100
AcDbSymbolTableRecord
100
AcDbBlockTableRecord
  2
*PAPER_SPACE
340
0
  0
ENDTAB
  0
ENDSEC
  0
SECTION
  2
BLOCKS
  0
BLOCK
  5
21
330
20
100
AcDbEntity
  8
0
100
AcDbBlockBegin
  2
*MODEL_SPACE
 70
     0
 10
0.0
 20
0.0
 30
0.0
  3
*MODEL_SPACE
  1

  0
ENDBLK
  5
CB
330
20
100
AcDbEntity
  8
0
100
AcDbBlockEnd
  0
BLOCK
  5
23
330
22
100
AcDbEntity
 67
     1
  8
0
100
AcDbBlockBegin
  2
*PAPER_SPACE
 70
     0
 10
0.0
 20
0.0
 30
0.0
  3
*PAPER_SPACE
  1

  0
ENDBLK
  5
CC
330
22
100
AcDbEntity
 67
     1
  8
0
100
AcDbBlockEnd
  0
ENDSEC
  0
SECTION
  2
ENTITIES
  0
LINE
  5
24
330
20
100
AcDbEntity
  8
100
  6
CENTER
100
AcDbLine
 10
458.0
 20
0.0
 11
-462.0
 21
0.0
  0
LINE
  5
26
330
20
100
AcDbEntity
  8
100
  6
CONTINUOUS
100
AcDbLine
 10
-131.0
 20
54.75
 11
-136.0
 21
54.75
  0
LINE
  5
27
330
20
100
AcDbEntity
  8
100
  6
CONTINUOUS
100
AcDbLine
 10
-131.0
 20
-54.75
 11
-136.0
 21
-54.75
  0
LINE
  5
28
330
20
100
AcDbEntity
  8
100
  6
CONTINUOUS
100
AcDbLine
 10
134.2698814229927
 20
-54.75
 11
129.0
 21
-54.75
  0
LINE
  5
29
330
20
100
AcDbEntity
  8
100
  6
CONTINUOUS
100
AcDbLine
 10
134.2698814229927
 20
54.75
 11
129.0
 21
54.75
  0
LINE
  5
2A
330
20
100
AcDbEntity
  8
100
  6
CONTINUOUS
100
AcDbLine
 10
134.0
 20
-7.68114574786766
 11
134.0
 21
7.68114574786766
  0
LINE
  5
2B
330
20
100
AcDbEntity
  8
100
  6
CONTINUOUS
100
AcDbLine
 10
-136.0
 20
-54.75
 11
-136.0
 21
54.75
  0
CIRCLE
  5
2C
330
20
100
AcDbEntity
  8
100
  6
CONTINUOUS
100
AcDbCircle
 10
289.0
 20
0.0
 40
47.5
  0
ARC
  5
2D
330
20
100
AcDbEntity
  8
100
  6
CONTINUOUS
100
AcDbCircle
 10
309.0
 20
0.0
 40
110.0
100
AcDbArc
 50
291.279966468413
 51
68.72003353158696
  0
LINE
  5
2E
330
20
100
AcDbEntity
  8
100
  6
CONTINUOUS
100
AcDbLine
 10
348.9217985566783
 20
102.5
 11
198.0782014433217
 21
102.5
  0
LINE
  5
2F
330
20
100
AcDbEntity
  8
100
  6
CONTINUOUS
100
AcDbLine
 10
348.9217985566783
 20
-102.5
 11
198.0782014433217
 21
-102.5
  0
ARC
  5
30
330
20
100
AcDbEntity
  8
100
  6
CONTINUOUS
100
AcDbCircle
 10
238.0
 20
0.0
 40
110.0
100
AcDbArc
 50
213.917596952897
 51
248.7200335315869
  0
ARC
  5
31
330
20
100
AcDbEntity
  8
100
  6
CONTINUOUS
100
AcDbCircle
 10
238.0
 20
0.0
 40
110.0
100
AcDbArc
 50
111.2799664684131
 51
146.082403047103
  0
ARC
  5
32
330
20
100
AcDbEntity
  8
100
  6
CONTINUOUS
100
AcDbCircle
 10
134.2698814229927
 20
69.75
 40
15.0
100
AcDbArc
 50
270.0
 51
326.082403047103
  0
ARC
  5
33
330
20
100
AcDbEntity
  8
100
  6
CONTINUOUS
100
AcDbCircle
 10
134.2698814229927
 20
-69.75
 40
15.0
100
AcDbArc
 50
33.91759695289699
 51
90.0
  0
LINE
  5
34
330
20
100
AcDbEntity
  8
100
  6
CONTINUOUS
100
AcDbLine
 10
-151.0
 20
35.0
 11
-415.283268073071
 21
35.0
  0
LINE
  5
35
330
20
100
AcDbEntity
  8
100
  6
CONTINUOUS
100
AcDbLine
 10
-151.0
 20
-35.0
 11
-415.283268073071
 21
-35.0
  0
ARC
  5
36
330
20
100
AcDbEntity
  8
100
  6
CONTINUOUS
100
AcDbCircle
 10
-151.0
 20
50.0
 40
15.0
100
AcDbArc
 50
270.0
 51
0.0
  0
ARC
  5
37
330
20
100
AcDbEntity
  8
100
  6
CONTINUOUS
100
AcDbCircle
 10
-151.0
 20
-50.0
 40
15.0
100
AcDbArc
 50
0.0
 51
90.0
  0
ARC
  5
38
330
20
100
AcDbEntity
  8
100
  6
DASHED
100
AcDbCircle
 10
-128.5
 20
0.0
 40
110.0
100
AcDbArc
 50
161.4469954649794
 51
198.5530045350207
  0
ARC
  5
39
330
20
100
AcDbEntity
  8
100
  6
DASHED
100
AcDbCircle
 10
-443.5
 20
0.0
 40
110.0
100
AcDbArc
 50
341.4469954649794
 51
18.55300453502066
  0
ARC
  5
3A
330
20
100
AcDbEntity
  8
100
  6
CONTINUOUS
100
AcDbCircle
 10
-311.0
 20
0.0
 40
110.0
100
AcDbArc
 50
161.4469954649794
 51
198.5530045350207
  0
LINE
  5
3B
330
20
100
AcDbEntity
  8
100
  6
CONTINUOUS
100
AcDbLine
 10
-131.0
 20
80.0
 11
-24.5
 21
80.0
  0
LINE
  5
3C
330
20
100
AcDbEntity
  8
100
  6
CONTINUOUS
100
AcDbLine
 10
22.5
 20
80.0
 11
129.0
 21
80.0
  0
LINE
  5
3D
330
20
100
AcDbEntity
  8
100
  6
CONTINUOUS
100
AcDbLine
 10
-131.0
 20
-80.0
 11
129.0
 21
-80.0
  0
LINE
  5
3E
330
20
100
AcDbEntity
  8
100
  6
CONTINUOUS
100
AcDbLine
 10
134.0
 20
-54.75
 11
134.0
 21
54.75
  0
LINE
  5
3F
330
20
100
AcDbEntity
  8
100
  6
CONTINUOUS
100
AcDbLine
 10
-136.0
 20
-54.75
 11
-136.0
 21
54.75
  0
LINE
  5
40
330
20
100
AcDbEntity
  8
100
  6
CONTINUOUS
100
AcDbLine
 10
-106.0
 20
-80.0
 11
-106.0
 21
80.0
  0
LINE
  5
41
330
20
100
AcDbEntity
  8
100
  6
CONTINUOUS
100
AcDbLine
 10
104.0
 20
-80.0
 11
104.0
 21
80.0
  0
LINE
  5
42
330
20
100
AcDbEntity
  8
100
  6
CONTINUOUS
100
AcDbLine
 10
-131.0
 20
-80.0
 11
-131.0
 21
80.0
  0
LINE
  5
43
330
20
100
AcDbEntity
  8
100
  6
CONTINUOUS
100
AcDbLine
 10
129.0
 20
-80.0
 11
129.0
 21
80.0
  0
LINE
  5
44
330
20
100
AcDbEntity
  8
100
  6
CONTINUOUS
100
AcDbLine
 10
15.99999999999999
 20
27.52631323460662
 11
15.99999999999999
 21
42.52631323460662
  0
LINE
  5
45
330
20
100
AcDbEntity
  8
100
  6
CONTINUOUS
100
AcDbLine
 10
15.99999999999999
 20
42.52631323460662
 11
-1.0
 21
42.52631323460662
  0
LINE
  5
46
330
20
100
AcDbEntity
  8
100
  6
CONTINUOUS
100
AcDbLine
 10
16.22512499999998
 20
47.52631323460662
 11
-1.0
 21
47.52631323460662
  0
ARC
  5
47
330
20
100
AcDbEntity
  8
100
  6
CONTINUOUS
100
AcDbCircle
 10
15.99999999999999
 20
45.02631323460662
 40
2.5
100
AcDbArc
 50
90.0
 51
270.0
  0
LINE
  5
48
330
20
100
AcDbEntity
  8
100
  6
CONTINUOUS
100
AcDbLine
 10
-18.0
 20
27.52631323460662
 11
-18.0
 21
42.52631323460662
  0
LINE
  5
49
330
20
100
AcDbEntity
  8
100
  6
CONTINUOUS
100
AcDbLine
 10
-18.0
 20
42.52631323460662
 11
-1.0
 21
42.52631323460662
  0
LINE
  5
4A
330
20
100
AcDbEntity
  8
100
  6
CONTINUOUS
100
AcDbLine
 10
-18.22512499999999
 20
47.52631323460662
 11
-1.0
 21
47.52631323460662
  0
ARC
  5
4B
330
20
100
AcDbEntity
  8
100
  6
CONTINUOUS
100
AcDbCircle
 10
-18.0
 20
45.02631323460662
 40
2.5
100
AcDbArc
 50
270.0
 51
90.0
  0
LINE
  5
4C
330
20
100
AcDbEntity
  8
100
  6
CONTINUOUS
100
AcDbLine
 10
-24.5
 20
47.52631323460662
 11
-24.5
 21
82.20971377042173
  0
LINE
  5
4D
330
20
100
AcDbEntity
  8
100
  6
CONTINUOUS
100
AcDbLine
 10
22.5
 20
47.52631323460662
 11
22.5
 21
82.20971377042173
  0
LINE
  5
4E
330
20
100
AcDbEntity
  8
100
  6
CONTINUOUS
100
AcDbLine
 10
22.5
 20
47.52631323460662
 11
-24.5
 21
47.52631323460662
  0
LINE
  5
4F
330
20
100
AcDbEntity
  8
100
  6
CONTINUOUS
100
AcDbLine
 10
19.0
 20
84.52631323460662
 11
-21.0
 21
84.52631323460662
  0
LINE
  5
50
330
20
100
AcDbEntity
  8
100
  6
CONTINUOUS
100
AcDbLine
 10
-21.0
 20
84.52631323460662
 11
-24.5
 21
82.20971377042173
  0
LINE
  5
51
330
20
100
AcDbEntity
  8
100
  6
CONTINUOUS
100
AcDbLine
 10
19.0
 20
84.52631323460662
 11
22.5
 21
82.20971377042173
  0
LINE
  5
52
330
20
100
AcDbEntity
  8
100
  6
CONTINUOUS
100
AcDbLine
 10
15.99999999999999
 20
27.52631323460662
 11
-1.0
 21
27.52631323460662
  0
LINE
  5
53
330
20
100
AcDbEntity
  8
100
  6
CONTINUOUS
100
AcDbLine
 10
-23.0
 20
27.52631323460662
 11
21.0
 21
27.52631323460662
  0
LINE
  5
54
330
20
100
AcDbEntity
  8
100
  6
CONTINUOUS
100
AcDbLine
 10
-12.66431948
 20
47.52631323460662
 11
-12.66431948
 21
84.52631323460662
  0
LINE
  5
55
330
20
100
AcDbEntity
  8
100
  6
CONTINUOUS
100
AcDbLine
 10
10.66431948
 20
47.52631323460662
 11
10.66431948
 21
84.52631323460662
  0
LINE
  5
56
330
20
100
AcDbEntity
  8
100
  6
CONTINUOUS
100
AcDbLine
 10
-8.0
 20
84.52631323460662
 11
-8.0
 21
166.6890982262429
  0
LINE
  5
57
330
20
100
AcDbEntity
  8
100
  6
CONTINUOUS
100
AcDbLine
 10
6.0
 20
84.52631323460662
 11
6.0
 21
166.6890982262434
  0
SPLINE
  5
58
330
20
100
AcDbEntity
  8
100
  6
CONTINUOUS
100
AcDbSpline
210
0.0
220
0.0
230
1.0
 70
     8
 71
     3
 72
    13
 73
     9
 74
     0
 42
1.000000000000000E-007
 43
1.000000000000000E-007
 40
0.0
 40
0.0
 40
0.0
 40
0.0
 40
4.709598851361543
 40
9.521524298234823
 40
14.32080396803836
 40
19.31379230068016
 40
24.38743272011952
 40
29.14466804195851
 40
29.14466804195851
 40
29.14466804195851
 40
29.14466804195851
 10
-7.999999999999659
 20
166.6890982262434
 30
0.0
 10
-7.267777396084824
 20
167.6403177384386
 30
0.0
 10
-4.338886980419055
 20
171.4451957872189
 30
0.0
 10
-0.9122294744081878
 20
166.6159274945372
 30
0.0
 10
1.987804878048682
 20
162.2256835920971
 30
0.0
 10
7.96100996221228
 20
166.615927494536
 30
0.0
 10
2.168155273101931
 20
171.445195787219
 30
0.0
 10
-0.3663689453796764
 20
167.6403177384385
 30
0.0
 10
-1.0
 20
166.6890982262434
 30
0.0
  0
LINE
  5
59
330
20
100
AcDbEntity
  8
100
  6
CENTER
100
AcDbLine
 10
-460.0
 20
-385.7473248000442
 11
460.0
 21
-385.7473248000442
  0
LINE
  5
5A
330
20
100
AcDbEntity
  8
100
  6
CONTINUOUS
100
AcDbLine
 10
-136.0
 20
-393.4284705479118
 11
-136.0
 21
-378.0661790521765
  0
LINE
  5
5B
330
20
100
AcDbEntity
  8
100
  6
CONTINUOUS
100
AcDbLine
 10
134.0
 20
-440.4973248000442
 11
134.0
 21
-330.9973248000442
  0
CIRCLE
  5
5C
330
20
100
AcDbEntity
  8
100
  6
CONTINUOUS
100
AcDbCircle
 10
-291.0
 20
-385.7473248000442
 40
47.5
  0
ARC
  5
5D
330
20
100
AcDbEntity
  8
100
  6
CONTINUOUS
100
AcDbCircle
 10
-311.0
 20
-385.7473248000442
 40
110.0
100
AcDbArc
 50
111.2799664684131
 51
248.720033531587
  0
LINE
  5
5E
330
20
100
AcDbEntity
  8
100
  6
CONTINUOUS
100
AcDbLine
 10
-350.9217985566783
 20
-283.2473248000442
 11
-200.0782014433217
 21
-283.2473248000442
  0
LINE
  5
5F
330
20
100
AcDbEntity
  8
100
  6
CONTINUOUS
100
AcDbLine
 10
-350.9217985566783
 20
-488.2473248000442
 11
-200.0782014433217
 21
-488.2473248000442
  0
ARC
  5
60
330
20
100
AcDbEntity
  8
100
  6
CONTINUOUS
100
AcDbCircle
 10
-240.0
 20
-385.7473248000442
 40
110.0
100
AcDbArc
 50
291.279966468413
 51
326.0824030471031
  0
ARC
  5
61
330
20
100
AcDbEntity
  8
100
  6
CONTINUOUS
100
AcDbCircle
 10
-240.0
 20
-385.7473248000442
 40
110.0
100
AcDbArc
 50
33.91759695289697
 51
68.72003353158695
  0
ARC
  5
62
330
20
100
AcDbEntity
  8
100
  6
CONTINUOUS
100
AcDbCircle
 10
-136.2698814229927
 20
-315.9973248000442
 40
15.0
100
AcDbArc
 50
213.917596952897
 51
270.0
  0
ARC
  5
63
330
20
100
AcDbEntity
  8
100
  6
CONTINUOUS
100
AcDbCircle
 10
-136.2698814229927
 20
-455.4973248000442
 40
15.0
100
AcDbArc
 50
90.0
 51
146.082403047103
  0
LINE
  5
64
330
20
100
AcDbEntity
  8
100
  6
CONTINUOUS
100
AcDbLine
 10
149.0
 20
-350.7473248000442
 11
413.283268073071
 21
-350.7473248000442
  0
LINE
  5
65
330
20
100
AcDbEntity
  8
100
  6
CONTINUOUS
100
AcDbLine
 10
149.0
 20
-420.7473248000442
 11
413.283268073071
 21
-420.7473248000442
  0
ARC
  5
66
330
20
100
AcDbEntity
  8
100
  6
CONTINUOUS
100
AcDbCircle
 10
149.0
 20
-335.7473248000442
 40
15.0
100
AcDbArc
 50
180.0
 51
270.0
  0
ARC
  5
67
330
20
100
AcDbEntity
  8
100
  6
CONTINUOUS
100
AcDbCircle
 10
149.0
 20
-435.7473248000442
 40
15.0
100
AcDbArc
 50
90.0
 51
180.0
  0
ARC
  5
68
330
20
100
AcDbEntity
  8
100
  6
DASHED
100
AcDbCircle
 10
126.5
 20
-385.7473248000442
 40
110.0
100
AcDbArc
 50
341.4469954649794
 51
18.55300453502066
  0
ARC
  5
69
330
20
100
AcDbEntity
  8
100
  6
DASHED
100
AcDbCircle
 10
441.5
 20
-385.7473248000442
 40
110.0
100
AcDbArc
 50
161.4469954649794
 51
198.5530045350207
  0
ARC
  5
6A
330
20
100
AcDbEntity
  8
100
  6
CONTINUOUS
100
AcDbCircle
 10
309.0
 20
-385.7473248000442
 40
110.0
100
AcDbArc
 50
341.4469954649794
 51
18.55300453502066
  0
LINE
  5
6B
330
20
100
AcDbEntity
  8
100
  6
CONTINUOUS
100
AcDbLine
 10
-131.0
 20
-465.7473248000442
 11
129.0
 21
-465.7473248000442
  0
LINE
  5
6C
330
20
100
AcDbEntity
  8
100
  6
CONTINUOUS
100
AcDbLine
 10
-131.0
 20
-465.7473248000442
 11
-131.0
 21
-305.7473248000442
  0
LINE
  5
6D
330
20
100
AcDbEntity
  8
100
  6
CONTINUOUS
100
AcDbLine
 10
129.0
 20
-465.7473248000442
 11
129.0
 21
-305.7473248000442
  0
LINE
  5
6E
330
20
100
AcDbEntity
  8
100
  6
CONTINUOUS
100
AcDbLine
 10
-136.0
 20
-440.4973248000442
 11
-136.0
 21
-330.9973248000442
  0
LINE
  5
6F
330
20
100
AcDbEntity
  8
100
  6
CONTINUOUS
100
AcDbLine
 10
-106.0
 20
-465.7473248000442
 11
-106.0
 21
-305.7473248000442
  0
LINE
  5
70
330
20
100
AcDbEntity
  8
100
  6
CONTINUOUS
100
AcDbLine
 10
104.0
 20
-465.7473248000442
 11
104.0
 21
-305.7473248000442
  0
LINE
  5
71
330
20
100
AcDbEntity
  8
100
  6
CONTINUOUS
100
AcDbLine
 10
134.0
 20
-440.4973248000442
 11
134.0
 21
-330.9973248000442
  0
LINE
  5
72
330
20
100
AcDbEntity
  8
100
  6
CONTINUOUS
100
AcDbLine
 10
129.0
 20
-330.9973248000442
 11
134.0
 21
-330.9973248000442
  0
LINE
  5
73
330
20
100
AcDbEntity
  8
100
  6
CONTINUOUS
100
AcDbLine
 10
129.0
 20
-440.4973248000442
 11
134.0
 21
-440.4973248000442
  0
LINE
  5
74
330
20
100
AcDbEntity
  8
100
  6
CONTINUOUS
100
AcDbLine
 10
-136.2698814229927
 20
-330.9973248000442
 11
-131.0
 21
-330.9973248000442
  0
LINE
  5
75
330
20
100
AcDbEntity
  8
100
  6
CONTINUOUS
100
AcDbLine
 10
-136.2698814229927
 20
-440.4973248000442
 11
-131.0
 21
-440.4973248000442
  0
LINE
  5
76
330
20
100
AcDbEntity
  8
100
  6
CONTINUOUS
100
AcDbLine
 10
-131.0
 20
-305.7473248000442
 11
-23.0
 21
-305.7473248000442
  0
LINE
  5
77
330
20
100
AcDbEntity
  8
100
  6
CONTINUOUS
100
AcDbLine
 10
21.0
 20
-305.7473248000442
 11
129.0
 21
-305.7473248000442
  0
LINE
  5
78
330
20
100
AcDbEntity
  8
100
  6
CONTINUOUS
100
AcDbLine
 10
-23.0
 20
-310.8073248000442
 11
-23.0
 21
-245.8073248000442
  0
LINE
  5
79
330
20
100
AcDbEntity
  8
100
  6
CONTINUOUS
100
AcDbLine
 10
21.0
 20
-310.8073248000442
 11
21.0
 21
-245.8073248000442
  0
LINE
  5
7A
330
20
100
AcDbEntity
  8
100
  6
CONTINUOUS
100
AcDbLine
 10
-23.0
 20
-310.8073248000442
 11
21.0
 21
-310.8073248000442
  0
LINE
  5
7B
330
20
100
AcDbEntity
  8
100
  6
CONTINUOUS
100
AcDbLine
 10
-23.0
 20
-251.8073248000442
 11
21.0
 21
-251.8073248000442
  0
LINE
  5
7C
330
20
100
AcDbEntity
  8
100
  6
CONTINUOUS
100
AcDbLine
 10
-23.0
 20
-245.8073248000442
 11
21.0
 21
-245.8073248000442
  0
CIRCLE
  5
7D
330
20
100
AcDbEntity
  8
100
  6
CONTINUOUS
100
AcDbCircle
 10
283.999999976929
 20
0.0
 40
53.21673195
  0
CIRCLE
  5
7E
330
20
100
AcDbEntity
  8
100
  6
CONTINUOUS
100
AcDbCircle
 10
-286.0
 20
-385.7473248000442
 40
53.21673195
  0
LINE
  5
7F
330
20
100
AcDbEntity
  8
100
  6
CENTER
100
AcDbLine
 10
289.0
 20
-74.51832409348594
 11
289.0
 21
77.19750903964484
  0
LINE
  5
80
330
20
100
AcDbEntity
  8
100
  6
CENTER
100
AcDbLine
 10
-291.0
 20
-459.0240415247499
 11
-291.0
 21
-310.0174196975679
  0
LINE
  5
81
330
20
100
AcDbEntity
  8
100
  6
CENTER
100
AcDbLine
 10
-291.0
 20
-67.06799300212687
 11
-291.0
 21
55.52381859205474
  0
LINE
  5
82
330
20
100
AcDbEntity
  8
100
  6
CONTINUOUS
100
AcDbLine
 10
244.5
 20
-280.7473248000443
 11
333.5
 21
-280.7473248000443
  0
LINE
  5
83
330
20
100
AcDbEntity
  8
100
  6
CONTINUOUS
100
AcDbLine
 10
244.5
 20
-490.7473248000442
 11
333.5
 21
-490.7473248000442
  0
LINE
  5
84
330
20
100
AcDbEntity
  8
100
  6
CONTINUOUS
100
AcDbLine
 10
241.5
 20
-487.7473248000442
 11
241.5
 21
-423.7473248000443
  0
LINE
  5
85
330
20
100
AcDbEntity
  8
100
  6
CONTINUOUS
100
AcDbLine
 10
241.5
 20
-347.7473248000443
 11
241.5
 21
-283.7473248000443
  0
LINE
  5
86
330
20
100
AcDbEntity
  8
100
  6
CONTINUOUS
100
AcDbLine
 10
322.5
 20
-298.7473248000443
 11
336.5
 21
-298.7473248000443
  0
LINE
  5
87
330
20
100
AcDbEntity
  8
100
  6
CONTINUOUS
100
AcDbLine
 10
322.5
 20
-310.7473248000443
 11
336.5
 21
-310.7473248000443
  0
LINE
  5
88
330
20
100
AcDbEntity
  8
100
  6
CONTINUOUS
100
AcDbLine
 10
322.5
 20
-472.7473248000442
 11
336.5
 21
-472.7473248000442
  0
LINE
  5
89
330
20
100
AcDbEntity
  8
100
  6
CONTINUOUS
100
AcDbLine
 10
322.5
 20
-460.7473248000443
 11
336.5
 21
-460.7473248000443
  0
LINE
  5
8A
330
20
100
AcDbEntity
  8
100
  6
CONTINUOUS
100
AcDbLine
 10
336.5
 20
-487.7473248000442
 11
336.5
 21
-472.7473248000442
  0
LINE
  5
8B
330
20
100
AcDbEntity
  8
100
  6
CONTINUOUS
100
AcDbLine
 10
336.5
 20
-460.7473248000443
 11
336.5
 21
-423.7473248000443
  0
LINE
  5
8C
330
20
100
AcDbEntity
  8
100
  6
CONTINUOUS
100
AcDbLine
 10
336.5
 20
-347.7473248000443
 11
336.5
 21
-310.7473248000443
  0
LINE
  5
8D
330
20
100
AcDbEntity
  8
100
  6
CONTINUOUS
100
AcDbLine
 10
336.5
 20
-298.7473248000443
 11
336.5
 21
-283.7473248000443
  0
LINE
  5
8E
330
20
100
AcDbEntity
  8
100
  6
CONTINUOUS
100
AcDbLine
 10
322.5
 20
-472.7473248000442
 11
322.5
 21
-460.7473248000443
  0
LINE
  5
8F
330
20
100
AcDbEntity
  8
100
  6
CONTINUOUS
100
AcDbLine
 10
322.5
 20
-310.7473248000443
 11
322.5
 21
-298.7473248000443
  0
ARC
  5
90
330
20
100
AcDbEntity
  8
100
  6
CONTINUOUS
100
AcDbCircle
 10
86.07799383613644
 20
-385.7473248000438
 40
160.0
100
AcDbArc
 50
346.2609648256304
 51
347.3643749069788
  0
ARC
  5
91
330
20
100
AcDbEntity
  8
100
  6
DASHED
100
AcDbCircle
 10
86.07799383613644
 20
-385.7473248000438
 40
160.0
100
AcDbArc
 50
347.3643749069788
 51
12.63562509302097
  0
ARC
  5
92
330
20
100
AcDbEntity
  8
100
  6
CONTINUOUS
100
AcDbCircle
 10
86.07799383613644
 20
-385.7473248000438
 40
160.0
100
AcDbArc
 50
12.63562509302097
 51
13.73903517436957
  0
ARC
  5
93
330
20
100
AcDbEntity
  8
100
  6
CONTINUOUS
100
AcDbCircle
 10
491.9220061638636
 20
-385.7473248000438
 40
160.0
100
AcDbArc
 50
192.6356250930213
 51
193.7390351743696
  0
ARC
  5
94
330
20
100
AcDbEntity
  8
100
  6
DASHED
100
AcDbCircle
 10
491.9220061638636
 20
-385.7473248000438
 40
160.0
100
AcDbArc
 50
167.364374906979
 51
192.6356250930213
  0
ARC
  5
95
330
20
100
AcDbEntity
  8
100
  6
CONTINUOUS
100
AcDbCircle
 10
491.9220061638636
 20
-385.7473248000438
 40
160.0
100
AcDbArc
 50
166.2609648256304
 51
167.364374906979
  0
LINE
  5
96
330
20
100
AcDbEntity
  8
100
  6
CONTINUOUS
100
AcDbLine
 10
241.5
 20
-283.7473248000443
 11
244.5
 21
-280.7473248000443
  0
LINE
  5
97
330
20
100
AcDbEntity
  8
100
  6
CONTINUOUS
100
AcDbLine
 10
333.5
 20
-280.7473248000443
 11
336.5
 21
-283.7473248000443
  0
LINE
  5
98
330
20
100
AcDbEntity
  8
100
  6
CONTINUOUS
100
AcDbLine
 10
241.5
 20
-487.7473248000442
 11
244.5
 21
-490.7473248000442
  0
LINE
  5
99
330
20
100
AcDbEntity
  8
100
  6
CONTINUOUS
100
AcDbLine
 10
333.5
 20
-490.7473248000442
 11
336.5
 21
-487.7473248000442
  0
LINE
  5
9A
330
20
100
AcDbEntity
  8
100
  6
CENTER
100
AcDbLine
 10
-1.0
 20
-101.253014072152
 11
-1.0
 21
199.7108519236964
  0
LINE
  5
9B
330
20
100
AcDbEntity
  8
100
  6
CONTINUOUS
100
AcDbLine
 10
-23.0
 20
-28.47368676539338
 11
-23.0
 21
27.52631323460662
  0
LINE
  5
9C
330
20
100
AcDbEntity
  8
100
  6
CONTINUOUS
100
AcDbLine
 10
21.0
 20
-28.47368676539338
 11
21.0
 21
27.52631323460662
  0
LINE
  5
9D
330
20
100
AcDbEntity
  8
100
  6
CONTINUOUS
100
AcDbLine
 10
-23.0
 20
-28.47368676539338
 11
21.0
 21
-28.47368676539338
  0
LINE
  5
9E
330
20
100
AcDbEntity
  8
100
  6
CONTINUOUS
100
AcDbLine
 10
13.0
 20
-245.8073248000442
 11
13.0
 21
-242.2073248000442
  0
LINE
  5
9F
330
20
100
AcDbEntity
  8
100
  6
CONTINUOUS
100
AcDbLine
 10
20.0
 20
-245.8073248000442
 11
20.0
 21
-242.2073248000442
  0
LINE
  5
A0
330
20
100
AcDbEntity
  8
100
  6
CONTINUOUS
100
AcDbLine
 10
13.39999999999998
 20
-241.8073248000442
 11
19.60000000000002
 21
-241.8073248000442
  0
ARC
  5
A1
330
20
100
AcDbEntity
  8
100
  6
CONTINUOUS
100
AcDbCircle
 10
13.39999999999998
 20
-242.2073248000442
 40
0.4000000000000004
100
AcDbArc
 50
90.0
 51
180.0
  0
ARC
  5
A2
330
20
100
AcDbEntity
  8
100
  6
CONTINUOUS
100
AcDbCircle
 10
19.60000000000002
 20
-242.2073248000442
 40
0.4000000000000057
100
AcDbArc
 50
0.0
 51
90.0
  0
LINE
  5
A3
330
20
100
AcDbEntity
  8
100
  6
CONTINUOUS
100
AcDbLine
 10
-21.60000000000002
 20
-241.8073248000442
 11
-15.39999999999998
 21
-241.8073248000442
  0
ARC
  5
A4
330
20
100
AcDbEntity
  8
100
  6
CONTINUOUS
100
AcDbCircle
 10
-15.39999999999998
 20
-242.2073248000442
 40
0.4000000000000057
100
AcDbArc
 50
0.0
 51
90.0
  0
LINE
  5
A5
330
20
100
AcDbEntity
  8
100
  6
CONTINUOUS
100
AcDbLine
 10
-15.0
 20
-245.8073248000442
 11
-15.0
 21
-242.2073248000442
  0
ARC
  5
A6
330
20
100
AcDbEntity
  8
100
  6
CONTINUOUS
100
AcDbCircle
 10
-21.60000000000002
 20
-242.2073248000442
 40
0.4000000000000004
100
AcDbArc
 50
90.0
 51
180.0
  0
LINE
  5
A7
330
20
100
AcDbEntity
  8
100
  6
CONTINUOUS
100
AcDbLine
 10
-22.0
 20
-245.8073248000442
 11
-22.0
 21
-242.2073248000442
  0
CIRCLE
  5
A8
330
20
100
AcDbEntity
  8
100
  6
CONTINUOUS
100
AcDbCircle
 10
16.5
 20
-23.47368676539338
 40
3.5
  0
LINE
  5
A9
330
20
100
AcDbEntity
  8
100
  6
CONTINUOUS
100
AcDbLine
 10
18.0
 20
-24.3397121691778
 11
18.0
 21
-22.60766136160896
  0
LINE
  5
AA
330
20
100
AcDbEntity
  8
100
  6
CONTINUOUS
100
AcDbLine
 10
15.0
 20
-24.3397121691778
 11
15.0
 21
-22.60766136160896
  0
LINE
  5
AB
330
20
100
AcDbEntity
  8
100
  6
CONTINUOUS
100
AcDbLine
 10
16.5
 20
-21.74163595782449
 11
15.0
 21
-22.60766136160896
  0
LINE
  5
AC
330
20
100
AcDbEntity
  8
100
  6
CONTINUOUS
100
AcDbLine
 10
18.0
 20
-24.3397121691778
 11
16.5
 21
-25.20573757296228
  0
LINE
  5
AD
330
20
100
AcDbEntity
  8
100
  6
CONTINUOUS
100
AcDbLine
 10
16.5
 20
-21.74163595782449
 11
18.0
 21
-22.60766136160896
  0
LINE
  5
AE
330
20
100
AcDbEntity
  8
100
  6
CONTINUOUS
100
AcDbLine
 10
15.0
 20
-24.3397121691778
 11
16.5
 21
-25.20573757296228
  0
CIRCLE
  5
AF
330
20
100
AcDbEntity
  8
100
  6
CONTINUOUS
100
AcDbCircle
 10
16.5
 20
22.52631323460662
 40
3.5
  0
LINE
  5
B0
330
20
100
AcDbEntity
  8
100
  6
CONTINUOUS
100
AcDbLine
 10
18.0
 20
23.39233863839104
 11
18.0
 21
21.6602878308222
  0
LINE
  5
B1
330
20
100
AcDbEntity
  8
100
  6
CONTINUOUS
100
AcDbLine
 10
18.0
 20
23.39233863839104
 11
16.5
 21
24.25836404217552
  0
LINE
  5
B2
330
20
100
AcDbEntity
  8
100
  6
CONTINUOUS
100
AcDbLine
 10
15.0
 20
23.39233863839104
 11
16.5
 21
24.25836404217552
  0
LINE
  5
B3
330
20
100
AcDbEntity
  8
100
  6
CONTINUOUS
100
AcDbLine
 10
15.0
 20
23.39233863839104
 11
15.0
 21
21.6602878308222
  0
LINE
  5
B4
330
20
100
AcDbEntity
  8
100
  6
CONTINUOUS
100
AcDbLine
 10
16.5
 20
20.79426242703778
 11
15.0
 21
21.6602878308222
  0
LINE
  5
B5
330
20
100
AcDbEntity
  8
100
  6
CONTINUOUS
100
AcDbLine
 10
16.5
 20
20.79426242703778
 11
18.0
 21
21.6602878308222
  0
CIRCLE
  5
B6
330
20
100
AcDbEntity
  8
100
  6
CONTINUOUS
100
AcDbCircle
 10
-18.5
 20
22.52631323460662
 40
3.5
  0
LINE
  5
B7
330
20
100
AcDbEntity
  8
100
  6
CONTINUOUS
100
AcDbLine
 10
-20.0
 20
23.39233863839104
 11
-20.0
 21
21.6602878308222
  0
LINE
  5
B8
330
20
100
AcDbEntity
  8
100
  6
CONTINUOUS
100
AcDbLine
 10
-20.0
 20
23.39233863839104
 11
-18.5
 21
24.25836404217552
  0
LINE
  5
B9
330
20
100
AcDbEntity
  8
100
  6
CONTINUOUS
100
AcDbLine
 10
-17.0
 20
23.39233863839104
 11
-18.5
 21
24.25836404217552
  0
LINE
  5
BA
330
20
100
AcDbEntity
  8
100
  6
CONTINUOUS
100
AcDbLine
 10
-17.0
 20
23.39233863839104
 11
-17.0
 21
21.6602878308222
  0
LINE
  5
BB
330
20
100
AcDbEntity
  8
100
  6
CONTINUOUS
100
AcDbLine
 10
-18.5
 20
20.79426242703778
 11
-17.0
 21
21.6602878308222
  0
LINE
  5
BC
330
20
100
AcDbEntity
  8
100
  6
CONTINUOUS
100
AcDbLine
 10
-18.5
 20
20.79426242703778
 11
-20.0
 21
21.6602878308222
  0
CIRCLE
  5
BD
330
20
100
AcDbEntity
  8
100
  6
CONTINUOUS
100
AcDbCircle
 10
-18.5
 20
-23.47368676539338
 40
3.5
  0
LINE
  5
BE
330
20
100
AcDbEntity
  8
100
  6
CONTINUOUS
100
AcDbLine
 10
-20.0
 20
-24.3397121691778
 11
-20.0
 21
-22.60766136160896
  0
LINE
  5
BF
330
20
100
AcDbEntity
  8
100
  6
CONTINUOUS
100
AcDbLine
 10
-20.0
 20
-24.3397121691778
 11
-18.5
 21
-25.20573757296228
  0
LINE
  5
C0
330
20
100
AcDbEntity
  8
100
  6
CONTINUOUS
100
AcDbLine
 10
-17.0
 20
-24.3397121691778
 11
-18.5
 21
-25.20573757296228
  0
LINE
  5
C1
330
20
100
AcDbEntity
  8
100
  6
CONTINUOUS
100
AcDbLine
 10
-17.0
 20
-24.3397121691778
 11
-17.0
 21
-22.60766136160896
  0
LINE
  5
C2
330
20
100
AcDbEntity
  8
100
  6
CONTINUOUS
100
AcDbLine
 10
-18.5
 20
-21.74163595782449
 11
-17.0
 21
-22.60766136160896
  0
LINE
  5
C3
330
20
100
AcDbEntity
  8
100
  6
CONTINUOUS
100
AcDbLine
 10
-18.5
 20
-21.74163595782449
 11
-20.0
 21
-22.60766136160896
  0
ENDSEC
  0
SECTION
  2
OBJECTS
  0
DICTIONARY
  5
C
100
AcDbDictionary
281
     1
  3
ACAD_GROUP
350
D
  3
ACAD_MLINESTYLE
350
E
  3
ACDBVARIABLEDICTIONARY
350
C4
  3
ACAD_PLOTSTYLENAME
350
C5
  3
ACAD_LAYOUT
350
C6
  3
ACAD_PLOTSETTINGS
350
C7
  0
DICTIONARY
  5
D
102
{ACAD_REACTORS
330
C
102
}
330
C
100
AcDbDictionary
281
     1
  0
DICTIONARY
  5
E
102
{ACAD_REACTORS
330
C
102
}
330
C
100
AcDbDictionary
281
     1
  3
STANDARD
350
13
  0
DICTIONARY
  5
C4
102
{ACAD_REACTORS
330
C
102
}
330
C
100
AcDbDictionary
281
     1
  3
SORTENTS
350
C8
  0
ACDBDICTIONARYWDFLT
  5
C5
102
{ACAD_REACTORS
330
C
102
}
330
C
100
AcDbDictionary
281
     1
  3
Normal
350
C9
100
AcDbDictionaryWithDefault
340
C9
  0
DICTIONARY
  5
C6
102
{ACAD_REACTORS
330
C
102
}
330
C
100
AcDbDictionary
281
     1
  3
Model
350
CA
  0
DICTIONARY
  5
C7
102
{ACAD_REACTORS
330
C
102
}
330
C
100
AcDbDictionary
281
     1
  0
MLINESTYLE
  5
13
102
{ACAD_REACTORS
330
E
102
}
330
E
100
AcDbMlineStyle
  2
STANDARD
 70
     0
  3

 62
   256
 51
90.0
 52
90.0
 71
     2
 49
0.5
 62
   256
  6
BYLAYER
 49
-0.5
 62
   256
  6
BYLAYER
  0
DICTIONARYVAR
  5
C8
102
{ACAD_REACTORS
330
C4
102
}
330
C4
100
DictionaryVariables
280
     0
  1
96
  0
ACDBPLACEHOLDER
  5
C9
102
{ACAD_REACTORS
330
C5
102
}
330
C5
  0
LAYOUT
  5
CA
102
{ACAD_REACTORS
330
C6
102
}
330
C6
100
AcDbPlotSettings
  1

  2

  4

  6

 40
0.0
 41
0.0
 42
0.0
 43
0.0
 44
0.0
 45
0.0
 46
0.0
 47
0.0
 48
0.0
 49
0.0
140
0.0
141
0.0
142
1.0
143
1.0
 70
  1712
 72
     0
 73
     0
 74
     0
  7

 75
     0
147
1.0
148
0.0
149
0.0
100
AcDbLayout
  1
Model
 70
     1
 71
     0
 10
0.0
 20
0.0
 11
297.0
 21
210.0
 12
0.0
 22
0.0
 32
0.0
 14
0.0
 24
0.0
 34
0.0
 15
0.0
 25
0.0
 35
0.0
146
0.0
 13
0.0
 23
0.0
 33
0.0
 16
1.0
 26
0.0
 36
0.0
 17
0.0
 27
1.0
 37
0.0
 76
     0
330
20
  0
ENDSEC
  0
EOF
