  0
SECTION
  2
HEADER
  9
$ACADVER
  1
AC1015
  9
$ACADMAINTVER
 70
     0
  9
$DWGCODEPAGE
  3
ANSI_932
  9
$INSBASE
 10
0.0
 20
0.0
 30
0.0
  9
$EXTMIN
 10
-594.9388742760679
 20
-591.9655236054176
  9
$EXTMAX
 10
609.9987654294934
 20
221.1812117829072
  9
$LIMMIN
 10
-594.9388742760679
 20
-591.9655236054176
  9
$LIMMAX
 10
609.9987654294934
 20
221.1812117829072
  9
$ORTHOMODE
 70
     0
  9
$REGENMODE
 70
     1
  9
$FILLMODE
 70
     1
  9
$QTEXTMODE
 70
     0
  9
$MIRRTEXT
 70
     1
  9
$LTSCALE
 40
1.0
  9
$OSMODE
 70
     0
  9
$ATTMODE
 70
     1
  9
$TEXTSIZE
 40
3.0
  9
$TRACEWID
 40
0.5
  9
$TEXTSTYLE
  7
STANDARD
  9
$CLAYER
  8
0
  9
$CELTYPE
  6
BYLAYER
  9
$CECOLOR
 62
   256
  9
$CELTSCALE
 40
1.0
  9
$DISPSILH
 70
     0
  9
$DIMSCALE
 40
1.0
  9
$DIMASZ
 40
3.0
  9
$DIMEXO
 40
1.0
  9
$DIMDLI
 40
5.0
  9
$DIMRND
 40
0.0
  9
$DIMDLE
 40
5.0
  9
$DIMEXE
 40
2.0
  9
$DIMTP
 40
0.0
  9
$DIMTM
 40
0.0
  9
$DIMTXT
 40
3.0
  9
$DIMCEN
 40
2.0
  9
$DIMTSZ
 40
0.0
  9
$DIMTOL
 70
     0
  9
$DIMLIM
 70
     0
  9
$DIMTIH
 70
     0
  9
$DIMTOH
 70
     0
  9
$DIMSE1
 70
     0
  9
$DIMSE2
 70
     0
  9
$DIMTAD
 70
     1
  9
$DIMZIN
 70
     8
  9
$DIMBLK
  1

  9
$DIMASO
 70
     1
  9
$DIMSHO
 70
     1
  9
$DIMPOST
  1

  9
$DIMAPOST
  1

  9
$DIMALT
 70
     0
  9
$DIMALTD
 70
     0
  9
$DIMALTF
 40
25.4
  9
$DIMLFAC
 40
1.0
  9
$DIMTOFL
 70
     1
  9
$DIMTVP
 40
1.0
  9
$DIMTIX
 70
     0
  9
$DIMSOXD
 70
     0
  9
$DIMSAH
 70
     0
  9
$DIMBLK1
  1

  9
$DIMBLK2
  1

  9
$DIMSTYLE
  2
ISO-25
  9
$DIMCLRD
 70
     0
  9
$DIMCLRE
 70
     0
  9
$DIMCLRT
 70
     0
  9
$DIMTFAC
 40
1.0
  9
$DIMGAP
 40
1.0
  9
$DIMJUST
 70
     0
  9
$DIMSD1
 70
     0
  9
$DIMSD2
 70
     0
  9
$DIMTOLJ
 70
     0
  9
$DIMTZIN
 70
     8
  9
$DIMALTZ
 70
     0
  9
$DIMALTTZ
 70
     0
  9
$DIMUPT
 70
     0
  9
$DIMDEC
 70
     2
  9
$DIMTDEC
 70
     2
  9
$DIMALTU
 70
     2
  9
$DIMALTTD
 70
     3
  9
$DIMTXSTY
  7
STANDARD
  9
$DIMAUNIT
 70
     0
  9
$DIMADEC
 70
     0
  9
$DIMALTRND
 40
0.0
  9
$DIMAZIN
 70
     0
  9
$DIMDSEP
 70
    46
  9
$DIMATFIT
 70
     3
  9
$DIMFRAC
 70
     0
  9
$DIMLDRBLK
  1

  9
$DIMLUNIT
 70
     2
  9
$DIMLWD
 70
    -2
  9
$DIMLWE
 70
    -2
  9
$DIMTMOVE
 70
     0
  9
$LUNITS
 70
     2
  9
$LUPREC
 70
     4
  9
$SKETCHINC
 40
1.0
  9
$FILLETRAD
 40
0.0
  9
$AUNITS
 70
     0
  9
$AUPREC
 70
     0
  9
$MENU
  1
.
  9
$ELEVATION
 40
0.0
  9
$PELEVATION
 40
0.0
  9
$THICKNESS
 40
0.0
  9
$LIMCHECK
 70
     0
  9
$CHAMFERA
 40
0.0
  9
$CHAMFERB
 40
0.0
  9
$CHAMFERC
 40
0.0
  9
$CHAMFERD
 40
0.0
  9
$SKPOLY
 70
     0
  9
$TDCREATE
 40
2454085.657210648
  9
$TDUCREATE
 40
2454085.657210648
  9
$TDUPDATE
 40
2454085.657210648
  9
$TDUUPDATE
 40
2454085.657210648
  9
$TDINDWG
 40
0.0
  9
$TDUSRTIMER
 40
0.0
  9
$USRTIMER
 70
     1
  9
$ANGBASE
 50
0.0
  9
$ANGDIR
 70
     0
  9
$PDMODE
 70
     0
  9
$PDSIZE
 40
0.0
  9
$PLINEWID
 40
0.0
  9
$SPLFRAME
 70
     0
  9
$SPLINETYPE
 70
     6
  9
$SPLINESEGS
 70
     8
  9
$HANDSEED
  5
D3
  9
$SURFTAB1
 70
     6
  9
$SURFTAB2
 70
     6
  9
$SURFTYPE
 70
     6
  9
$SURFU
 70
     6
  9
$SURFV
 70
     6
  9
$UCSBASE
  2

  9
$UCSNAME
  2

  9
$UCSORG
 10
0.0
 20
0.0
 30
0.0
  9
$UCSXDIR
 10
1.0
 20
0.0
 30
0.0
  9
$UCSYDIR
 10
0.0
 20
1.0
 30
0.0
  9
$UCSORTHOREF
  2

  9
$UCSORTHOVIEW
 70
     0
  9
$UCSORGTOP
 10
0.0
 20
0.0
 30
0.0
  9
$UCSORGBOTTOM
 10
0.0
 20
0.0
 30
0.0
  9
$UCSORGLEFT
 10
0.0
 20
0.0
 30
0.0
  9
$UCSORGRIGHT
 10
0.0
 20
0.0
 30
0.0
  9
$UCSORGFRONT
 10
0.0
 20
0.0
 30
0.0
  9
$UCSORGBACK
 10
0.0
 20
0.0
 30
0.0
  9
$PUCSBASE
  2

  9
$PUCSNAME
  2

  9
$PUCSORG
 10
0.0
 20
0.0
 30
0.0
  9
$PUCSXDIR
 10
1.0
 20
0.0
 30
0.0
  9
$PUCSYDIR
 10
0.0
 20
1.0
 30
0.0
  9
$PUCSORTHOREF
  2

  9
$PUCSORTHOVIEW
 70
     0
  9
$PUCSORGTOP
 10
0.0
 20
0.0
 30
0.0
  9
$PUCSORGBOTTOM
 10
0.0
 20
0.0
 30
0.0
  9
$PUCSORGLEFT
 10
0.0
 20
0.0
 30
0.0
  9
$PUCSORGRIGHT
 10
0.0
 20
0.0
 30
0.0
  9
$PUCSORGFRONT
 10
0.0
 20
0.0
 30
0.0
  9
$PUCSORGBACK
 10
0.0
 20
0.0
 30
0.0
  9
$USERI1
 70
     0
  9
$USERI2
 70
     0
  9
$USERI3
 70
     0
  9
$USERI4
 70
     0
  9
$USERI5
 70
     0
  9
$USERR1
 40
0.0
  9
$USERR2
 40
0.0
  9
$USERR3
 40
0.0
  9
$USERR4
 40
0.0
  9
$USERR5
 40
0.0
  9
$WORLDVIEW
 70
     1
  9
$SHADEDGE
 70
     3
  9
$SHADEDIF
 70
    70
  9
$MAXACTVP
 70
    16
  9
$PINSBASE
 10
0.0
 20
0.0
 30
0.0
  9
$PLIMCHECK
 70
     0
  9
$PEXTMIN
 10
1.000000E+20
 20
1.000000E+20
 30
1.000000E+20
  9
$PEXTMAX
 10
-1.000000E+20
 20
-1.000000E+20
 30
-1.000000E+20
  9
$PLIMMIN
 10
-594.9388742760679
 20
-591.9655236054176
  9
$PLIMMAX
 10
609.9987654294934
 20
221.1812117829072
  9
$UNITMODE
 70
     0
  9
$VISRETAIN
 70
     0
  9
$PLINEGEN
 70
     0
  9
$PSLTSCALE
 70
     0
  9
$TREEDEPTH
 70
  3020
  9
$CMLSTYLE
  2
STANDARD
  9
$CMLJUST
 70
     0
  9
$CMLSCALE
 40
1.0
  9
$PROXYGRAPHICS
 70
     1
  9
$MEASUREMENT
 70
     0
  9
$CELWEIGHT
370
    -3
  9
$ENDCAPS
280
     0
  9
$JOINSTYLE
280
     0
  9
$LWDISPLAY
290
     1
  9
$INSUNITS
 70
     0
  9
$HYPERLINKBASE
  1

  9
$STYLESHEET
  1

  9
$XEDIT
290
     1
  9
$CEPSNTYPE
380
     0
  9
$PSTYLEMODE
290
     1
  9
$FINGERPRINTGUID
  2
{6F25CFC2-5053-11D3-9BE9-00805F4AB38E}
  9
$VERSIONGUID
  2
{6F25CFC5-5053-11D3-9BE9-00805F4AB38E}
  9
$EXTNAMES
290
     1
  9
$PSVPSCALE
 40
0.0
  9
$OLESTARTUP
290
     0
  0
ENDSEC
  0
SECTION
  2
CLASSES
  0
CLASS
  1
LWPOLYLINE
  2
AcDbPolyline
  3
AutoCAD 2000
 90
    32768
280
     0
281
     1
  0
CLASS
  1
DICTIONARYVAR
  2
AcDbDictionaryVar
  3
AutoCAD 2000
 90
        0
280
     0
281
     1
  0
CLASS
  1
ACDBDICTIONARYWDFLT
  2
AcDbDictionaryWithDefault
  3
AutoCAD 2000
 90
        0
280
     0
281
     1
  0
CLASS
  1
ACDBPLACEHOLDER
  2
AcDbPlaceHolder
  3
AutoCAD 2000
 90
        0
280
     0
281
     1
  0
CLASS
  1
LAYOUT
  2
AcDbLayout
  3
AutoCAD 2000
 90
        0
280
     0
281
     1
  0
CLASS
  1
HATCH
  2
AcDbHatch
  3
AutoCAD 2000
 90
        0
280
     0
281
     1
  0
ENDSEC
  0
SECTION
  2
TABLES
  0
TABLE
  2
VPORT
  5
8
100
AcDbSymbolTable
 70
     1
  0
VPORT
  5
C9
330
0
100
AcDbSymbolTableRecord
100
AcDbViewportTableRecord
  2
*ACTIVE
 70
     0
 10
0.0
 20
0.0
 11
1.0
 21
1.0
 12
7.529945576712748
 22
-185.3921559112552
 13
0.0
 23
0.0
 14
0.0
 24
0.0
 15
0.0
 25
0.0
 16
0.0
 26
0.0
 36
1.0
 17
0.0
 27
0.0
 37
0.0
 40
813.1467353883248
 41
1.5
 42
50.0
 43
0.0
 44
0.0
 50
0.0
 51
0.0
 71
     0
 72
   100
 73
     1
 74
     1
 75
     0
 76
     0
 77
     0
 78
     0
281
     0
 65
     1
110
0.0
120
0.0
130
0.0
111
1.0
121
0.0
131
0.0
112
0.0
122
1.0
132
0.0
 79
     0
146
0.0
  0
ENDTAB
  0
TABLE
  2
LTYPE
  5
5
330
0
100
AcDbSymbolTable
 70
    20
  0
LTYPE
  5
CA
330
5
100
AcDbSymbolTableRecord
100
AcDbLinetypeTableRecord
  2
BYBLOCK
 70
     0
  3

 72
    65
 73
     0
 40
0.0
  0
LTYPE
  5
CB
330
5
100
AcDbSymbolTableRecord
100
AcDbLinetypeTableRecord
  2
BYLAYER
 70
     0
  3

 72
    65
 73
     0
 40
0.0
  0
LTYPE
  5
CC
330
5
100
AcDbSymbolTableRecord
100
AcDbLinetypeTableRecord
  2
CONTINUOUS
 70
    64
  3
solid line
 72
    65
 73
     0
 40
0.0
  0
LTYPE
  5
CD
330
0
100
AcDbSymbolTableRecord
100
AcDbLinetypeTableRecord
  2
DASHED
 70
    64
  3
-- -- -- -- -- -- -- -- -- -- 
 72
    65
 73
     2
 40
3.0
 49
2.0
 74
     0
 49
-1.0
 74
     0
  0
LTYPE
  5
CE
330
0
100
AcDbSymbolTableRecord
100
AcDbLinetypeTableRecord
  2
CENTER
 70
    64
  3
--- - --- - --- - --- - --- - 
 72
    65
 73
     4
 40
6.0
 49
3.0
 74
     0
 49
-1.0
 74
     0
 49
1.0
 74
     0
 49
-1.0
 74
     0
  0
ENDTAB
  0
TABLE
  2
LAYER
  5
2
330
0
100
AcDbSymbolTable
 70
    20
  0
LAYER
  5
CF
330
2
100
AcDbSymbolTableRecord
100
AcDbLayerTableRecord
  2
0
 70
    64
 62
     7
  6
CONTINUOUS
370
    -3
390
C5
  0
LAYER
  5
25
330
2
100
AcDbSymbolTableRecord
100
AcDbLayerTableRecord
  2
100
 70
    64
 62
     7
  6
CONTINUOUS
370
    -3
390
C5
  0
ENDTAB
  0
TABLE
  2
STYLE
  5
3
330
0
100
AcDbSymbolTable
 70
     4
  0
STYLE
  5
D0
330
3
100
AcDbSymbolTableRecord
100
AcDbTextStyleTableRecord
  2
STANDARD
 70
    64
 40
0.0
 41
1.052631578947368
 50
0.0
 71
     0
 42
3.0
  3
monotxt
  4

  0
ENDTAB
  0
TABLE
  2
VIEW
  5
6
330
0
100
AcDbSymbolTable
 70
     0
  0
ENDTAB
  0
TABLE
  2
UCS
  5
7
330
0
100
AcDbSymbolTable
 70
     0
  0
ENDTAB
  0
TABLE
  2
APPID
  5
9
330
0
100
AcDbSymbolTable
 70
     1
  0
APPID
  5
D1
330
9
100
AcDbSymbolTableRecord
100
AcDbRegAppTableRecord
  2
ACAD
 70
     0
  0
ENDTAB
  0
TABLE
  2
DIMSTYLE
  5
A
330
0
100
AcDbSymbolTable
 70
     8
100
AcDbDimStyleTable
 71
     0
  0
DIMSTYLE
105
D2
330
A
100
AcDbSymbolTableRecord
100
AcDbDimStyleTableRecord
  2
ISO-25
 70
     0
  3

  4

  5

  6

  7

 40
1.0
 41
3.0
 42
1.0
 43
5.0
 44
2.0
 45
0.0
 46
5.0
 47
0.0
 48
0.0
140
3.0
141
2.0
142
0.0
143
25.4
144
1.0
145
1.0
146
1.0
147
1.0
 71
     0
 72
     0
 73
     0
 74
     0
 75
     0
 76
     0
 77
     1
 78
     8
170
     0
171
     0
172
     1
173
     0
174
     0
175
     0
176
     0
177
     0
178
     0
270
     0
271
     2
272
     2
273
     2
274
     3
340
D0
275
     0
277
     2
280
     0
281
     0
282
     0
283
     0
284
     8
285
     0
286
     0
287
     3
288
     0
  0
ENDTAB
  0
TABLE
  2
BLOCK_RECORD
  5
1
330
0
100
AcDbSymbolTable
 70
     2
  0
BLOCK_RECORD
  5
20
330
1
100
AcDbSymbolTableRecord
100
AcDbBlockTableRecord
  2
*MODEL_SPACE
340
C6
  0
BLOCK_RECORD
  5
22
330
1
100
AcDbSymbolTableRecord
100
AcDbBlockTableRecord
  2
*PAPER_SPACE
340
0
  0
ENDTAB
  0
ENDSEC
  0
SECTION
  2
BLOCKS
  0
BLOCK
  5
21
330
20
100
AcDbEntity
  8
0
100
AcDbBlockBegin
  2
*MODEL_SPACE
 70
     0
 10
0.0
 20
0.0
 30
0.0
  3
*MODEL_SPACE
  1

  0
ENDBLK
  5
C7
330
20
100
AcDbEntity
  8
0
100
AcDbBlockEnd
  0
BLOCK
  5
23
330
22
100
AcDbEntity
 67
     1
  8
0
100
AcDbBlockBegin
  2
*PAPER_SPACE
 70
     0
 10
0.0
 20
0.0
 30
0.0
  3
*PAPER_SPACE
  1

  0
ENDBLK
  5
C8
330
22
100
AcDbEntity
 67
     1
  8
0
100
AcDbBlockEnd
  0
ENDSEC
  0
SECTION
  2
ENTITIES
  0
LINE
  5
24
330
20
100
AcDbEntity
  8
100
  6
CONTINUOUS
100
AcDbLine
 10
15.99999999999999
 20
27.52631323460662
 11
15.99999999999999
 21
42.52631323460662
  0
LINE
  5
26
330
20
100
AcDbEntity
  8
100
  6
CONTINUOUS
100
AcDbLine
 10
15.99999999999999
 20
42.52631323460662
 11
-1.0
 21
42.52631323460662
  0
LINE
  5
27
330
20
100
AcDbEntity
  8
100
  6
CONTINUOUS
100
AcDbLine
 10
16.22512499999998
 20
47.52631323460662
 11
-1.0
 21
47.52631323460662
  0
ARC
  5
28
330
20
100
AcDbEntity
  8
100
  6
CONTINUOUS
100
AcDbCircle
 10
15.99999999999999
 20
45.02631323460662
 40
2.5
100
AcDbArc
 50
90.0
 51
270.0
  0
LINE
  5
29
330
20
100
AcDbEntity
  8
100
  6
CONTINUOUS
100
AcDbLine
 10
-18.0
 20
27.52631323460662
 11
-18.0
 21
42.52631323460662
  0
LINE
  5
2A
330
20
100
AcDbEntity
  8
100
  6
CONTINUOUS
100
AcDbLine
 10
-18.0
 20
42.52631323460662
 11
-1.0
 21
42.52631323460662
  0
LINE
  5
2B
330
20
100
AcDbEntity
  8
100
  6
CONTINUOUS
100
AcDbLine
 10
-18.22512499999999
 20
47.52631323460662
 11
-1.0
 21
47.52631323460662
  0
ARC
  5
2C
330
20
100
AcDbEntity
  8
100
  6
CONTINUOUS
100
AcDbCircle
 10
-18.0
 20
45.02631323460662
 40
2.5
100
AcDbArc
 50
270.0
 51
90.0
  0
LINE
  5
2D
330
20
100
AcDbEntity
  8
100
  6
CONTINUOUS
100
AcDbLine
 10
-24.5
 20
47.52631323460662
 11
-24.5
 21
82.20971377042173
  0
LINE
  5
2E
330
20
100
AcDbEntity
  8
100
  6
CONTINUOUS
100
AcDbLine
 10
22.5
 20
47.52631323460662
 11
22.5
 21
82.20971377042173
  0
LINE
  5
2F
330
20
100
AcDbEntity
  8
100
  6
CONTINUOUS
100
AcDbLine
 10
22.5
 20
47.52631323460662
 11
-24.5
 21
47.52631323460662
  0
LINE
  5
30
330
20
100
AcDbEntity
  8
100
  6
CONTINUOUS
100
AcDbLine
 10
19.0
 20
84.52631323460662
 11
-21.0
 21
84.52631323460662
  0
LINE
  5
31
330
20
100
AcDbEntity
  8
100
  6
CONTINUOUS
100
AcDbLine
 10
-21.0
 20
84.52631323460662
 11
-24.5
 21
82.20971377042173
  0
LINE
  5
32
330
20
100
AcDbEntity
  8
100
  6
CONTINUOUS
100
AcDbLine
 10
19.0
 20
84.52631323460662
 11
22.5
 21
82.20971377042173
  0
LINE
  5
33
330
20
100
AcDbEntity
  8
100
  6
CONTINUOUS
100
AcDbLine
 10
15.99999999999999
 20
27.52631323460662
 11
-1.0
 21
27.52631323460662
  0
LINE
  5
34
330
20
100
AcDbEntity
  8
100
  6
CONTINUOUS
100
AcDbLine
 10
-23.0
 20
27.52631323460662
 11
21.0
 21
27.52631323460662
  0
LINE
  5
35
330
20
100
AcDbEntity
  8
100
  6
CONTINUOUS
100
AcDbLine
 10
-12.66431948
 20
47.52631323460662
 11
-12.66431948
 21
84.52631323460662
  0
LINE
  5
36
330
20
100
AcDbEntity
  8
100
  6
CONTINUOUS
100
AcDbLine
 10
10.66431948
 20
47.52631323460662
 11
10.66431948
 21
84.52631323460662
  0
LINE
  5
37
330
20
100
AcDbEntity
  8
100
  6
CONTINUOUS
100
AcDbLine
 10
-8.0
 20
84.52631323460662
 11
-8.0
 21
166.6890982262429
  0
LINE
  5
38
330
20
100
AcDbEntity
  8
100
  6
CONTINUOUS
100
AcDbLine
 10
6.0
 20
84.52631323460662
 11
6.0
 21
166.6890982262434
  0
SPLINE
  5
39
330
20
100
AcDbEntity
  8
100
  6
CONTINUOUS
100
AcDbSpline
210
0.0
220
0.0
230
1.0
 70
     8
 71
     3
 72
    13
 73
     9
 74
     0
 42
1.000000000000000E-007
 43
1.000000000000000E-007
 40
0.0
 40
0.0
 40
0.0
 40
0.0
 40
4.709598851361543
 40
9.521524298234823
 40
14.32080396803836
 40
19.31379230068016
 40
24.38743272011952
 40
29.14466804195851
 40
29.14466804195851
 40
29.14466804195851
 40
29.14466804195851
 10
-7.999999999999659
 20
166.6890982262434
 30
0.0
 10
-7.267777396084824
 20
167.6403177384386
 30
0.0
 10
-4.338886980419055
 20
171.4451957872189
 30
0.0
 10
-0.9122294744081878
 20
166.6159274945372
 30
0.0
 10
1.987804878048682
 20
162.2256835920971
 30
0.0
 10
7.96100996221228
 20
166.615927494536
 30
0.0
 10
2.168155273101931
 20
171.445195787219
 30
0.0
 10
-0.3663689453796764
 20
167.6403177384385
 30
0.0
 10
-1.0
 20
166.6890982262434
 30
0.0
  0
LINE
  5
3A
330
20
100
AcDbEntity
  8
100
  6
CENTER
100
AcDbLine
 10
-594.9388742760679
 20
0.0
 11
609.9987654294934
 21
0.0
  0
LINE
  5
3B
330
20
100
AcDbEntity
  8
100
  6
CENTER
100
AcDbLine
 10
-1.0
 20
-62.18060640027761
 11
-1.0
 21
221.1812117829072
  0
LINE
  5
3C
330
20
100
AcDbEntity
  8
100
  6
CONTINUOUS
100
AcDbLine
 10
457.1996677731697
 20
145.0
 11
263.8003322268303
 21
145.0
  0
LINE
  5
3D
330
20
100
AcDbEntity
  8
100
  6
CONTINUOUS
100
AcDbLine
 10
457.1996677731697
 20
-145.0
 11
263.8003322268303
 21
-145.0
  0
CIRCLE
  5
3E
330
20
100
AcDbEntity
  8
100
  6
CONTINUOUS
100
AcDbCircle
 10
376.0
 20
0.0
 40
65.0
  0
ARC
  5
3F
330
20
100
AcDbEntity
  8
100
  6
CONTINUOUS
100
AcDbCircle
 10
397.0
 20
0.0
 40
157.0
100
AcDbArc
 50
292.5467647571766
 51
67.4532352428234
  0
LINE
  5
40
330
20
100
AcDbEntity
  8
100
  6
CONTINUOUS
100
AcDbLine
 10
174.0
 20
-74.75
 11
174.0
 21
74.75
  0
LINE
  5
41
330
20
100
AcDbEntity
  8
100
  6
CONTINUOUS
100
AcDbLine
 10
-176.0
 20
-74.75
 11
-176.0
 21
74.75
  0
LINE
  5
42
330
20
100
AcDbEntity
  8
100
  6
CONTINUOUS
100
AcDbLine
 10
-171.0
 20
110.0
 11
-8.0
 21
110.0
  0
LINE
  5
43
330
20
100
AcDbEntity
  8
100
  6
CONTINUOUS
100
AcDbLine
 10
6.0
 20
110.0
 11
169.0
 21
110.0
  0
LINE
  5
44
330
20
100
AcDbEntity
  8
100
  6
CONTINUOUS
100
AcDbLine
 10
-171.0
 20
-110.0
 11
169.0
 21
-110.0
  0
LINE
  5
45
330
20
100
AcDbEntity
  8
100
  6
CONTINUOUS
100
AcDbLine
 10
-141.0
 20
-110.0
 11
-141.0
 21
110.0
  0
LINE
  5
46
330
20
100
AcDbEntity
  8
100
  6
CONTINUOUS
100
AcDbLine
 10
139.0
 20
-110.0
 11
139.0
 21
110.0
  0
LINE
  5
47
330
20
100
AcDbEntity
  8
100
  6
CONTINUOUS
100
AcDbLine
 10
169.0
 20
-110.0
 11
169.0
 21
110.0
  0
LINE
  5
48
330
20
100
AcDbEntity
  8
100
  6
CONTINUOUS
100
AcDbLine
 10
-171.0
 20
-110.0
 11
-171.0
 21
110.0
  0
LINE
  5
49
330
20
100
AcDbEntity
  8
100
  6
CONTINUOUS
100
AcDbLine
 10
174.496028480846
 20
74.75
 11
169.0
 21
74.75
  0
LINE
  5
4A
330
20
100
AcDbEntity
  8
100
  6
CONTINUOUS
100
AcDbLine
 10
-171.0
 20
74.75
 11
-176.0
 21
74.75
  0
LINE
  5
4B
330
20
100
AcDbEntity
  8
100
  6
CONTINUOUS
100
AcDbLine
 10
-176.496028480846
 20
-74.75
 11
-171.0
 21
-74.75
  0
LINE
  5
4C
330
20
100
AcDbEntity
  8
100
  6
CONTINUOUS
100
AcDbLine
 10
169.0
 20
-74.75
 11
174.0
 21
-74.75
  0
LINE
  5
4D
330
20
100
AcDbEntity
  8
100
  6
CONTINUOUS
100
AcDbLine
 10
-191.0
 20
45.0
 11
-549.4127654157054
 21
45.0
  0
LINE
  5
4E
330
20
100
AcDbEntity
  8
100
  6
CONTINUOUS
100
AcDbLine
 10
-191.0
 20
-45.0
 11
-549.4127654157054
 21
-45.0
  0
ARC
  5
4F
330
20
100
AcDbEntity
  8
100
  6
CONTINUOUS
100
AcDbCircle
 10
-399.0000000000001
 20
0.0
 40
157.0000000000001
100
AcDbArc
 50
163.3440404577565
 51
196.6559595422435
  0
ARC
  5
50
330
20
100
AcDbEntity
  8
100
  6
DASHED
100
AcDbCircle
 10
-588.0000000000001
 20
0.0
 40
150.0
100
AcDbArc
 50
342.5423968762779
 51
17.4576031237221
  0
ARC
  5
51
330
20
100
AcDbEntity
  8
100
  6
DASHED
100
AcDbCircle
 10
-158.0
 20
0.0
 40
150.0
100
AcDbArc
 50
162.5423968762779
 51
197.4576031237221
  0
ARC
  5
52
330
20
100
AcDbEntity
  8
100
  6
CONTINUOUS
100
AcDbCircle
 10
-191.0
 20
60.0
 40
15.0
100
AcDbArc
 50
270.0
 51
0.0
  0
ARC
  5
53
330
20
100
AcDbEntity
  8
100
  6
CONTINUOUS
100
AcDbCircle
 10
-191.0
 20
-60.0
 40
15.0
100
AcDbArc
 50
0.0
 51
90.0
  0
CIRCLE
  5
54
330
20
100
AcDbEntity
  8
100
  6
CONTINUOUS
100
AcDbCircle
 10
-378.0
 20
-446.9655236054176
 40
65.0
  0
ARC
  5
55
330
20
100
AcDbEntity
  8
100
  6
CONTINUOUS
100
AcDbCircle
 10
-399.0
 20
-446.9655236054176
 40
157.0
100
AcDbArc
 50
112.5467647571766
 51
247.4532352428234
  0
LINE
  5
56
330
20
100
AcDbEntity
  8
100
  6
CONTINUOUS
100
AcDbLine
 10
-459.1996677731697
 20
-301.9655236054176
 11
-265.8003322268303
 21
-301.9655236054176
  0
LINE
  5
57
330
20
100
AcDbEntity
  8
100
  6
CONTINUOUS
100
AcDbLine
 10
-459.1996677731697
 20
-591.9655236054176
 11
-265.8003322268303
 21
-591.9655236054176
  0
LINE
  5
58
330
20
100
AcDbEntity
  8
100
  6
CONTINUOUS
100
AcDbLine
 10
139.0
 20
-556.9655236054176
 11
139.0
 21
-336.9655236054176
  0
LINE
  5
59
330
20
100
AcDbEntity
  8
100
  6
CONTINUOUS
100
AcDbLine
 10
-141.0
 20
-556.9655236054176
 11
-141.0
 21
-336.9655236054176
  0
LINE
  5
5A
330
20
100
AcDbEntity
  8
100
  6
CONTINUOUS
100
AcDbLine
 10
-171.0
 20
-556.9655236054176
 11
-171.0
 21
-336.9655236054176
  0
LINE
  5
5B
330
20
100
AcDbEntity
  8
100
  6
CONTINUOUS
100
AcDbLine
 10
169.0
 20
-556.9655236054176
 11
169.0
 21
-336.9655236054176
  0
LINE
  5
5C
330
20
100
AcDbEntity
  8
100
  6
CONTINUOUS
100
AcDbLine
 10
174.0
 20
-521.7155236054176
 11
174.0
 21
-372.2155236054176
  0
LINE
  5
5D
330
20
100
AcDbEntity
  8
100
  6
CONTINUOUS
100
AcDbLine
 10
-176.0
 20
-521.7155236054176
 11
-176.0
 21
-372.2155236054176
  0
LINE
  5
5E
330
20
100
AcDbEntity
  8
100
  6
CONTINUOUS
100
AcDbLine
 10
-171.0
 20
-336.9655236054176
 11
-23.0
 21
-336.9655236054176
  0
LINE
  5
5F
330
20
100
AcDbEntity
  8
100
  6
CONTINUOUS
100
AcDbLine
 10
21.0
 20
-336.9655236054176
 11
169.0
 21
-336.9655236054176
  0
LINE
  5
60
330
20
100
AcDbEntity
  8
100
  6
CONTINUOUS
100
AcDbLine
 10
-171.0
 20
-556.9655236054176
 11
169.0
 21
-556.9655236054176
  0
LINE
  5
61
330
20
100
AcDbEntity
  8
100
  6
CONTINUOUS
100
AcDbLine
 10
-176.496028480846
 20
-372.2155236054176
 11
-171.0
 21
-372.2155236054176
  0
LINE
  5
62
330
20
100
AcDbEntity
  8
100
  6
CONTINUOUS
100
AcDbLine
 10
-176.496028480846
 20
-521.7155236054176
 11
-171.0
 21
-521.7155236054176
  0
LINE
  5
63
330
20
100
AcDbEntity
  8
100
  6
CONTINUOUS
100
AcDbLine
 10
169.0
 20
-372.2155236054176
 11
174.0
 21
-372.2155236054176
  0
LINE
  5
64
330
20
100
AcDbEntity
  8
100
  6
CONTINUOUS
100
AcDbLine
 10
169.0
 20
-521.7155236054176
 11
174.0
 21
-521.7155236054176
  0
ARC
  5
65
330
20
100
AcDbEntity
  8
100
  6
CONTINUOUS
100
AcDbCircle
 10
397.0000000000001
 20
-446.9655236054176
 40
157.0000000000001
100
AcDbArc
 50
343.3440404577565
 51
16.65595954224351
  0
ARC
  5
66
330
20
100
AcDbEntity
  8
100
  6
DASHED
100
AcDbCircle
 10
586.0000000000001
 20
-446.9655236054176
 40
150.0
100
AcDbArc
 50
162.5423968762779
 51
197.4576031237221
  0
ARC
  5
67
330
20
100
AcDbEntity
  8
100
  6
DASHED
100
AcDbCircle
 10
156.0
 20
-446.9655236054176
 40
150.0
100
AcDbArc
 50
342.5423968762779
 51
17.4576031237221
  0
LINE
  5
68
330
20
100
AcDbEntity
  8
100
  6
CONTINUOUS
100
AcDbLine
 10
189.0
 20
-401.9655236054176
 11
547.4127654157054
 21
-401.9655236054176
  0
ARC
  5
69
330
20
100
AcDbEntity
  8
100
  6
CONTINUOUS
100
AcDbCircle
 10
189.0
 20
-386.9655236054176
 40
15.0
100
AcDbArc
 50
180.0
 51
270.0
  0
LINE
  5
6A
330
20
100
AcDbEntity
  8
100
  6
CONTINUOUS
100
AcDbLine
 10
189.0
 20
-491.9655236054176
 11
547.4127654157054
 21
-491.9655236054176
  0
ARC
  5
6B
330
20
100
AcDbEntity
  8
100
  6
CONTINUOUS
100
AcDbCircle
 10
189.0
 20
-506.9655236054176
 40
15.0
100
AcDbArc
 50
90.0
 51
180.0
  0
LINE
  5
6C
330
20
100
AcDbEntity
  8
100
  6
CENTER
100
AcDbLine
 10
-594.9388742760679
 20
-446.9655236054176
 11
609.9987654294934
 21
-446.9655236054176
  0
ARC
  5
6D
330
20
100
AcDbEntity
  8
100
  6
CONTINUOUS
100
AcDbCircle
 10
174.496028480846
 20
94.75
 40
20.0
100
AcDbArc
 50
270.0
 51
327.6350128879878
  0
ARC
  5
6E
330
20
100
AcDbEntity
  8
100
  6
CONTINUOUS
100
AcDbCircle
 10
174.496028480846
 20
-94.75
 40
20.0
100
AcDbArc
 50
32.36498711201219
 51
90.0
  0
ARC
  5
6F
330
20
100
AcDbEntity
  8
100
  6
CONTINUOUS
100
AcDbCircle
 10
324.0
 20
0.0
 40
157.0
100
AcDbArc
 50
212.3649871120122
 51
247.4532352428234
  0
ARC
  5
70
330
20
100
AcDbEntity
  8
100
  6
CONTINUOUS
100
AcDbCircle
 10
324.0
 20
0.0
 40
157.0
100
AcDbArc
 50
112.5467647571766
 51
147.6350128879878
  0
ARC
  5
71
330
20
100
AcDbEntity
  8
100
  6
CONTINUOUS
100
AcDbCircle
 10
-326.0
 20
-446.9655236054176
 40
157.0
100
AcDbArc
 50
292.5467647571766
 51
327.6350128879878
  0
ARC
  5
72
330
20
100
AcDbEntity
  8
100
  6
CONTINUOUS
100
AcDbCircle
 10
-326.0
 20
-446.9655236054176
 40
157.0
100
AcDbArc
 50
32.36498711201218
 51
67.4532352428234
  0
ARC
  5
73
330
20
100
AcDbEntity
  8
100
  6
CONTINUOUS
100
AcDbCircle
 10
-176.496028480846
 20
-352.2155236054176
 40
20.0
100
AcDbArc
 50
212.3649871120122
 51
270.0
  0
ARC
  5
74
330
20
100
AcDbEntity
  8
100
  6
CONTINUOUS
100
AcDbCircle
 10
-176.496028480846
 20
-541.7155236054176
 40
20.0
100
AcDbArc
 50
90.0
 51
147.635012887988
  0
LINE
  5
75
330
20
100
AcDbEntity
  8
100
  6
CONTINUOUS
100
AcDbLine
 10
316.0
 20
-316.9655236054176
 11
436.0
 21
-316.9655236054176
  0
LINE
  5
76
330
20
100
AcDbEntity
  8
100
  6
CONTINUOUS
100
AcDbLine
 10
316.0
 20
-576.9655236054176
 11
436.0
 21
-576.9655236054176
  0
LINE
  5
77
330
20
100
AcDbEntity
  8
100
  6
CONTINUOUS
100
AcDbLine
 10
311.0
 20
-571.9655236054176
 11
311.0
 21
-494.9655236054176
  0
LINE
  5
78
330
20
100
AcDbEntity
  8
100
  6
CONTINUOUS
100
AcDbLine
 10
311.0
 20
-398.9655236054176
 11
311.0
 21
-321.9655236054176
  0
LINE
  5
79
330
20
100
AcDbEntity
  8
100
  6
CONTINUOUS
100
AcDbLine
 10
425.0
 20
-334.9655236054176
 11
441.0
 21
-334.9655236054176
  0
LINE
  5
7A
330
20
100
AcDbEntity
  8
100
  6
CONTINUOUS
100
AcDbLine
 10
425.0
 20
-346.9655236054176
 11
441.0
 21
-346.9655236054176
  0
LINE
  5
7B
330
20
100
AcDbEntity
  8
100
  6
CONTINUOUS
100
AcDbLine
 10
425.0
 20
-558.9655236054176
 11
441.0
 21
-558.9655236054176
  0
LINE
  5
7C
330
20
100
AcDbEntity
  8
100
  6
CONTINUOUS
100
AcDbLine
 10
425.0
 20
-546.9655236054176
 11
441.0
 21
-546.9655236054176
  0
LINE
  5
7D
330
20
100
AcDbEntity
  8
100
  6
CONTINUOUS
100
AcDbLine
 10
441.0
 20
-571.9655236054176
 11
441.0
 21
-558.9655236054176
  0
LINE
  5
7E
330
20
100
AcDbEntity
  8
100
  6
CONTINUOUS
100
AcDbLine
 10
441.0
 20
-546.9655236054176
 11
441.0
 21
-494.9655236054176
  0
LINE
  5
7F
330
20
100
AcDbEntity
  8
100
  6
CONTINUOUS
100
AcDbLine
 10
441.0
 20
-398.9655236054176
 11
441.0
 21
-346.9655236054176
  0
LINE
  5
80
330
20
100
AcDbEntity
  8
100
  6
CONTINUOUS
100
AcDbLine
 10
441.0
 20
-334.9655236054176
 11
441.0
 21
-321.9655236054176
  0
LINE
  5
81
330
20
100
AcDbEntity
  8
100
  6
CONTINUOUS
100
AcDbLine
 10
425.0
 20
-558.9655236054176
 11
425.0
 21
-546.9655236054176
  0
LINE
  5
82
330
20
100
AcDbEntity
  8
100
  6
CONTINUOUS
100
AcDbLine
 10
425.0
 20
-346.9655236054176
 11
425.0
 21
-334.9655236054176
  0
ARC
  5
83
330
20
100
AcDbEntity
  8
100
  6
CONTINUOUS
100
AcDbCircle
 10
106.5592995511902
 20
-446.9655236054176
 40
210.0
100
AcDbArc
 50
346.7870196398415
 51
347.6263748838114
  0
ARC
  5
84
330
20
100
AcDbEntity
  8
100
  6
DASHED
100
AcDbCircle
 10
106.5592995511902
 20
-446.9655236054176
 40
210.0
100
AcDbArc
 50
347.6263748838114
 51
12.37362511618856
  0
ARC
  5
85
330
20
100
AcDbEntity
  8
100
  6
CONTINUOUS
100
AcDbCircle
 10
106.5592995511902
 20
-446.9655236054176
 40
210.0
100
AcDbArc
 50
12.37362511618856
 51
13.21298036015858
  0
ARC
  5
86
330
20
100
AcDbEntity
  8
100
  6
CONTINUOUS
100
AcDbCircle
 10
645.4407004488098
 20
-446.9655236054176
 40
210.0
100
AcDbArc
 50
192.3736251161886
 51
193.2129803601586
  0
ARC
  5
87
330
20
100
AcDbEntity
  8
100
  6
DASHED
100
AcDbCircle
 10
645.4407004488098
 20
-446.9655236054176
 40
210.0
100
AcDbArc
 50
167.6263748838115
 51
192.3736251161886
  0
ARC
  5
88
330
20
100
AcDbEntity
  8
100
  6
CONTINUOUS
100
AcDbCircle
 10
645.4407004488098
 20
-446.9655236054176
 40
210.0
100
AcDbArc
 50
166.7870196398414
 51
167.6263748838115
  0
LINE
  5
89
330
20
100
AcDbEntity
  8
100
  6
CONTINUOUS
100
AcDbLine
 10
-23.0
 20
-340.9655236054176
 11
-23.0
 21
-275.9655236054176
  0
LINE
  5
8A
330
20
100
AcDbEntity
  8
100
  6
CONTINUOUS
100
AcDbLine
 10
21.0
 20
-340.9655236054176
 11
21.0
 21
-275.9655236054176
  0
LINE
  5
8B
330
20
100
AcDbEntity
  8
100
  6
CONTINUOUS
100
AcDbLine
 10
-23.0
 20
-340.9655236054176
 11
21.0
 21
-340.9655236054176
  0
LINE
  5
8C
330
20
100
AcDbEntity
  8
100
  6
CONTINUOUS
100
AcDbLine
 10
-23.0
 20
-281.9655236054176
 11
21.0
 21
-281.9655236054176
  0
LINE
  5
8D
330
20
100
AcDbEntity
  8
100
  6
CONTINUOUS
100
AcDbLine
 10
-23.0
 20
-275.9655236054176
 11
21.0
 21
-275.9655236054176
  0
LINE
  5
8E
330
20
100
AcDbEntity
  8
100
  6
CONTINUOUS
100
AcDbLine
 10
311.0
 20
-321.9655236054176
 11
316.0
 21
-316.9655236054176
  0
LINE
  5
8F
330
20
100
AcDbEntity
  8
100
  6
CONTINUOUS
100
AcDbLine
 10
436.0
 20
-316.9655236054176
 11
441.0
 21
-321.9655236054176
  0
LINE
  5
90
330
20
100
AcDbEntity
  8
100
  6
CONTINUOUS
100
AcDbLine
 10
311.0
 20
-571.9655236054176
 11
316.0
 21
-576.9655236054176
  0
LINE
  5
91
330
20
100
AcDbEntity
  8
100
  6
CONTINUOUS
100
AcDbLine
 10
436.0
 20
-576.9655236054176
 11
441.0
 21
-571.9655236054176
  0
CIRCLE
  5
92
330
20
100
AcDbEntity
  8
100
  6
CONTINUOUS
100
AcDbCircle
 10
371.0000000000001
 20
0.0
 40
71.59119800000001
  0
CIRCLE
  5
93
330
20
100
AcDbEntity
  8
100
  6
CONTINUOUS
100
AcDbCircle
 10
-373.0
 20
-446.9655236054176
 40
71.59119800000001
  0
LINE
  5
94
330
20
100
AcDbEntity
  8
100
  6
CENTER
100
AcDbLine
 10
376.0
 20
-100.0517261402027
 11
376.0
 21
100.3732910156249
  0
LINE
  5
95
330
20
100
AcDbEntity
  8
100
  6
CENTER
100
AcDbLine
 10
-378.0000000000002
 20
-548.9571770745355
 11
-378.0000000000002
 21
-353.507248997044
  0
LINE
  5
96
330
20
100
AcDbEntity
  8
100
  6
CENTER
100
AcDbLine
 10
-378.0000000000002
 20
-95.78736407305749
 11
-378.0000000000002
 21
79.05148067989859
  0
LINE
  5
97
330
20
100
AcDbEntity
  8
100
  6
CONTINUOUS
100
AcDbLine
 10
-23.0
 20
-28.47368676539344
 11
-23.0
 21
27.52631323460662
  0
LINE
  5
98
330
20
100
AcDbEntity
  8
100
  6
CONTINUOUS
100
AcDbLine
 10
21.0
 20
-28.47368676539344
 11
21.0
 21
27.52631323460662
  0
LINE
  5
99
330
20
100
AcDbEntity
  8
100
  6
CONTINUOUS
100
AcDbLine
 10
-23.0
 20
-28.47368676539344
 11
21.0
 21
-28.47368676539344
  0
LINE
  5
9A
330
20
100
AcDbEntity
  8
100
  6
CONTINUOUS
100
AcDbLine
 10
13.0
 20
-275.9655236054176
 11
13.0
 21
-272.3655236054177
  0
LINE
  5
9B
330
20
100
AcDbEntity
  8
100
  6
CONTINUOUS
100
AcDbLine
 10
20.0
 20
-275.9655236054176
 11
20.0
 21
-272.3655236054177
  0
LINE
  5
9C
330
20
100
AcDbEntity
  8
100
  6
CONTINUOUS
100
AcDbLine
 10
13.39999999999998
 20
-271.9655236054176
 11
19.60000000000002
 21
-271.9655236054176
  0
ARC
  5
9D
330
20
100
AcDbEntity
  8
100
  6
CONTINUOUS
100
AcDbCircle
 10
13.39999999999998
 20
-272.3655236054177
 40
0.4000000000000004
100
AcDbArc
 50
90.0
 51
180.0
  0
ARC
  5
9E
330
20
100
AcDbEntity
  8
100
  6
CONTINUOUS
100
AcDbCircle
 10
19.60000000000002
 20
-272.3655236054177
 40
0.4000000000000057
100
AcDbArc
 50
0.0
 51
90.0
  0
LINE
  5
9F
330
20
100
AcDbEntity
  8
100
  6
CONTINUOUS
100
AcDbLine
 10
-21.60000000000002
 20
-271.9655236054176
 11
-15.39999999999998
 21
-271.9655236054176
  0
ARC
  5
A0
330
20
100
AcDbEntity
  8
100
  6
CONTINUOUS
100
AcDbCircle
 10
-15.39999999999998
 20
-272.3655236054177
 40
0.4000000000000057
100
AcDbArc
 50
0.0
 51
90.0
  0
LINE
  5
A1
330
20
100
AcDbEntity
  8
100
  6
CONTINUOUS
100
AcDbLine
 10
-15.0
 20
-275.9655236054176
 11
-15.0
 21
-272.3655236054177
  0
ARC
  5
A2
330
20
100
AcDbEntity
  8
100
  6
CONTINUOUS
100
AcDbCircle
 10
-21.60000000000002
 20
-272.3655236054177
 40
0.4000000000000004
100
AcDbArc
 50
90.0
 51
180.0
  0
LINE
  5
A3
330
20
100
AcDbEntity
  8
100
  6
CONTINUOUS
100
AcDbLine
 10
-22.0
 20
-275.9655236054176
 11
-22.0
 21
-272.3655236054177
  0
CIRCLE
  5
A4
330
20
100
AcDbEntity
  8
100
  6
CONTINUOUS
100
AcDbCircle
 10
16.5
 20
-23.47368676539344
 40
3.5
  0
LINE
  5
A5
330
20
100
AcDbEntity
  8
100
  6
CONTINUOUS
100
AcDbLine
 10
18.0
 20
-24.33971216917786
 11
18.0
 21
-22.60766136160902
  0
LINE
  5
A6
330
20
100
AcDbEntity
  8
100
  6
CONTINUOUS
100
AcDbLine
 10
15.0
 20
-24.33971216917786
 11
15.0
 21
-22.60766136160902
  0
LINE
  5
A7
330
20
100
AcDbEntity
  8
100
  6
CONTINUOUS
100
AcDbLine
 10
16.5
 20
-21.74163595782454
 11
15.0
 21
-22.60766136160902
  0
LINE
  5
A8
330
20
100
AcDbEntity
  8
100
  6
CONTINUOUS
100
AcDbLine
 10
18.0
 20
-24.33971216917786
 11
16.5
 21
-25.20573757296234
  0
LINE
  5
A9
330
20
100
AcDbEntity
  8
100
  6
CONTINUOUS
100
AcDbLine
 10
16.5
 20
-21.74163595782454
 11
18.0
 21
-22.60766136160902
  0
LINE
  5
AA
330
20
100
AcDbEntity
  8
100
  6
CONTINUOUS
100
AcDbLine
 10
15.0
 20
-24.33971216917786
 11
16.5
 21
-25.20573757296234
  0
CIRCLE
  5
AB
330
20
100
AcDbEntity
  8
100
  6
CONTINUOUS
100
AcDbCircle
 10
16.5
 20
22.52631323460662
 40
3.5
  0
LINE
  5
AC
330
20
100
AcDbEntity
  8
100
  6
CONTINUOUS
100
AcDbLine
 10
18.0
 20
23.39233863839104
 11
18.0
 21
21.66028783082209
  0
LINE
  5
AD
330
20
100
AcDbEntity
  8
100
  6
CONTINUOUS
100
AcDbLine
 10
18.0
 20
23.39233863839104
 11
16.5
 21
24.25836404217546
  0
LINE
  5
AE
330
20
100
AcDbEntity
  8
100
  6
CONTINUOUS
100
AcDbLine
 10
15.0
 20
23.39233863839104
 11
16.5
 21
24.25836404217546
  0
LINE
  5
AF
330
20
100
AcDbEntity
  8
100
  6
CONTINUOUS
100
AcDbLine
 10
15.0
 20
23.39233863839104
 11
15.0
 21
21.66028783082209
  0
LINE
  5
B0
330
20
100
AcDbEntity
  8
100
  6
CONTINUOUS
100
AcDbLine
 10
16.5
 20
20.79426242703767
 11
15.0
 21
21.66028783082209
  0
LINE
  5
B1
330
20
100
AcDbEntity
  8
100
  6
CONTINUOUS
100
AcDbLine
 10
16.5
 20
20.79426242703767
 11
18.0
 21
21.66028783082209
  0
CIRCLE
  5
B2
330
20
100
AcDbEntity
  8
100
  6
CONTINUOUS
100
AcDbCircle
 10
-18.5
 20
22.52631323460662
 40
3.5
  0
LINE
  5
B3
330
20
100
AcDbEntity
  8
100
  6
CONTINUOUS
100
AcDbLine
 10
-20.0
 20
23.39233863839104
 11
-20.0
 21
21.66028783082209
  0
LINE
  5
B4
330
20
100
AcDbEntity
  8
100
  6
CONTINUOUS
100
AcDbLine
 10
-20.0
 20
23.39233863839104
 11
-18.5
 21
24.25836404217546
  0
LINE
  5
B5
330
20
100
AcDbEntity
  8
100
  6
CONTINUOUS
100
AcDbLine
 10
-17.0
 20
23.39233863839104
 11
-18.5
 21
24.25836404217546
  0
LINE
  5
B6
330
20
100
AcDbEntity
  8
100
  6
CONTINUOUS
100
AcDbLine
 10
-17.0
 20
23.39233863839104
 11
-17.0
 21
21.66028783082209
  0
LINE
  5
B7
330
20
100
AcDbEntity
  8
100
  6
CONTINUOUS
100
AcDbLine
 10
-18.5
 20
20.79426242703767
 11
-17.0
 21
21.66028783082209
  0
LINE
  5
B8
330
20
100
AcDbEntity
  8
100
  6
CONTINUOUS
100
AcDbLine
 10
-18.5
 20
20.79426242703767
 11
-20.0
 21
21.66028783082209
  0
CIRCLE
  5
B9
330
20
100
AcDbEntity
  8
100
  6
CONTINUOUS
100
AcDbCircle
 10
-18.5
 20
-23.47368676539344
 40
3.5
  0
LINE
  5
BA
330
20
100
AcDbEntity
  8
100
  6
CONTINUOUS
100
AcDbLine
 10
-20.0
 20
-24.33971216917786
 11
-20.0
 21
-22.60766136160902
  0
LINE
  5
BB
330
20
100
AcDbEntity
  8
100
  6
CONTINUOUS
100
AcDbLine
 10
-20.0
 20
-24.33971216917786
 11
-18.5
 21
-25.20573757296234
  0
LINE
  5
BC
330
20
100
AcDbEntity
  8
100
  6
CONTINUOUS
100
AcDbLine
 10
-17.0
 20
-24.33971216917786
 11
-18.5
 21
-25.20573757296234
  0
LINE
  5
BD
330
20
100
AcDbEntity
  8
100
  6
CONTINUOUS
100
AcDbLine
 10
-17.0
 20
-24.33971216917786
 11
-17.0
 21
-22.60766136160902
  0
LINE
  5
BE
330
20
100
AcDbEntity
  8
100
  6
CONTINUOUS
100
AcDbLine
 10
-18.5
 20
-21.74163595782454
 11
-17.0
 21
-22.60766136160902
  0
LINE
  5
BF
330
20
100
AcDbEntity
  8
100
  6
CONTINUOUS
100
AcDbLine
 10
-18.5
 20
-21.74163595782454
 11
-20.0
 21
-22.60766136160902
  0
ENDSEC
  0
SECTION
  2
OBJECTS
  0
DICTIONARY
  5
C
100
AcDbDictionary
281
     1
  3
ACAD_GROUP
350
D
  3
ACAD_MLINESTYLE
350
E
  3
ACDBVARIABLEDICTIONARY
350
C0
  3
ACAD_PLOTSTYLENAME
350
C1
  3
ACAD_LAYOUT
350
C2
  3
ACAD_PLOTSETTINGS
350
C3
  0
DICTIONARY
  5
D
102
{ACAD_REACTORS
330
C
102
}
330
C
100
AcDbDictionary
281
     1
  0
DICTIONARY
  5
E
102
{ACAD_REACTORS
330
C
102
}
330
C
100
AcDbDictionary
281
     1
  3
STANDARD
350
13
  0
DICTIONARY
  5
C0
102
{ACAD_REACTORS
330
C
102
}
330
C
100
AcDbDictionary
281
     1
  3
SORTENTS
350
C4
  0
ACDBDICTIONARYWDFLT
  5
C1
102
{ACAD_REACTORS
330
C
102
}
330
C
100
AcDbDictionary
281
     1
  3
Normal
350
C5
100
AcDbDictionaryWithDefault
340
C5
  0
DICTIONARY
  5
C2
102
{ACAD_REACTORS
330
C
102
}
330
C
100
AcDbDictionary
281
     1
  3
Model
350
C6
  0
DICTIONARY
  5
C3
102
{ACAD_REACTORS
330
C
102
}
330
C
100
AcDbDictionary
281
     1
  0
MLINESTYLE
  5
13
102
{ACAD_REACTORS
330
E
102
}
330
E
100
AcDbMlineStyle
  2
STANDARD
 70
     0
  3

 62
   256
 51
90.0
 52
90.0
 71
     2
 49
0.5
 62
   256
  6
BYLAYER
 49
-0.5
 62
   256
  6
BYLAYER
  0
DICTIONARYVAR
  5
C4
102
{ACAD_REACTORS
330
C0
102
}
330
C0
100
DictionaryVariables
280
     0
  1
96
  0
ACDBPLACEHOLDER
  5
C5
102
{ACAD_REACTORS
330
C1
102
}
330
C1
  0
LAYOUT
  5
C6
102
{ACAD_REACTORS
330
C2
102
}
330
C2
100
AcDbPlotSettings
  1

  2

  4

  6

 40
0.0
 41
0.0
 42
0.0
 43
0.0
 44
0.0
 45
0.0
 46
0.0
 47
0.0
 48
0.0
 49
0.0
140
0.0
141
0.0
142
1.0
143
1.0
 70
  1712
 72
     0
 73
     0
 74
     0
  7

 75
     0
147
1.0
148
0.0
149
0.0
100
AcDbLayout
  1
Model
 70
     1
 71
     0
 10
0.0
 20
0.0
 11
297.0
 21
210.0
 12
0.0
 22
0.0
 32
0.0
 14
0.0
 24
0.0
 34
0.0
 15
0.0
 25
0.0
 35
0.0
146
0.0
 13
0.0
 23
0.0
 33
0.0
 16
1.0
 26
0.0
 36
0.0
 17
0.0
 27
1.0
 37
0.0
 76
     0
330
20
  0
ENDSEC
  0
EOF
