  0
SECTION
  2
HEADER
  9
$ACADVER
  1
AC1015
  9
$ACADMAINTVER
 70
     0
  9
$DWGCODEPAGE
  3
ANSI_932
  9
$INSBASE
 10
0.0
 20
0.0
 30
0.0
  9
$EXTMIN
 10
-237.0815635378187
 20
-290.2150659647074
  9
$EXTMAX
 10
241.6555502810481
 20
272.3368291055452
  9
$LIMMIN
 10
-237.0815635378187
 20
-290.2150659647074
  9
$LIMMAX
 10
241.6555502810481
 20
272.3368291055452
  9
$ORTHOMODE
 70
     0
  9
$REGENMODE
 70
     1
  9
$FILLMODE
 70
     1
  9
$QTEXTMODE
 70
     0
  9
$MIRRTEXT
 70
     1
  9
$LTSCALE
 40
1.0
  9
$OSMODE
 70
     0
  9
$ATTMODE
 70
     1
  9
$TEXTSIZE
 40
3.0
  9
$TRACEWID
 40
0.5
  9
$TEXTSTYLE
  7
STANDARD
  9
$CLAYER
  8
0
  9
$CELTYPE
  6
BYLAYER
  9
$CECOLOR
 62
   256
  9
$CELTSCALE
 40
1.0
  9
$DISPSILH
 70
     0
  9
$DIMSCALE
 40
1.0
  9
$DIMASZ
 40
3.0
  9
$DIMEXO
 40
1.0
  9
$DIMDLI
 40
5.0
  9
$DIMRND
 40
0.0
  9
$DIMDLE
 40
5.0
  9
$DIMEXE
 40
2.0
  9
$DIMTP
 40
0.0
  9
$DIMTM
 40
0.0
  9
$DIMTXT
 40
3.0
  9
$DIMCEN
 40
2.0
  9
$DIMTSZ
 40
0.0
  9
$DIMTOL
 70
     0
  9
$DIMLIM
 70
     0
  9
$DIMTIH
 70
     0
  9
$DIMTOH
 70
     0
  9
$DIMSE1
 70
     0
  9
$DIMSE2
 70
     0
  9
$DIMTAD
 70
     1
  9
$DIMZIN
 70
     8
  9
$DIMBLK
  1

  9
$DIMASO
 70
     1
  9
$DIMSHO
 70
     1
  9
$DIMPOST
  1

  9
$DIMAPOST
  1

  9
$DIMALT
 70
     0
  9
$DIMALTD
 70
     0
  9
$DIMALTF
 40
25.4
  9
$DIMLFAC
 40
1.0
  9
$DIMTOFL
 70
     1
  9
$DIMTVP
 40
1.0
  9
$DIMTIX
 70
     0
  9
$DIMSOXD
 70
     0
  9
$DIMSAH
 70
     0
  9
$DIMBLK1
  1

  9
$DIMBLK2
  1

  9
$DIMSTYLE
  2
ISO-25
  9
$DIMCLRD
 70
     0
  9
$DIMCLRE
 70
     0
  9
$DIMCLRT
 70
     0
  9
$DIMTFAC
 40
1.0
  9
$DIMGAP
 40
1.0
  9
$DIMJUST
 70
     0
  9
$DIMSD1
 70
     0
  9
$DIMSD2
 70
     0
  9
$DIMTOLJ
 70
     0
  9
$DIMTZIN
 70
     8
  9
$DIMALTZ
 70
     0
  9
$DIMALTTZ
 70
     0
  9
$DIMUPT
 70
     0
  9
$DIMDEC
 70
     2
  9
$DIMTDEC
 70
     2
  9
$DIMALTU
 70
     2
  9
$DIMALTTD
 70
     3
  9
$DIMTXSTY
  7
STANDARD
  9
$DIMAUNIT
 70
     0
  9
$DIMADEC
 70
     0
  9
$DIMALTRND
 40
0.0
  9
$DIMAZIN
 70
     0
  9
$DIMDSEP
 70
    46
  9
$DIMATFIT
 70
     3
  9
$DIMFRAC
 70
     0
  9
$DIMLDRBLK
  1

  9
$DIMLUNIT
 70
     2
  9
$DIMLWD
 70
    -2
  9
$DIMLWE
 70
    -2
  9
$DIMTMOVE
 70
     0
  9
$LUNITS
 70
     2
  9
$LUPREC
 70
     4
  9
$SKETCHINC
 40
1.0
  9
$FILLETRAD
 40
0.0
  9
$AUNITS
 70
     0
  9
$AUPREC
 70
     0
  9
$MENU
  1
.
  9
$ELEVATION
 40
0.0
  9
$PELEVATION
 40
0.0
  9
$THICKNESS
 40
0.0
  9
$LIMCHECK
 70
     0
  9
$CHAMFERA
 40
0.0
  9
$CHAMFERB
 40
0.0
  9
$CHAMFERC
 40
0.0
  9
$CHAMFERD
 40
0.0
  9
$SKPOLY
 70
     0
  9
$TDCREATE
 40
2454085.65443287
  9
$TDUCREATE
 40
2454085.65443287
  9
$TDUPDATE
 40
2454085.65443287
  9
$TDUUPDATE
 40
2454085.65443287
  9
$TDINDWG
 40
0.0
  9
$TDUSRTIMER
 40
0.0
  9
$USRTIMER
 70
     1
  9
$ANGBASE
 50
0.0
  9
$ANGDIR
 70
     0
  9
$PDMODE
 70
     0
  9
$PDSIZE
 40
0.0
  9
$PLINEWID
 40
0.0
  9
$SPLFRAME
 70
     0
  9
$SPLINETYPE
 70
     6
  9
$SPLINESEGS
 70
     8
  9
$HANDSEED
  5
DE
  9
$SURFTAB1
 70
     6
  9
$SURFTAB2
 70
     6
  9
$SURFTYPE
 70
     6
  9
$SURFU
 70
     6
  9
$SURFV
 70
     6
  9
$UCSBASE
  2

  9
$UCSNAME
  2

  9
$UCSORG
 10
0.0
 20
0.0
 30
0.0
  9
$UCSXDIR
 10
1.0
 20
0.0
 30
0.0
  9
$UCSYDIR
 10
0.0
 20
1.0
 30
0.0
  9
$UCSORTHOREF
  2

  9
$UCSORTHOVIEW
 70
     0
  9
$UCSORGTOP
 10
0.0
 20
0.0
 30
0.0
  9
$UCSORGBOTTOM
 10
0.0
 20
0.0
 30
0.0
  9
$UCSORGLEFT
 10
0.0
 20
0.0
 30
0.0
  9
$UCSORGRIGHT
 10
0.0
 20
0.0
 30
0.0
  9
$UCSORGFRONT
 10
0.0
 20
0.0
 30
0.0
  9
$UCSORGBACK
 10
0.0
 20
0.0
 30
0.0
  9
$PUCSBASE
  2

  9
$PUCSNAME
  2

  9
$PUCSORG
 10
0.0
 20
0.0
 30
0.0
  9
$PUCSXDIR
 10
1.0
 20
0.0
 30
0.0
  9
$PUCSYDIR
 10
0.0
 20
1.0
 30
0.0
  9
$PUCSORTHOREF
  2

  9
$PUCSORTHOVIEW
 70
     0
  9
$PUCSORGTOP
 10
0.0
 20
0.0
 30
0.0
  9
$PUCSORGBOTTOM
 10
0.0
 20
0.0
 30
0.0
  9
$PUCSORGLEFT
 10
0.0
 20
0.0
 30
0.0
  9
$PUCSORGRIGHT
 10
0.0
 20
0.0
 30
0.0
  9
$PUCSORGFRONT
 10
0.0
 20
0.0
 30
0.0
  9
$PUCSORGBACK
 10
0.0
 20
0.0
 30
0.0
  9
$USERI1
 70
     0
  9
$USERI2
 70
     0
  9
$USERI3
 70
     0
  9
$USERI4
 70
     0
  9
$USERI5
 70
     0
  9
$USERR1
 40
0.0
  9
$USERR2
 40
0.0
  9
$USERR3
 40
0.0
  9
$USERR4
 40
0.0
  9
$USERR5
 40
0.0
  9
$WORLDVIEW
 70
     1
  9
$SHADEDGE
 70
     3
  9
$SHADEDIF
 70
    70
  9
$MAXACTVP
 70
    16
  9
$PINSBASE
 10
0.0
 20
0.0
 30
0.0
  9
$PLIMCHECK
 70
     0
  9
$PEXTMIN
 10
1.000000E+20
 20
1.000000E+20
 30
1.000000E+20
  9
$PEXTMAX
 10
-1.000000E+20
 20
-1.000000E+20
 30
-1.000000E+20
  9
$PLIMMIN
 10
-237.0815635378187
 20
-290.2150659647074
  9
$PLIMMAX
 10
241.6555502810481
 20
272.3368291055452
  9
$UNITMODE
 70
     0
  9
$VISRETAIN
 70
     0
  9
$PLINEGEN
 70
     0
  9
$PSLTSCALE
 70
     0
  9
$TREEDEPTH
 70
  3020
  9
$CMLSTYLE
  2
STANDARD
  9
$CMLJUST
 70
     0
  9
$CMLSCALE
 40
1.0
  9
$PROXYGRAPHICS
 70
     1
  9
$MEASUREMENT
 70
     0
  9
$CELWEIGHT
370
    -3
  9
$ENDCAPS
280
     0
  9
$JOINSTYLE
280
     0
  9
$LWDISPLAY
290
     1
  9
$INSUNITS
 70
     0
  9
$HYPERLINKBASE
  1

  9
$STYLESHEET
  1

  9
$XEDIT
290
     1
  9
$CEPSNTYPE
380
     0
  9
$PSTYLEMODE
290
     1
  9
$FINGERPRINTGUID
  2
{6F25CFC2-5053-11D3-9BE9-00805F4AB38E}
  9
$VERSIONGUID
  2
{6F25CFC5-5053-11D3-9BE9-00805F4AB38E}
  9
$EXTNAMES
290
     1
  9
$PSVPSCALE
 40
0.0
  9
$OLESTARTUP
290
     0
  0
ENDSEC
  0
SECTION
  2
CLASSES
  0
CLASS
  1
LWPOLYLINE
  2
AcDbPolyline
  3
AutoCAD 2000
 90
    32768
280
     0
281
     1
  0
CLASS
  1
DICTIONARYVAR
  2
AcDbDictionaryVar
  3
AutoCAD 2000
 90
        0
280
     0
281
     1
  0
CLASS
  1
ACDBDICTIONARYWDFLT
  2
AcDbDictionaryWithDefault
  3
AutoCAD 2000
 90
        0
280
     0
281
     1
  0
CLASS
  1
ACDBPLACEHOLDER
  2
AcDbPlaceHolder
  3
AutoCAD 2000
 90
        0
280
     0
281
     1
  0
CLASS
  1
LAYOUT
  2
AcDbLayout
  3
AutoCAD 2000
 90
        0
280
     0
281
     1
  0
CLASS
  1
HATCH
  2
AcDbHatch
  3
AutoCAD 2000
 90
        0
280
     0
281
     1
  0
ENDSEC
  0
SECTION
  2
TABLES
  0
TABLE
  2
VPORT
  5
8
100
AcDbSymbolTable
 70
     1
  0
VPORT
  5
D3
330
0
100
AcDbSymbolTableRecord
100
AcDbViewportTableRecord
  2
*ACTIVE
 70
     0
 10
0.0
 20
0.0
 11
1.0
 21
1.0
 12
2.286993371614685
 22
-8.939118429581129
 13
0.0
 23
0.0
 14
0.0
 24
0.0
 15
0.0
 25
0.0
 16
0.0
 26
0.0
 36
1.0
 17
0.0
 27
0.0
 37
0.0
 40
562.5518950702526
 41
1.5
 42
50.0
 43
0.0
 44
0.0
 50
0.0
 51
0.0
 71
     0
 72
   100
 73
     1
 74
     1
 75
     0
 76
     0
 77
     0
 78
     0
281
     0
 65
     1
110
0.0
120
0.0
130
0.0
111
1.0
121
0.0
131
0.0
112
0.0
122
1.0
132
0.0
 79
     0
146
0.0
  0
ENDTAB
  0
TABLE
  2
LTYPE
  5
5
330
0
100
AcDbSymbolTable
 70
    20
  0
LTYPE
  5
D4
330
5
100
AcDbSymbolTableRecord
100
AcDbLinetypeTableRecord
  2
BYBLOCK
 70
     0
  3

 72
    65
 73
     0
 40
0.0
  0
LTYPE
  5
D5
330
5
100
AcDbSymbolTableRecord
100
AcDbLinetypeTableRecord
  2
BYLAYER
 70
     0
  3

 72
    65
 73
     0
 40
0.0
  0
LTYPE
  5
D6
330
5
100
AcDbSymbolTableRecord
100
AcDbLinetypeTableRecord
  2
CONTINUOUS
 70
    64
  3
solid line
 72
    65
 73
     0
 40
0.0
  0
LTYPE
  5
D7
330
0
100
AcDbSymbolTableRecord
100
AcDbLinetypeTableRecord
  2
DASHED
 70
    64
  3
-- -- -- -- -- -- -- -- -- -- 
 72
    65
 73
     2
 40
6.0
 49
4.0
 74
     0
 49
-2.0
 74
     0
  0
LTYPE
  5
D8
330
0
100
AcDbSymbolTableRecord
100
AcDbLinetypeTableRecord
  2
CENTER
 70
    64
  3
--- - --- - --- - --- - --- - 
 72
    65
 73
     4
 40
12.0
 49
6.0
 74
     0
 49
-2.0
 74
     0
 49
2.0
 74
     0
 49
-2.0
 74
     0
  0
ENDTAB
  0
TABLE
  2
LAYER
  5
2
330
0
100
AcDbSymbolTable
 70
    20
  0
LAYER
  5
D9
330
2
100
AcDbSymbolTableRecord
100
AcDbLayerTableRecord
  2
0
 70
    64
 62
     7
  6
CONTINUOUS
370
    -3
390
CF
  0
LAYER
  5
25
330
2
100
AcDbSymbolTableRecord
100
AcDbLayerTableRecord
  2
100
 70
    64
 62
     7
  6
CONTINUOUS
370
    -3
390
CF
  0
ENDTAB
  0
TABLE
  2
STYLE
  5
3
330
0
100
AcDbSymbolTable
 70
     4
  0
STYLE
  5
DA
330
3
100
AcDbSymbolTableRecord
100
AcDbTextStyleTableRecord
  2
STANDARD
 70
    64
 40
0.0
 41
1.052631578947368
 50
0.0
 71
     0
 42
6.0
  3
monotxt
  4

  0
ENDTAB
  0
TABLE
  2
VIEW
  5
6
330
0
100
AcDbSymbolTable
 70
     0
  0
ENDTAB
  0
TABLE
  2
UCS
  5
7
330
0
100
AcDbSymbolTable
 70
     0
  0
ENDTAB
  0
TABLE
  2
APPID
  5
9
330
0
100
AcDbSymbolTable
 70
     1
  0
APPID
  5
DB
330
9
100
AcDbSymbolTableRecord
100
AcDbRegAppTableRecord
  2
ACAD
 70
     0
  0
ENDTAB
  0
TABLE
  2
DIMSTYLE
  5
A
330
0
100
AcDbSymbolTable
 70
     8
100
AcDbDimStyleTable
 71
     0
  0
DIMSTYLE
105
DC
330
A
100
AcDbSymbolTableRecord
100
AcDbDimStyleTableRecord
  2
ISO-25
 70
     0
  3

  4

  5

  6

  7

 40
1.0
 41
3.0
 42
1.0
 43
5.0
 44
2.0
 45
0.0
 46
5.0
 47
0.0
 48
0.0
140
3.0
141
2.0
142
0.0
143
25.4
144
1.0
145
1.0
146
1.0
147
1.0
 71
     0
 72
     0
 73
     0
 74
     0
 75
     0
 76
     0
 77
     1
 78
     8
170
     0
171
     0
172
     1
173
     0
174
     0
175
     0
176
     0
177
     0
178
     0
270
     0
271
     2
272
     2
273
     2
274
     3
340
DA
275
     0
277
     2
280
     0
281
     0
282
     0
283
     0
284
     8
285
     0
286
     0
287
     3
288
     0
  0
DIMSTYLE
105
DD
330
A
100
AcDbSymbolTableRecord
100
AcDbDimStyleTableRecord
  2
ISO-25 0.5
 70
     0
  3

  4

  5

  6

  7

 40
1.0
 41
3.0
 42
1.0
 43
5.0
 44
2.0
 45
0.0
 46
5.0
 47
0.0
 48
0.0
140
3.0
141
2.0
142
0.0
143
25.4
144
2.0
145
1.0
146
1.0
147
1.0
 71
     0
 72
     0
 73
     0
 74
     0
 75
     0
 76
     0
 77
     1
 78
     8
170
     0
171
     0
172
     1
173
     0
174
     0
175
     0
176
     0
177
     0
178
     0
270
     0
271
     2
272
     2
273
     2
274
     3
340
DA
275
     0
277
     2
280
     0
281
     0
282
     0
283
     0
284
     8
285
     0
286
     0
287
     3
288
     0
  0
ENDTAB
  0
TABLE
  2
BLOCK_RECORD
  5
1
330
0
100
AcDbSymbolTable
 70
     2
  0
BLOCK_RECORD
  5
20
330
1
100
AcDbSymbolTableRecord
100
AcDbBlockTableRecord
  2
*MODEL_SPACE
340
D0
  0
BLOCK_RECORD
  5
22
330
1
100
AcDbSymbolTableRecord
100
AcDbBlockTableRecord
  2
*PAPER_SPACE
340
0
  0
ENDTAB
  0
ENDSEC
  0
SECTION
  2
BLOCKS
  0
BLOCK
  5
21
330
20
100
AcDbEntity
  8
0
100
AcDbBlockBegin
  2
*MODEL_SPACE
 70
     0
 10
0.0
 20
0.0
 30
0.0
  3
*MODEL_SPACE
  1

  0
ENDBLK
  5
D1
330
20
100
AcDbEntity
  8
0
100
AcDbBlockEnd
  0
BLOCK
  5
23
330
22
100
AcDbEntity
 67
     1
  8
0
100
AcDbBlockBegin
  2
*PAPER_SPACE
 70
     0
 10
0.0
 20
0.0
 30
0.0
  3
*PAPER_SPACE
  1

  0
ENDBLK
  5
D2
330
22
100
AcDbEntity
 67
     1
  8
0
100
AcDbBlockEnd
  0
ENDSEC
  0
SECTION
  2
ENTITIES
  0
LINE
  5
24
330
20
100
AcDbEntity
  8
100
  6
CONTINUOUS
100
AcDbLine
 10
60.0
 20
-208.2150659647074
 11
65.0
 21
-208.2150659647074
  0
LINE
  5
26
330
20
100
AcDbEntity
  8
100
  6
CONTINUOUS
100
AcDbLine
 10
60.0
 20
-266.2150659647074
 11
65.0
 21
-266.2150659647074
  0
LINE
  5
27
330
20
100
AcDbEntity
  8
100
  6
CONTINUOUS
100
AcDbLine
 10
-60.0
 20
-266.2150659647074
 11
-67.7506756806113
 21
-266.2150659647074
  0
LINE
  5
28
330
20
100
AcDbEntity
  8
100
  6
CONTINUOUS
100
AcDbLine
 10
-60.0
 20
-208.2150659647074
 11
-67.7506756806113
 21
-208.2150659647074
  0
LINE
  5
29
330
20
100
AcDbEntity
  8
100
  6
CONTINUOUS
100
AcDbLine
 10
65.0
 20
-266.2150659647074
 11
65.0
 21
-208.2150659647074
  0
LINE
  5
2A
330
20
100
AcDbEntity
  8
100
  6
CONTINUOUS
100
AcDbLine
 10
75.0
 20
-222.2150659647074
 11
212.7895571380184
 21
-222.2150659647074
  0
LINE
  5
2B
330
20
100
AcDbEntity
  8
100
  6
CONTINUOUS
100
AcDbLine
 10
75.0
 20
-252.2150659647074
 11
212.7895571380184
 21
-252.2150659647074
  0
ARC
  5
2C
330
20
100
AcDbEntity
  8
100
  6
CONTINUOUS
100
AcDbCircle
 10
75.0
 20
-212.2150659647074
 40
10.0
100
AcDbArc
 50
180.0
 51
270.0
  0
ARC
  5
2D
330
20
100
AcDbEntity
  8
100
  6
CONTINUOUS
100
AcDbCircle
 10
75.0
 20
-262.2150659647074
 40
10.0
100
AcDbArc
 50
90.0
 51
180.0
  0
ARC
  5
2E
330
20
100
AcDbEntity
  8
100
  6
CONTINUOUS
100
AcDbCircle
 10
163.0
 20
-237.2150659647074
 40
52.0
100
AcDbArc
 50
343.2341270273281
 51
16.76587297267188
  0
ARC
  5
2F
330
20
100
AcDbEntity
  8
100
  6
CONTINUOUS
100
AcDbCircle
 10
-163.0
 20
-237.2150659647074
 40
52.0
100
AcDbArc
 50
109.5572137354246
 51
250.4427862645754
  0
LINE
  5
30
330
20
100
AcDbEntity
  8
100
  6
CONTINUOUS
100
AcDbLine
 10
-180.4068951855292
 20
-188.2150659647074
 11
-96.59310481447079
 21
-188.2150659647074
  0
ARC
  5
31
330
20
100
AcDbEntity
  8
100
  6
CONTINUOUS
100
AcDbCircle
 10
-114.0
 20
-237.2150659647074
 40
52.0
100
AcDbArc
 50
37.11726346717916
 51
70.44278626457543
  0
ARC
  5
32
330
20
100
AcDbEntity
  8
100
  6
CONTINUOUS
100
AcDbCircle
 10
-67.7506756806113
 20
-202.2150659647074
 40
6.0
100
AcDbArc
 50
217.1172634671791
 51
270.0
  0
CIRCLE
  5
33
330
20
100
AcDbEntity
  8
100
  6
CONTINUOUS
100
AcDbCircle
 10
-159.0
 20
-237.2150659647074
 40
25.0
  0
LINE
  5
34
330
20
100
AcDbEntity
  8
100
  6
CONTINUOUS
100
AcDbLine
 10
-65.0
 20
-246.0468268310352
 11
-65.0
 21
-228.3833050983797
  0
ARC
  5
35
330
20
100
AcDbEntity
  8
100
  6
CONTINUOUS
100
AcDbCircle
 10
-67.7506756806113
 20
-272.2150659647074
 40
6.0
100
AcDbArc
 50
90.0
 51
142.8827365328211
  0
ARC
  5
36
330
20
100
AcDbEntity
  8
100
  6
CONTINUOUS
100
AcDbCircle
 10
-114.0
 20
-237.2150659647074
 40
52.0
100
AcDbArc
 50
289.5572137354246
 51
322.8827365328208
  0
LINE
  5
37
330
20
100
AcDbEntity
  8
100
  6
CONTINUOUS
100
AcDbLine
 10
-180.4068951855292
 20
-286.2150659647074
 11
-96.59310481447079
 21
-286.2150659647074
  0
CIRCLE
  5
38
330
20
100
AcDbEntity
  8
100
  6
CONTINUOUS
100
AcDbCircle
 10
-157.0
 20
-237.2150659647074
 40
28.3772233983162
  0
LINE
  5
39
330
20
100
AcDbEntity
  8
100
  6
CONTINUOUS
100
AcDbLine
 10
-60.0
 20
-187.2150659647074
 11
-22.0
 21
-187.2150659647074
  0
LINE
  5
3A
330
20
100
AcDbEntity
  8
100
  6
CONTINUOUS
100
AcDbLine
 10
22.0
 20
-187.2150659647074
 11
60.0
 21
-187.2150659647074
  0
LINE
  5
3B
330
20
100
AcDbEntity
  8
100
  6
CONTINUOUS
100
AcDbLine
 10
-60.0
 20
-287.2150659647074
 11
60.0
 21
-287.2150659647074
  0
LINE
  5
3C
330
20
100
AcDbEntity
  8
100
  6
CONTINUOUS
100
AcDbLine
 10
-65.0
 20
-266.2150659647074
 11
-65.0
 21
-208.2150659647074
  0
LINE
  5
3D
330
20
100
AcDbEntity
  8
100
  6
CONTINUOUS
100
AcDbLine
 10
65.0
 20
-266.2150659647074
 11
65.0
 21
-208.2150659647074
  0
LINE
  5
3E
330
20
100
AcDbEntity
  8
100
  6
CONTINUOUS
100
AcDbLine
 10
-50.0
 20
-287.2150659647074
 11
-50.0
 21
-187.2150659647074
  0
LINE
  5
3F
330
20
100
AcDbEntity
  8
100
  6
CONTINUOUS
100
AcDbLine
 10
50.0
 20
-287.2150659647074
 11
50.0
 21
-187.2150659647074
  0
LINE
  5
40
330
20
100
AcDbEntity
  8
100
  6
CONTINUOUS
100
AcDbLine
 10
60.0
 20
-287.2150659647074
 11
60.0
 21
-187.2150659647074
  0
LINE
  5
41
330
20
100
AcDbEntity
  8
100
  6
CONTINUOUS
100
AcDbLine
 10
-60.0
 20
-287.2150659647074
 11
-60.0
 21
-187.2150659647074
  0
LINE
  5
42
330
20
100
AcDbEntity
  8
100
  6
CONTINUOUS
100
AcDbLine
 10
-22.0
 20
-195.8150659647074
 11
-22.0
 21
-139.8150659647075
  0
LINE
  5
43
330
20
100
AcDbEntity
  8
100
  6
CONTINUOUS
100
AcDbLine
 10
22.0
 20
-195.8150659647074
 11
22.0
 21
-139.8150659647075
  0
LINE
  5
44
330
20
100
AcDbEntity
  8
100
  6
CONTINUOUS
100
AcDbLine
 10
-22.0
 20
-195.8150659647074
 11
22.0
 21
-195.8150659647074
  0
LINE
  5
45
330
20
100
AcDbEntity
  8
100
  6
CONTINUOUS
100
AcDbLine
 10
134.0
 20
-289.2150659647074
 11
134.0
 21
-253.2150659647074
  0
LINE
  5
46
330
20
100
AcDbEntity
  8
100
  6
CONTINUOUS
100
AcDbLine
 10
134.0
 20
-221.2150659647074
 11
134.0
 21
-185.2150659647074
  0
LINE
  5
47
330
20
100
AcDbEntity
  8
100
  6
CONTINUOUS
100
AcDbLine
 10
135.0
 20
-184.2150659647074
 11
183.0
 21
-184.2150659647074
  0
LINE
  5
48
330
20
100
AcDbEntity
  8
100
  6
CONTINUOUS
100
AcDbLine
 10
135.0
 20
-290.2150659647074
 11
183.0
 21
-290.2150659647074
  0
ARC
  5
49
330
20
100
AcDbEntity
  8
100
  6
CONTINUOUS
100
AcDbCircle
 10
229.2548339959391
 20
-237.2150659647074
 40
48.00000000000002
100
AcDbArc
 50
198.209956864283
 51
199.4712206344907
  0
ARC
  5
4A
330
20
100
AcDbEntity
  8
100
  6
DASHED
100
AcDbCircle
 10
229.2548339959391
 20
-237.2150659647074
 40
48.00000000000004
100
AcDbArc
 50
161.790043135717
 51
198.209956864283
  0
ARC
  5
4B
330
20
100
AcDbEntity
  8
100
  6
CONTINUOUS
100
AcDbCircle
 10
229.2548339959391
 20
-237.2150659647074
 40
48.00000000000001
100
AcDbArc
 50
160.5287793655093
 51
161.790043135717
  0
ARC
  5
4C
330
20
100
AcDbEntity
  8
100
  6
CONTINUOUS
100
AcDbCircle
 10
88.74516600406093
 20
-237.2150659647074
 40
48.00000000000002
100
AcDbArc
 50
340.5287793655093
 51
341.790043135717
  0
ARC
  5
4D
330
20
100
AcDbEntity
  8
100
  6
DASHED
100
AcDbCircle
 10
88.74516600406093
 20
-237.2150659647074
 40
48.00000000000004
100
AcDbArc
 50
341.790043135717
 51
18.209956864283
  0
ARC
  5
4E
330
20
100
AcDbEntity
  8
100
  6
CONTINUOUS
100
AcDbCircle
 10
88.74516600406093
 20
-237.2150659647074
 40
48.00000000000001
100
AcDbArc
 50
18.209956864283
 51
19.47122063449068
  0
LINE
  5
4F
330
20
100
AcDbEntity
  8
100
  6
CONTINUOUS
100
AcDbLine
 10
176.0
 20
-196.2150659647074
 11
184.0
 21
-196.2150659647074
  0
LINE
  5
50
330
20
100
AcDbEntity
  8
100
  6
CONTINUOUS
100
AcDbLine
 10
176.0
 20
-202.2150659647074
 11
184.0
 21
-202.2150659647074
  0
LINE
  5
51
330
20
100
AcDbEntity
  8
100
  6
CONTINUOUS
100
AcDbLine
 10
176.0
 20
-272.2150659647074
 11
184.0
 21
-272.2150659647074
  0
LINE
  5
52
330
20
100
AcDbEntity
  8
100
  6
CONTINUOUS
100
AcDbLine
 10
176.0
 20
-278.2150659647074
 11
184.0
 21
-278.2150659647074
  0
LINE
  5
53
330
20
100
AcDbEntity
  8
100
  6
CONTINUOUS
100
AcDbLine
 10
184.0
 20
-289.2150659647074
 11
184.0
 21
-278.2150659647074
  0
LINE
  5
54
330
20
100
AcDbEntity
  8
100
  6
CONTINUOUS
100
AcDbLine
 10
184.0
 20
-272.2150659647074
 11
184.0
 21
-253.2150659647074
  0
LINE
  5
55
330
20
100
AcDbEntity
  8
100
  6
CONTINUOUS
100
AcDbLine
 10
184.0
 20
-221.2150659647074
 11
184.0
 21
-202.2150659647074
  0
LINE
  5
56
330
20
100
AcDbEntity
  8
100
  6
CONTINUOUS
100
AcDbLine
 10
184.0
 20
-196.2150659647074
 11
184.0
 21
-185.2150659647074
  0
LINE
  5
57
330
20
100
AcDbEntity
  8
100
  6
CONTINUOUS
100
AcDbLine
 10
176.0
 20
-202.2150659647074
 11
176.0
 21
-196.2150659647074
  0
LINE
  5
58
330
20
100
AcDbEntity
  8
100
  6
CONTINUOUS
100
AcDbLine
 10
176.0
 20
-278.2150659647074
 11
176.0
 21
-272.2150659647074
  0
LINE
  5
59
330
20
100
AcDbEntity
  8
100
  6
CONTINUOUS
100
AcDbLine
 10
134.0
 20
-185.2150659647074
 11
135.0
 21
-184.2150659647074
  0
LINE
  5
5A
330
20
100
AcDbEntity
  8
100
  6
CONTINUOUS
100
AcDbLine
 10
183.0
 20
-184.2150659647074
 11
184.0
 21
-185.2150659647074
  0
LINE
  5
5B
330
20
100
AcDbEntity
  8
100
  6
CONTINUOUS
100
AcDbLine
 10
134.0
 20
-289.2150659647074
 11
135.0
 21
-290.2150659647074
  0
LINE
  5
5C
330
20
100
AcDbEntity
  8
100
  6
CONTINUOUS
100
AcDbLine
 10
183.0
 20
-290.2150659647074
 11
184.0
 21
-289.2150659647074
  0
LINE
  5
5D
330
20
100
AcDbEntity
  8
100
  6
CONTINUOUS
100
AcDbLine
 10
-60.0
 20
114.1163817324421
 11
-65.0
 21
114.1163817324421
  0
LINE
  5
5E
330
20
100
AcDbEntity
  8
100
  6
CONTINUOUS
100
AcDbLine
 10
-60.0
 20
56.11638173244211
 11
-65.0
 21
56.11638173244211
  0
LINE
  5
5F
330
20
100
AcDbEntity
  8
100
  6
CONTINUOUS
100
AcDbLine
 10
60.0
 20
56.11638173244211
 11
67.7506756806113
 21
56.11638173244211
  0
LINE
  5
60
330
20
100
AcDbEntity
  8
100
  6
CONTINUOUS
100
AcDbLine
 10
60.0
 20
114.1163817324421
 11
67.7506756806113
 21
114.1163817324421
  0
LINE
  5
61
330
20
100
AcDbEntity
  8
100
  6
CONTINUOUS
100
AcDbLine
 10
-65.0
 20
56.11638173244211
 11
-65.0
 21
114.1163817324421
  0
LINE
  5
62
330
20
100
AcDbEntity
  8
100
  6
CONTINUOUS
100
AcDbLine
 10
-75.0
 20
100.1163817324421
 11
-212.7895571380184
 21
100.1163817324421
  0
LINE
  5
63
330
20
100
AcDbEntity
  8
100
  6
CONTINUOUS
100
AcDbLine
 10
-75.0
 20
70.11638173244211
 11
-212.7895571380184
 21
70.11638173244211
  0
ARC
  5
64
330
20
100
AcDbEntity
  8
100
  6
CONTINUOUS
100
AcDbCircle
 10
-75.0
 20
110.1163817324421
 40
10.0
100
AcDbArc
 50
270.0
 51
0.0
  0
ARC
  5
65
330
20
100
AcDbEntity
  8
100
  6
CONTINUOUS
100
AcDbCircle
 10
-75.0
 20
60.11638173244211
 40
10.0
100
AcDbArc
 50
0.0
 51
90.0
  0
ARC
  5
66
330
20
100
AcDbEntity
  8
100
  6
CONTINUOUS
100
AcDbCircle
 10
-163.0
 20
85.11638173244211
 40
52.0
100
AcDbArc
 50
163.2341270273281
 51
196.7658729726719
  0
ARC
  5
67
330
20
100
AcDbEntity
  8
100
  6
CONTINUOUS
100
AcDbCircle
 10
163.0
 20
85.11638173244211
 40
52.0
100
AcDbArc
 50
289.5572137354246
 51
70.44278626457543
  0
LINE
  5
68
330
20
100
AcDbEntity
  8
100
  6
CONTINUOUS
100
AcDbLine
 10
180.4068951855292
 20
134.1163817324421
 11
96.59310481447079
 21
134.1163817324421
  0
ARC
  5
69
330
20
100
AcDbEntity
  8
100
  6
CONTINUOUS
100
AcDbCircle
 10
114.0
 20
85.11638173244211
 40
52.0
100
AcDbArc
 50
109.5572137354246
 51
142.8827365328208
  0
ARC
  5
6A
330
20
100
AcDbEntity
  8
100
  6
CONTINUOUS
100
AcDbCircle
 10
67.7506756806113
 20
120.1163817324421
 40
6.0
100
AcDbArc
 50
270.0
 51
322.8827365328211
  0
CIRCLE
  5
6B
330
20
100
AcDbEntity
  8
100
  6
CONTINUOUS
100
AcDbCircle
 10
159.0
 20
85.11638173244211
 40
25.0
  0
LINE
  5
6C
330
20
100
AcDbEntity
  8
100
  6
CONTINUOUS
100
AcDbLine
 10
65.0
 20
76.28462086611435
 11
65.0
 21
93.94814259876983
  0
ARC
  5
6D
330
20
100
AcDbEntity
  8
100
  6
CONTINUOUS
100
AcDbCircle
 10
67.7506756806113
 20
50.11638173244211
 40
6.0
100
AcDbArc
 50
37.11726346717915
 51
90.0
  0
ARC
  5
6E
330
20
100
AcDbEntity
  8
100
  6
CONTINUOUS
100
AcDbCircle
 10
114.0
 20
85.11638173244211
 40
52.0
100
AcDbArc
 50
217.1172634671792
 51
250.4427862645754
  0
LINE
  5
6F
330
20
100
AcDbEntity
  8
100
  6
CONTINUOUS
100
AcDbLine
 10
180.4068951855292
 20
36.11638173244211
 11
96.59310481447079
 21
36.11638173244211
  0
CIRCLE
  5
70
330
20
100
AcDbEntity
  8
100
  6
CONTINUOUS
100
AcDbCircle
 10
157.0
 20
85.11638173244211
 40
28.3772233983162
  0
LINE
  5
71
330
20
100
AcDbEntity
  8
100
  6
CONTINUOUS
100
AcDbLine
 10
60.0
 20
35.11638173244211
 11
-60.0
 21
35.11638173244211
  0
LINE
  5
72
330
20
100
AcDbEntity
  8
100
  6
CONTINUOUS
100
AcDbLine
 10
65.0
 20
56.11638173244211
 11
65.0
 21
114.1163817324421
  0
LINE
  5
73
330
20
100
AcDbEntity
  8
100
  6
CONTINUOUS
100
AcDbLine
 10
-65.0
 20
56.11638173244211
 11
-65.0
 21
114.1163817324421
  0
LINE
  5
74
330
20
100
AcDbEntity
  8
100
  6
CONTINUOUS
100
AcDbLine
 10
50.0
 20
35.11638173244211
 11
50.0
 21
135.1163817324421
  0
LINE
  5
75
330
20
100
AcDbEntity
  8
100
  6
CONTINUOUS
100
AcDbLine
 10
-50.0
 20
35.11638173244211
 11
-50.0
 21
135.1163817324421
  0
LINE
  5
76
330
20
100
AcDbEntity
  8
100
  6
CONTINUOUS
100
AcDbLine
 10
-60.0
 20
35.11638173244211
 11
-60.0
 21
135.1163817324421
  0
LINE
  5
77
330
20
100
AcDbEntity
  8
100
  6
CONTINUOUS
100
AcDbLine
 10
60.0
 20
35.11638173244211
 11
60.0
 21
135.1163817324421
  0
ARC
  5
78
330
20
100
AcDbEntity
  8
100
  6
DASHED
100
AcDbCircle
 10
-227.2548339959391
 20
85.11638173244211
 40
48.00000000000004
100
AcDbArc
 50
341.790043135717
 51
18.209956864283
  0
ARC
  5
79
330
20
100
AcDbEntity
  8
100
  6
DASHED
100
AcDbCircle
 10
-86.74516600406093
 20
85.11638173244211
 40
48.00000000000004
100
AcDbArc
 50
161.790043135717
 51
198.209956864283
  0
LINE
  5
7A
330
20
100
AcDbEntity
  8
100
  6
CONTINUOUS
100
AcDbLine
 10
-60.0
 20
135.1163817324421
 11
-23.5
 21
135.1163817324421
  0
LINE
  5
7B
330
20
100
AcDbEntity
  8
100
  6
CONTINUOUS
100
AcDbLine
 10
23.5
 20
135.1163817324421
 11
60.0
 21
135.1163817324421
  0
LINE
  5
7C
330
20
100
AcDbEntity
  8
100
  6
CENTER
100
AcDbLine
 10
-237.0815635378187
 20
85.11638173244211
 11
241.6555502810481
 21
85.11638173244211
  0
LINE
  5
7D
330
20
100
AcDbEntity
  8
100
  6
CONTINUOUS
100
AcDbLine
 10
16.99999999999999
 20
113.1163817324421
 11
16.99999999999999
 21
128.1163817324421
  0
LINE
  5
7E
330
20
100
AcDbEntity
  8
100
  6
CONTINUOUS
100
AcDbLine
 10
16.99999999999999
 20
128.1163817324421
 11
0.0
 21
128.1163817324421
  0
LINE
  5
7F
330
20
100
AcDbEntity
  8
100
  6
CONTINUOUS
100
AcDbLine
 10
17.22512499999998
 20
133.1163817324421
 11
0.0
 21
133.1163817324421
  0
ARC
  5
80
330
20
100
AcDbEntity
  8
100
  6
CONTINUOUS
100
AcDbCircle
 10
16.99999999999999
 20
130.6163817324421
 40
2.5
100
AcDbArc
 50
90.0
 51
270.0
  0
LINE
  5
81
330
20
100
AcDbEntity
  8
100
  6
CONTINUOUS
100
AcDbLine
 10
-17.0
 20
113.1163817324421
 11
-17.0
 21
128.1163817324421
  0
LINE
  5
82
330
20
100
AcDbEntity
  8
100
  6
CONTINUOUS
100
AcDbLine
 10
-17.0
 20
128.1163817324421
 11
0.0
 21
128.1163817324421
  0
LINE
  5
83
330
20
100
AcDbEntity
  8
100
  6
CONTINUOUS
100
AcDbLine
 10
-17.22512499999999
 20
133.1163817324421
 11
0.0
 21
133.1163817324421
  0
ARC
  5
84
330
20
100
AcDbEntity
  8
100
  6
CONTINUOUS
100
AcDbCircle
 10
-17.0
 20
130.6163817324421
 40
2.5
100
AcDbArc
 50
270.0
 51
90.0
  0
LINE
  5
85
330
20
100
AcDbEntity
  8
100
  6
CONTINUOUS
100
AcDbLine
 10
-23.5
 20
133.1163817324421
 11
-23.5
 21
167.7997822682572
  0
LINE
  5
86
330
20
100
AcDbEntity
  8
100
  6
CONTINUOUS
100
AcDbLine
 10
23.5
 20
133.1163817324421
 11
23.5
 21
167.7997822682572
  0
LINE
  5
87
330
20
100
AcDbEntity
  8
100
  6
CONTINUOUS
100
AcDbLine
 10
23.5
 20
133.1163817324421
 11
-23.5
 21
133.1163817324421
  0
LINE
  5
88
330
20
100
AcDbEntity
  8
100
  6
CONTINUOUS
100
AcDbLine
 10
20.0
 20
170.1163817324421
 11
-20.0
 21
170.1163817324421
  0
LINE
  5
89
330
20
100
AcDbEntity
  8
100
  6
CONTINUOUS
100
AcDbLine
 10
-20.0
 20
170.1163817324421
 11
-23.5
 21
167.7997822682572
  0
LINE
  5
8A
330
20
100
AcDbEntity
  8
100
  6
CONTINUOUS
100
AcDbLine
 10
20.0
 20
170.1163817324421
 11
23.5
 21
167.7997822682572
  0
LINE
  5
8B
330
20
100
AcDbEntity
  8
100
  6
CONTINUOUS
100
AcDbLine
 10
16.99999999999999
 20
113.1163817324421
 11
0.0
 21
113.1163817324421
  0
LINE
  5
8C
330
20
100
AcDbEntity
  8
100
  6
CONTINUOUS
100
AcDbLine
 10
-22.0
 20
113.1163817324421
 11
22.0
 21
113.1163817324421
  0
LINE
  5
8D
330
20
100
AcDbEntity
  8
100
  6
CONTINUOUS
100
AcDbLine
 10
-11.66431948
 20
133.1163817324421
 11
-11.66431948
 21
170.1163817324421
  0
LINE
  5
8E
330
20
100
AcDbEntity
  8
100
  6
CONTINUOUS
100
AcDbLine
 10
11.66431948
 20
133.1163817324421
 11
11.66431948
 21
170.1163817324421
  0
LINE
  5
8F
330
20
100
AcDbEntity
  8
100
  6
CONTINUOUS
100
AcDbLine
 10
-7.0
 20
170.1163817324421
 11
-7.0
 21
252.2791667240784
  0
LINE
  5
90
330
20
100
AcDbEntity
  8
100
  6
CONTINUOUS
100
AcDbLine
 10
7.0
 20
170.1163817324421
 11
7.0
 21
252.2791667240788
  0
SPLINE
  5
91
330
20
100
AcDbEntity
  8
100
  6
CONTINUOUS
100
AcDbSpline
210
0.0
220
0.0
230
1.0
 70
     8
 71
     3
 72
    13
 73
     9
 74
     0
 42
1.000000000000000E-007
 43
1.000000000000000E-007
 40
0.0
 40
0.0
 40
0.0
 40
0.0
 40
4.709598851361548
 40
9.521524298234823
 40
14.32080396803836
 40
19.31379230068016
 40
24.38743272011952
 40
29.14466804195851
 40
29.14466804195851
 40
29.14466804195851
 40
29.14466804195851
 10
-6.999999999999664
 20
252.2791667240789
 30
0.0
 10
-6.26777739608483
 20
253.2303862362741
 30
0.0
 10
-3.338886980419042
 20
257.0352642850544
 30
0.0
 10
0.0877705255920147
 20
252.2059959923724
 30
0.0
 10
2.987804878048676
 20
247.8157520899325
 30
0.0
 10
8.961009962212273
 20
252.2059959923715
 30
0.0
 10
3.168155273101938
 20
257.0352642850545
 30
0.0
 10
0.6336310546203212
 20
253.2303862362739
 30
0.0
 10
0.0
 20
252.2791667240788
 30
0.0
  0
LINE
  5
92
330
20
100
AcDbEntity
  8
100
  6
CONTINUOUS
100
AcDbLine
 10
-22.0
 20
-136.8150659647075
 11
22.0
 21
-136.8150659647075
  0
LINE
  5
93
330
20
100
AcDbEntity
  8
100
  6
CONTINUOUS
100
AcDbLine
 10
22.0
 20
-139.8150659647075
 11
22.0
 21
-136.8150659647075
  0
LINE
  5
94
330
20
100
AcDbEntity
  8
100
  6
CONTINUOUS
100
AcDbLine
 10
-22.0
 20
-139.8150659647075
 11
-22.0
 21
-136.8150659647075
  0
LINE
  5
95
330
20
100
AcDbEntity
  8
100
  6
CONTINUOUS
100
AcDbLine
 10
-22.0
 20
-130.8150659647075
 11
22.0
 21
-130.8150659647075
  0
LINE
  5
96
330
20
100
AcDbEntity
  8
100
  6
CONTINUOUS
100
AcDbLine
 10
22.0
 20
-136.8150659647075
 11
22.0
 21
-130.8150659647075
  0
LINE
  5
97
330
20
100
AcDbEntity
  8
100
  6
CONTINUOUS
100
AcDbLine
 10
-22.0
 20
-136.8150659647075
 11
-22.0
 21
-130.8150659647075
  0
LINE
  5
98
330
20
100
AcDbEntity
  8
100
  6
CENTER
100
AcDbLine
 10
159.0
 20
48.52366790736002
 11
159.0
 21
122.7339023159346
  0
ARC
  5
99
330
20
100
AcDbEntity
  8
100
  6
DASHED
100
AcDbCircle
 10
217.0
 20
-237.2150659647074
 40
35.0
100
AcDbArc
 50
154.6230664748477
 51
205.3769335251523
  0
ARC
  5
9A
330
20
100
AcDbEntity
  8
100
  6
DASHED
100
AcDbCircle
 10
97.00000000000006
 20
-237.2150659647074
 40
35.0
100
AcDbArc
 50
334.6230664748477
 51
25.3769335251523
  0
LINE
  5
9B
330
20
100
AcDbEntity
  8
100
  6
CENTER
100
AcDbLine
 10
-159.0
 20
-274.8614537174109
 11
-159.0
 21
-199.7350435753972
  0
LINE
  5
9C
330
20
100
AcDbEntity
  8
100
  6
CENTER
100
AcDbLine
 10
-159.0
 20
57.22733737503234
 11
-159.0
 21
118.6111115154582
  0
LINE
  5
9D
330
20
100
AcDbEntity
  8
100
  6
CENTER
100
AcDbLine
 10
2.842170943040401E-014
 20
19.43402124553498
 11
2.842170943040401E-014
 21
272.3368291055452
  0
LINE
  5
9E
330
20
100
AcDbEntity
  8
100
  6
CENTER
100
AcDbLine
 10
-237.0815635378187
 20
-237.2150659647074
 11
241.6555502810481
 21
-237.2150659647074
  0
LINE
  5
9F
330
20
100
AcDbEntity
  8
100
  6
CONTINUOUS
100
AcDbLine
 10
22.0
 20
-195.8150659647074
 11
22.0
 21
-130.8150659647075
  0
LINE
  5
A0
330
20
100
AcDbEntity
  8
100
  6
CONTINUOUS
100
AcDbLine
 10
-22.0
 20
-195.8150659647074
 11
-22.0
 21
-130.8150659647075
  0
LINE
  5
A1
330
20
100
AcDbEntity
  8
100
  6
CONTINUOUS
100
AcDbLine
 10
-22.0
 20
57.11638173244211
 11
-22.0
 21
113.1163817324421
  0
LINE
  5
A2
330
20
100
AcDbEntity
  8
100
  6
CONTINUOUS
100
AcDbLine
 10
22.0
 20
57.11638173244211
 11
22.0
 21
113.1163817324421
  0
LINE
  5
A3
330
20
100
AcDbEntity
  8
100
  6
CONTINUOUS
100
AcDbLine
 10
-22.0
 20
57.11638173244211
 11
22.0
 21
57.11638173244211
  0
LINE
  5
A4
330
20
100
AcDbEntity
  8
100
  6
CONTINUOUS
100
AcDbLine
 10
14.0
 20
-130.8150659647075
 11
14.0
 21
-127.2150659647075
  0
LINE
  5
A5
330
20
100
AcDbEntity
  8
100
  6
CONTINUOUS
100
AcDbLine
 10
21.0
 20
-130.8150659647075
 11
21.0
 21
-127.2150659647075
  0
LINE
  5
A6
330
20
100
AcDbEntity
  8
100
  6
CONTINUOUS
100
AcDbLine
 10
14.39999999999986
 20
-126.8150659647075
 11
20.59999999999991
 21
-126.8150659647075
  0
ARC
  5
A7
330
20
100
AcDbEntity
  8
100
  6
CONTINUOUS
100
AcDbCircle
 10
14.39999999999986
 20
-127.2150659647075
 40
0.4000000000000004
100
AcDbArc
 50
90.0
 51
180.0
  0
ARC
  5
A8
330
20
100
AcDbEntity
  8
100
  6
CONTINUOUS
100
AcDbCircle
 10
20.59999999999991
 20
-127.2150659647075
 40
0.4000000000000057
100
AcDbArc
 50
0.0
 51
90.0
  0
LINE
  5
A9
330
20
100
AcDbEntity
  8
100
  6
CONTINUOUS
100
AcDbLine
 10
-20.60000000000014
 20
-126.8150659647075
 11
-14.40000000000009
 21
-126.8150659647075
  0
ARC
  5
AA
330
20
100
AcDbEntity
  8
100
  6
CONTINUOUS
100
AcDbCircle
 10
-14.40000000000009
 20
-127.2150659647075
 40
0.4000000000000057
100
AcDbArc
 50
0.0
 51
90.0
  0
LINE
  5
AB
330
20
100
AcDbEntity
  8
100
  6
CONTINUOUS
100
AcDbLine
 10
-14.0
 20
-130.8150659647075
 11
-14.0
 21
-127.2150659647075
  0
ARC
  5
AC
330
20
100
AcDbEntity
  8
100
  6
CONTINUOUS
100
AcDbCircle
 10
-20.60000000000014
 20
-127.2150659647075
 40
0.4000000000000004
100
AcDbArc
 50
90.0
 51
180.0
  0
LINE
  5
AD
330
20
100
AcDbEntity
  8
100
  6
CONTINUOUS
100
AcDbLine
 10
-21.0
 20
-130.8150659647075
 11
-21.0
 21
-127.2150659647075
  0
CIRCLE
  5
AE
330
20
100
AcDbEntity
  8
100
  6
CONTINUOUS
100
AcDbCircle
 10
17.5
 20
62.11638173244211
 40
3.5
  0
LINE
  5
AF
330
20
100
AcDbEntity
  8
100
  6
CONTINUOUS
100
AcDbLine
 10
19.0
 20
61.25035632865769
 11
19.0
 21
62.98240713622653
  0
LINE
  5
B0
330
20
100
AcDbEntity
  8
100
  6
CONTINUOUS
100
AcDbLine
 10
16.0
 20
61.25035632865769
 11
16.0
 21
62.98240713622653
  0
LINE
  5
B1
330
20
100
AcDbEntity
  8
100
  6
CONTINUOUS
100
AcDbLine
 10
17.5
 20
63.848432540011
 11
16.0
 21
62.98240713622653
  0
LINE
  5
B2
330
20
100
AcDbEntity
  8
100
  6
CONTINUOUS
100
AcDbLine
 10
19.0
 20
61.25035632865769
 11
17.5
 21
60.38433092487321
  0
LINE
  5
B3
330
20
100
AcDbEntity
  8
100
  6
CONTINUOUS
100
AcDbLine
 10
17.5
 20
63.848432540011
 11
19.0
 21
62.98240713622653
  0
LINE
  5
B4
330
20
100
AcDbEntity
  8
100
  6
CONTINUOUS
100
AcDbLine
 10
16.0
 20
61.25035632865769
 11
17.5
 21
60.38433092487321
  0
CIRCLE
  5
B5
330
20
100
AcDbEntity
  8
100
  6
CONTINUOUS
100
AcDbCircle
 10
17.5
 20
108.1163817324421
 40
3.5
  0
LINE
  5
B6
330
20
100
AcDbEntity
  8
100
  6
CONTINUOUS
100
AcDbLine
 10
19.0
 20
108.9824071362265
 11
19.0
 21
107.2503563286577
  0
LINE
  5
B7
330
20
100
AcDbEntity
  8
100
  6
CONTINUOUS
100
AcDbLine
 10
19.0
 20
108.9824071362265
 11
17.5
 21
109.848432540011
  0
LINE
  5
B8
330
20
100
AcDbEntity
  8
100
  6
CONTINUOUS
100
AcDbLine
 10
16.0
 20
108.9824071362265
 11
17.5
 21
109.848432540011
  0
LINE
  5
B9
330
20
100
AcDbEntity
  8
100
  6
CONTINUOUS
100
AcDbLine
 10
16.0
 20
108.9824071362265
 11
16.0
 21
107.2503563286577
  0
LINE
  5
BA
330
20
100
AcDbEntity
  8
100
  6
CONTINUOUS
100
AcDbLine
 10
17.5
 20
106.3843309248733
 11
16.0
 21
107.2503563286577
  0
LINE
  5
BB
330
20
100
AcDbEntity
  8
100
  6
CONTINUOUS
100
AcDbLine
 10
17.5
 20
106.3843309248733
 11
19.0
 21
107.2503563286577
  0
CIRCLE
  5
BC
330
20
100
AcDbEntity
  8
100
  6
CONTINUOUS
100
AcDbCircle
 10
-17.5
 20
108.1163817324421
 40
3.5
  0
LINE
  5
BD
330
20
100
AcDbEntity
  8
100
  6
CONTINUOUS
100
AcDbLine
 10
-19.0
 20
108.9824071362265
 11
-19.0
 21
107.2503563286577
  0
LINE
  5
BE
330
20
100
AcDbEntity
  8
100
  6
CONTINUOUS
100
AcDbLine
 10
-19.0
 20
108.9824071362265
 11
-17.5
 21
109.848432540011
  0
LINE
  5
BF
330
20
100
AcDbEntity
  8
100
  6
CONTINUOUS
100
AcDbLine
 10
-16.0
 20
108.9824071362265
 11
-17.5
 21
109.848432540011
  0
LINE
  5
C0
330
20
100
AcDbEntity
  8
100
  6
CONTINUOUS
100
AcDbLine
 10
-16.0
 20
108.9824071362265
 11
-16.0
 21
107.2503563286577
  0
LINE
  5
C1
330
20
100
AcDbEntity
  8
100
  6
CONTINUOUS
100
AcDbLine
 10
-17.5
 20
106.3843309248733
 11
-16.0
 21
107.2503563286577
  0
LINE
  5
C2
330
20
100
AcDbEntity
  8
100
  6
CONTINUOUS
100
AcDbLine
 10
-17.5
 20
106.3843309248733
 11
-19.0
 21
107.2503563286577
  0
CIRCLE
  5
C3
330
20
100
AcDbEntity
  8
100
  6
CONTINUOUS
100
AcDbCircle
 10
-17.5
 20
62.11638173244211
 40
3.5
  0
LINE
  5
C4
330
20
100
AcDbEntity
  8
100
  6
CONTINUOUS
100
AcDbLine
 10
-19.0
 20
61.25035632865769
 11
-19.0
 21
62.98240713622653
  0
LINE
  5
C5
330
20
100
AcDbEntity
  8
100
  6
CONTINUOUS
100
AcDbLine
 10
-19.0
 20
61.25035632865769
 11
-17.5
 21
60.38433092487321
  0
LINE
  5
C6
330
20
100
AcDbEntity
  8
100
  6
CONTINUOUS
100
AcDbLine
 10
-16.0
 20
61.25035632865769
 11
-17.5
 21
60.38433092487321
  0
LINE
  5
C7
330
20
100
AcDbEntity
  8
100
  6
CONTINUOUS
100
AcDbLine
 10
-16.0
 20
61.25035632865769
 11
-16.0
 21
62.98240713622653
  0
LINE
  5
C8
330
20
100
AcDbEntity
  8
100
  6
CONTINUOUS
100
AcDbLine
 10
-17.5
 20
63.848432540011
 11
-16.0
 21
62.98240713622653
  0
LINE
  5
C9
330
20
100
AcDbEntity
  8
100
  6
CONTINUOUS
100
AcDbLine
 10
-17.5
 20
63.848432540011
 11
-19.0
 21
62.98240713622653
  0
ENDSEC
  0
SECTION
  2
OBJECTS
  0
DICTIONARY
  5
C
100
AcDbDictionary
281
     1
  3
ACAD_GROUP
350
D
  3
ACAD_MLINESTYLE
350
E
  3
ACDBVARIABLEDICTIONARY
350
CA
  3
ACAD_PLOTSTYLENAME
350
CB
  3
ACAD_LAYOUT
350
CC
  3
ACAD_PLOTSETTINGS
350
CD
  0
DICTIONARY
  5
D
102
{ACAD_REACTORS
330
C
102
}
330
C
100
AcDbDictionary
281
     1
  0
DICTIONARY
  5
E
102
{ACAD_REACTORS
330
C
102
}
330
C
100
AcDbDictionary
281
     1
  3
STANDARD
350
13
  0
DICTIONARY
  5
CA
102
{ACAD_REACTORS
330
C
102
}
330
C
100
AcDbDictionary
281
     1
  3
SORTENTS
350
CE
  0
ACDBDICTIONARYWDFLT
  5
CB
102
{ACAD_REACTORS
330
C
102
}
330
C
100
AcDbDictionary
281
     1
  3
Normal
350
CF
100
AcDbDictionaryWithDefault
340
CF
  0
DICTIONARY
  5
CC
102
{ACAD_REACTORS
330
C
102
}
330
C
100
AcDbDictionary
281
     1
  3
Model
350
D0
  0
DICTIONARY
  5
CD
102
{ACAD_REACTORS
330
C
102
}
330
C
100
AcDbDictionary
281
     1
  0
MLINESTYLE
  5
13
102
{ACAD_REACTORS
330
E
102
}
330
E
100
AcDbMlineStyle
  2
STANDARD
 70
     0
  3

 62
   256
 51
90.0
 52
90.0
 71
     2
 49
0.5
 62
   256
  6
BYLAYER
 49
-0.5
 62
   256
  6
BYLAYER
  0
DICTIONARYVAR
  5
CE
102
{ACAD_REACTORS
330
CA
102
}
330
CA
100
DictionaryVariables
280
     0
  1
96
  0
ACDBPLACEHOLDER
  5
CF
102
{ACAD_REACTORS
330
CB
102
}
330
CB
  0
LAYOUT
  5
D0
102
{ACAD_REACTORS
330
CC
102
}
330
CC
100
AcDbPlotSettings
  1

  2

  4

  6

 40
0.0
 41
0.0
 42
0.0
 43
0.0
 44
0.0
 45
0.0
 46
0.0
 47
0.0
 48
0.0
 49
0.0
140
0.0
141
0.0
142
1.0
143
1.0
 70
  1712
 72
     0
 73
     0
 74
     0
  7

 75
     0
147
1.0
148
0.0
149
0.0
100
AcDbLayout
  1
Model
 70
     1
 71
     0
 10
0.0
 20
0.0
 11
297.0
 21
210.0
 12
0.0
 22
0.0
 32
0.0
 14
0.0
 24
0.0
 34
0.0
 15
0.0
 25
0.0
 35
0.0
146
0.0
 13
0.0
 23
0.0
 33
0.0
 16
1.0
 26
0.0
 36
0.0
 17
0.0
 27
1.0
 37
0.0
 76
     0
330
20
  0
ENDSEC
  0
EOF
