  0
SECTION
  2
HEADER
  9
$ACADVER
  1
AC1015
  9
$ACADMAINTVER
 70
     0
  9
$DWGCODEPAGE
  3
ANSI_932
  9
$INSBASE
 10
0.0
 20
0.0
 30
0.0
  9
$EXTMIN
 10
-20.0
 20
-87.00000000000001
  9
$EXTMAX
 10
104.7301481136942
 20
27.66666603088379
  9
$LIMMIN
 10
-20.0
 20
-87.00000000000001
  9
$LIMMAX
 10
104.7301481136942
 20
27.66666603088379
  9
$ORTHOMODE
 70
     0
  9
$REGENMODE
 70
     1
  9
$FILLMODE
 70
     1
  9
$QTEXTMODE
 70
     0
  9
$MIRRTEXT
 70
     1
  9
$LTSCALE
 40
1.0
  9
$OSMODE
 70
     0
  9
$ATTMODE
 70
     1
  9
$TEXTSIZE
 40
3.0
  9
$TRACEWID
 40
0.5
  9
$TEXTSTYLE
  7
BIGFONT
  9
$CLAYER
  8
0
  9
$CELTYPE
  6
BYLAYER
  9
$CECOLOR
 62
   256
  9
$CELTSCALE
 40
1.0
  9
$DISPSILH
 70
     0
  9
$DIMSCALE
 40
1.0
  9
$DIMASZ
 40
3.0
  9
$DIMEXO
 40
1.0
  9
$DIMDLI
 40
5.0
  9
$DIMRND
 40
0.0
  9
$DIMDLE
 40
5.0
  9
$DIMEXE
 40
2.0
  9
$DIMTP
 40
0.0
  9
$DIMTM
 40
0.0
  9
$DIMTXT
 40
3.0
  9
$DIMCEN
 40
2.0
  9
$DIMTSZ
 40
0.0
  9
$DIMTOL
 70
     0
  9
$DIMLIM
 70
     0
  9
$DIMTIH
 70
     0
  9
$DIMTOH
 70
     0
  9
$DIMSE1
 70
     0
  9
$DIMSE2
 70
     0
  9
$DIMTAD
 70
     1
  9
$DIMZIN
 70
     8
  9
$DIMBLK
  1

  9
$DIMASO
 70
     1
  9
$DIMSHO
 70
     1
  9
$DIMPOST
  1

  9
$DIMAPOST
  1

  9
$DIMALT
 70
     0
  9
$DIMALTD
 70
     4
  9
$DIMALTF
 40
25.4
  9
$DIMLFAC
 40
1.0
  9
$DIMTOFL
 70
     1
  9
$DIMTVP
 40
1.0
  9
$DIMTIX
 70
     0
  9
$DIMSOXD
 70
     0
  9
$DIMSAH
 70
     0
  9
$DIMBLK1
  1

  9
$DIMBLK2
  1

  9
$DIMSTYLE
  2
ISO-25
  9
$DIMCLRD
 70
     0
  9
$DIMCLRE
 70
     0
  9
$DIMCLRT
 70
     0
  9
$DIMTFAC
 40
1.0
  9
$DIMGAP
 40
0.5
  9
$DIMJUST
 70
     0
  9
$DIMSD1
 70
     0
  9
$DIMSD2
 70
     0
  9
$DIMTOLJ
 70
     1
  9
$DIMTZIN
 70
     1
  9
$DIMALTZ
 70
     0
  9
$DIMALTTZ
 70
     0
  9
$DIMUPT
 70
     0
  9
$DIMDEC
 70
     3
  9
$DIMTDEC
 70
     3
  9
$DIMALTU
 70
     8
  9
$DIMALTTD
 70
     4
  9
$DIMTXSTY
  7
STANDARD
  9
$DIMAUNIT
 70
     0
  9
$DIMADEC
 70
     0
  9
$DIMALTRND
 40
0.0
  9
$DIMAZIN
 70
     0
  9
$DIMDSEP
 70
    46
  9
$DIMATFIT
 70
     3
  9
$DIMFRAC
 70
     0
  9
$DIMLDRBLK
  1

  9
$DIMLUNIT
 70
     2
  9
$DIMLWD
 70
    -2
  9
$DIMLWE
 70
    -2
  9
$DIMTMOVE
 70
     0
  9
$LUNITS
 70
     2
  9
$LUPREC
 70
     4
  9
$SKETCHINC
 40
1.0
  9
$FILLETRAD
 40
0.0
  9
$AUNITS
 70
     0
  9
$AUPREC
 70
     0
  9
$MENU
  1
.
  9
$ELEVATION
 40
0.0
  9
$PELEVATION
 40
0.0
  9
$THICKNESS
 40
0.0
  9
$LIMCHECK
 70
     0
  9
$CHAMFERA
 40
0.0
  9
$CHAMFERB
 40
0.0
  9
$CHAMFERC
 40
0.0
  9
$CHAMFERD
 40
0.0
  9
$SKPOLY
 70
     0
  9
$TDCREATE
 40
2456353.601886574
  9
$TDUCREATE
 40
2456353.601886574
  9
$TDUPDATE
 40
2456353.601886574
  9
$TDUUPDATE
 40
2456353.601886574
  9
$TDINDWG
 40
0.0
  9
$TDUSRTIMER
 40
0.0
  9
$USRTIMER
 70
     1
  9
$ANGBASE
 50
0.0
  9
$ANGDIR
 70
     0
  9
$PDMODE
 70
     0
  9
$PDSIZE
 40
0.0
  9
$PLINEWID
 40
0.0
  9
$SPLFRAME
 70
     0
  9
$SPLINETYPE
 70
     6
  9
$SPLINESEGS
 70
     8
  9
$HANDSEED
  5
11A
  9
$SURFTAB1
 70
     6
  9
$SURFTAB2
 70
     6
  9
$SURFTYPE
 70
     6
  9
$SURFU
 70
     6
  9
$SURFV
 70
     6
  9
$UCSBASE
  2

  9
$UCSNAME
  2

  9
$UCSORG
 10
0.0
 20
0.0
 30
0.0
  9
$UCSXDIR
 10
1.0
 20
0.0
 30
0.0
  9
$UCSYDIR
 10
0.0
 20
1.0
 30
0.0
  9
$UCSORTHOREF
  2

  9
$UCSORTHOVIEW
 70
     0
  9
$UCSORGTOP
 10
0.0
 20
0.0
 30
0.0
  9
$UCSORGBOTTOM
 10
0.0
 20
0.0
 30
0.0
  9
$UCSORGLEFT
 10
0.0
 20
0.0
 30
0.0
  9
$UCSORGRIGHT
 10
0.0
 20
0.0
 30
0.0
  9
$UCSORGFRONT
 10
0.0
 20
0.0
 30
0.0
  9
$UCSORGBACK
 10
0.0
 20
0.0
 30
0.0
  9
$PUCSBASE
  2

  9
$PUCSNAME
  2

  9
$PUCSORG
 10
0.0
 20
0.0
 30
0.0
  9
$PUCSXDIR
 10
1.0
 20
0.0
 30
0.0
  9
$PUCSYDIR
 10
0.0
 20
1.0
 30
0.0
  9
$PUCSORTHOREF
  2

  9
$PUCSORTHOVIEW
 70
     0
  9
$PUCSORGTOP
 10
0.0
 20
0.0
 30
0.0
  9
$PUCSORGBOTTOM
 10
0.0
 20
0.0
 30
0.0
  9
$PUCSORGLEFT
 10
0.0
 20
0.0
 30
0.0
  9
$PUCSORGRIGHT
 10
0.0
 20
0.0
 30
0.0
  9
$PUCSORGFRONT
 10
0.0
 20
0.0
 30
0.0
  9
$PUCSORGBACK
 10
0.0
 20
0.0
 30
0.0
  9
$USERI1
 70
     0
  9
$USERI2
 70
     0
  9
$USERI3
 70
     0
  9
$USERI4
 70
     0
  9
$USERI5
 70
     0
  9
$USERR1
 40
0.0
  9
$USERR2
 40
0.0
  9
$USERR3
 40
0.0
  9
$USERR4
 40
0.0
  9
$USERR5
 40
0.0
  9
$WORLDVIEW
 70
     1
  9
$SHADEDGE
 70
     3
  9
$SHADEDIF
 70
    70
  9
$MAXACTVP
 70
    16
  9
$PINSBASE
 10
0.0
 20
0.0
 30
0.0
  9
$PLIMCHECK
 70
     0
  9
$PEXTMIN
 10
1.000000000000000E+020
 20
1.000000000000000E+020
 30
1.000000000000000E+020
  9
$PEXTMAX
 10
-1.000000000000000E+020
 20
-1.000000000000000E+020
 30
-1.000000000000000E+020
  9
$PLIMMIN
 10
-20.0
 20
-87.00000000000001
  9
$PLIMMAX
 10
104.7301481136942
 20
27.66666603088379
  9
$UNITMODE
 70
     0
  9
$VISRETAIN
 70
     0
  9
$PLINEGEN
 70
     0
  9
$PSLTSCALE
 70
     0
  9
$TREEDEPTH
 70
  3020
  9
$CMLSTYLE
  2
STANDARD
  9
$CMLJUST
 70
     0
  9
$CMLSCALE
 40
1.0
  9
$PROXYGRAPHICS
 70
     1
  9
$MEASUREMENT
 70
     0
  9
$CELWEIGHT
370
    -3
  9
$ENDCAPS
280
     0
  9
$JOINSTYLE
280
     0
  9
$LWDISPLAY
290
     1
  9
$INSUNITS
 70
     0
  9
$HYPERLINKBASE
  1

  9
$STYLESHEET
  1

  9
$XEDIT
290
     1
  9
$CEPSNTYPE
380
     0
  9
$PSTYLEMODE
290
     1
  9
$FINGERPRINTGUID
  2
{6F25CFC2-5053-11D3-9BE9-00805F4AB38E}
  9
$VERSIONGUID
  2
{6F25CFC5-5053-11D3-9BE9-00805F4AB38E}
  9
$EXTNAMES
290
     1
  9
$PSVPSCALE
 40
0.0
  9
$OLESTARTUP
290
     0
  0
ENDSEC
  0
SECTION
  2
CLASSES
  0
CLASS
  1
LWPOLYLINE
  2
AcDbPolyline
  3
AutoCAD 2000
 90
    32768
280
     0
281
     1
  0
CLASS
  1
DICTIONARYVAR
  2
AcDbDictionaryVar
  3
AutoCAD 2000
 90
        0
280
     0
281
     1
  0
CLASS
  1
ACDBDICTIONARYWDFLT
  2
AcDbDictionaryWithDefault
  3
AutoCAD 2000
 90
        0
280
     0
281
     1
  0
CLASS
  1
ACDBPLACEHOLDER
  2
AcDbPlaceHolder
  3
AutoCAD 2000
 90
        0
280
     0
281
     1
  0
CLASS
  1
LAYOUT
  2
AcDbLayout
  3
AutoCAD 2000
 90
        0
280
     0
281
     1
  0
CLASS
  1
HATCH
  2
AcDbHatch
  3
AutoCAD 2000
 90
        0
280
     0
281
     1
  0
ENDSEC
  0
SECTION
  2
TABLES
  0
TABLE
  2
VPORT
  5
8
100
AcDbSymbolTable
 70
     1
  0
VPORT
  5
10F
330
0
100
AcDbSymbolTableRecord
100
AcDbViewportTableRecord
  2
*ACTIVE
 70
     0
 10
0.0
 20
0.0
 11
1.0
 21
1.0
 12
42.3650740568471
 22
-29.66666698455811
 13
0.0
 23
0.0
 14
0.0
 24
0.0
 15
0.0
 25
0.0
 16
0.0
 26
0.0
 36
1.0
 17
0.0
 27
0.0
 37
0.0
 40
114.6666660308838
 41
1.5
 42
50.0
 43
0.0
 44
0.0
 50
0.0
 51
0.0
 71
     0
 72
   100
 73
     1
 74
     1
 75
     0
 76
     0
 77
     0
 78
     0
281
     0
 65
     1
110
0.0
120
0.0
130
0.0
111
1.0
121
0.0
131
0.0
112
0.0
122
1.0
132
0.0
 79
     0
146
0.0
  0
ENDTAB
  0
TABLE
  2
LTYPE
  5
5
330
0
100
AcDbSymbolTable
 70
    20
  0
LTYPE
  5
110
330
5
100
AcDbSymbolTableRecord
100
AcDbLinetypeTableRecord
  2
BYBLOCK
 70
     0
  3

 72
    65
 73
     0
 40
0.0
  0
LTYPE
  5
111
330
5
100
AcDbSymbolTableRecord
100
AcDbLinetypeTableRecord
  2
BYLAYER
 70
     0
  3

 72
    65
 73
     0
 40
0.0
  0
LTYPE
  5
112
330
5
100
AcDbSymbolTableRecord
100
AcDbLinetypeTableRecord
  2
CONTINUOUS
 70
    64
  3
solid line
 72
    65
 73
     0
 40
0.0
  0
LTYPE
  5
113
330
0
100
AcDbSymbolTableRecord
100
AcDbLinetypeTableRecord
  2
CENTER
 70
    64
  3
--- - --- - --- - --- - --- - 
 72
    65
 73
     4
 40
4.0
 49
2.0
 74
     0
 49
-0.6666666666666666
 74
     0
 49
0.6666666666666666
 74
     0
 49
-0.6666666666666666
 74
     0
  0
ENDTAB
  0
TABLE
  2
LAYER
  5
2
330
0
100
AcDbSymbolTable
 70
    20
  0
LAYER
  5
114
330
2
100
AcDbSymbolTableRecord
100
AcDbLayerTableRecord
  2
0
 70
    64
 62
     7
  6
CONTINUOUS
370
    -3
390
10B
  0
ENDTAB
  0
TABLE
  2
STYLE
  5
3
330
0
100
AcDbSymbolTable
 70
     4
  0
STYLE
  5
115
330
3
100
AcDbSymbolTableRecord
100
AcDbTextStyleTableRecord
  2
BIGFONT
 70
    64
 40
0.0
 41
1.0
 50
0.0
 71
     0
 42
2.0
  3
txt
  4
bigfont
  0
STYLE
  5
116
330
3
100
AcDbSymbolTableRecord
100
AcDbTextStyleTableRecord
  2
STANDARD
 70
    64
 40
0.0
 41
1.052631578947368
 50
0.0
 71
     0
 42
2.0
  3
monotxt
  4

  0
ENDTAB
  0
TABLE
  2
VIEW
  5
6
330
0
100
AcDbSymbolTable
 70
     0
  0
ENDTAB
  0
TABLE
  2
UCS
  5
7
330
0
100
AcDbSymbolTable
 70
     0
  0
ENDTAB
  0
TABLE
  2
APPID
  5
9
330
0
100
AcDbSymbolTable
 70
     1
  0
APPID
  5
117
330
9
100
AcDbSymbolTableRecord
100
AcDbRegAppTableRecord
  2
ACAD
 70
     0
  0
ENDTAB
  0
TABLE
  2
DIMSTYLE
  5
A
330
0
100
AcDbSymbolTable
 70
     8
100
AcDbDimStyleTable
 71
     0
  0
DIMSTYLE
105
118
330
A
100
AcDbSymbolTableRecord
100
AcDbDimStyleTableRecord
  2
ISO-25
 70
     0
  3

  4

  5

  6

  7

 40
1.0
 41
3.0
 42
1.0
 43
5.0
 44
2.0
 45
0.0
 46
5.0
 47
0.0
 48
0.0
140
3.0
141
2.0
142
0.0
143
25.4
144
1.0
145
1.0
146
1.0
147
0.5
 71
     0
 72
     0
 73
     0
 74
     0
 75
     0
 76
     0
 77
     1
 78
     8
170
     0
171
     0
172
     1
173
     0
174
     0
175
     0
176
     0
177
     0
178
     0
270
     2
271
     3
272
     3
273
     8
274
     4
340
116
275
     0
280
     0
281
     0
282
     0
283
     1
284
     1
285
     0
286
     0
287
     3
288
     0
  0
DIMSTYLE
105
119
330
A
100
AcDbSymbolTableRecord
100
AcDbDimStyleTableRecord
  2
ISO-25 1.5
 70
     0
  3

  4

  5

  6

  7

 40
1.0
 41
2.0
 42
0.6666666666666666
 43
3.333333333333333
 44
1.333333333333333
 45
0.0
 46
3.333333333333333
 47
0.0
 48
0.0
140
2.0
141
1.333333333333333
142
0.0
143
25.4
144
1.0
145
1.0
146
1.0
147
0.3333333333333333
 71
     0
 72
     0
 73
     0
 74
     0
 75
     0
 76
     0
 77
     1
 78
     8
170
     0
171
     0
172
     1
173
     0
174
     0
175
     0
176
     0
177
     0
178
     0
270
     2
271
     3
272
     3
273
     8
274
     4
340
116
275
     0
280
     0
281
     0
282
     0
283
     1
284
     1
285
     0
286
     0
287
     3
288
     0
  0
ENDTAB
  0
TABLE
  2
BLOCK_RECORD
  5
1
330
0
100
AcDbSymbolTable
 70
     2
  0
BLOCK_RECORD
  5
20
330
1
100
AcDbSymbolTableRecord
100
AcDbBlockTableRecord
  2
*MODEL_SPACE
340
10C
  0
BLOCK_RECORD
  5
22
330
1
100
AcDbSymbolTableRecord
100
AcDbBlockTableRecord
  2
*PAPER_SPACE
340
0
  0
BLOCK_RECORD
  5
39
330
1
100
AcDbSymbolTableRecord
100
AcDbBlockTableRecord
  2
COMP1
340
0
102
{BLKREFS
331
3A
102
}
  0
BLOCK_RECORD
  5
DF
330
1
100
AcDbSymbolTableRecord
100
AcDbBlockTableRecord
  2
COMP2
340
0
102
{BLKREFS
331
E0
102
}
  0
ENDTAB
  0
ENDSEC
  0
SECTION
  2
BLOCKS
  0
BLOCK
  5
21
330
20
100
AcDbEntity
  8
0
100
AcDbBlockBegin
  2
*MODEL_SPACE
 70
     0
 10
0.0
 20
0.0
 30
0.0
  3
*MODEL_SPACE
  1

  0
ENDBLK
  5
10D
330
20
100
AcDbEntity
  8
0
100
AcDbBlockEnd
  0
BLOCK
  5
23
330
22
100
AcDbEntity
 67
     1
  8
0
100
AcDbBlockBegin
  2
*PAPER_SPACE
 70
     0
 10
0.0
 20
0.0
 30
0.0
  3
*PAPER_SPACE
  1

  0
ENDBLK
  5
10E
330
22
100
AcDbEntity
 67
     1
  8
0
100
AcDbBlockEnd
  0
BLOCK
  5
3B
330
39
100
AcDbEntity
  8
0
100
AcDbBlockBegin
  2
COMP1
 70
    64
 10
0.0
 20
0.0
  0
LINE
  5
3C
330
39
100
AcDbEntity
  8
0
  6
CONTINUOUS
370
     0
 62
     1
100
AcDbLine
 10
3.5
 20
3.690592123988564
 11
3.689500000000002
 21
3.8
  0
LINE
  5
3D
330
39
100
AcDbEntity
  8
0
  6
CONTINUOUS
370
     0
 62
     1
100
AcDbLine
 10
3.689500000000002
 20
3.8
 11
6.310500000000001
 21
3.8
  0
LINE
  5
3E
330
39
100
AcDbEntity
  8
0
  6
CONTINUOUS
370
     0
 62
     1
100
AcDbLine
 10
6.310500000000001
 20
3.8
 11
6.5
 21
3.690592123988568
  0
LINE
  5
3F
330
39
100
AcDbEntity
  8
0
  6
CONTINUOUS
370
     0
 62
     1
100
AcDbLine
 10
6.5
 20
3.690592123988568
 11
6.5
 21
0.9094078760114331
  0
LINE
  5
40
330
39
100
AcDbEntity
  8
0
  6
CONTINUOUS
370
     0
 62
     1
100
AcDbLine
 10
6.310500000000003
 20
0.7999999999999999
 11
6.5
 21
0.9094078760114331
  0
LINE
  5
41
330
39
100
AcDbEntity
  8
0
  6
CONTINUOUS
370
     0
 62
     1
100
AcDbLine
 10
3.689500000000001
 20
0.7999999999999999
 11
6.310500000000003
 21
0.7999999999999999
  0
LINE
  5
42
330
39
100
AcDbEntity
  8
0
  6
CONTINUOUS
370
     0
 62
     1
100
AcDbLine
 10
3.5
 20
0.9094078760114349
 11
3.689500000000001
 21
0.7999999999999999
  0
LINE
  5
43
330
39
100
AcDbEntity
  8
0
  6
CONTINUOUS
370
     0
 62
     1
100
AcDbLine
 10
3.5
 20
3.690592123988564
 11
3.5
 21
0.9094078760114349
  0
LINE
  5
44
330
39
100
AcDbEntity
  8
0
  6
CONTINUOUS
370
     0
 62
     1
100
AcDbLine
 10
6.310500000000001
 20
3.8
 11
6.310500000000001
 21
0.7999999999999999
  0
LINE
  5
45
330
39
100
AcDbEntity
  8
0
  6
CONTINUOUS
370
     0
 62
     1
100
AcDbLine
 10
3.689499999999999
 20
3.8
 11
3.689499999999999
 21
0.7999999999999999
  0
LINE
  5
46
330
39
100
AcDbEntity
  8
0
  6
CONTINUOUS
370
     0
 62
     1
100
AcDbLine
 10
3.5
 20
3.690592123988564
 11
6.5
 21
3.690592123988568
  0
LINE
  5
47
330
39
100
AcDbEntity
  8
0
  6
CONTINUOUS
370
     0
 62
     1
100
AcDbLine
 10
6.5
 20
0.9094078760114331
 11
3.5
 21
0.9094078760114349
  0
ENDBLK
  5
48
330
39
100
AcDbEntity
  8
0
100
AcDbBlockEnd
  0
BLOCK
  5
E1
330
DF
100
AcDbEntity
  8
0
100
AcDbBlockBegin
  2
COMP2
 70
    64
 10
0.0
 20
0.0
  0
LINE
  5
E2
330
DF
100
AcDbEntity
  8
0
  6
CONTINUOUS
370
     0
 62
     1
100
AcDbLine
 10
73.68950000000001
 20
6.200000000000006
 11
76.31050000000001
 21
6.200000000000006
  0
LINE
  5
E3
330
DF
100
AcDbEntity
  8
0
  6
CONTINUOUS
370
     0
 62
     1
100
AcDbLine
 10
76.31050000000001
 20
6.200000000000006
 11
76.5
 21
6.090592123988573
  0
LINE
  5
E4
330
DF
100
AcDbEntity
  8
0
  6
CONTINUOUS
370
     0
 62
     1
100
AcDbLine
 10
73.5
 20
6.09059212398857
 11
76.5
 21
6.090592123988573
  0
LINE
  5
E5
330
DF
100
AcDbEntity
  8
0
  6
CONTINUOUS
370
     0
 62
     1
100
AcDbLine
 10
76.31050000000001
 20
6.200000000000006
 11
76.31050000000001
 21
0.2000000000000057
  0
LINE
  5
E6
330
DF
100
AcDbEntity
  8
0
  6
CONTINUOUS
370
     0
 62
     1
100
AcDbLine
 10
76.5
 20
6.090592123988573
 11
76.5
 21
0.3094078760114389
  0
LINE
  5
E7
330
DF
100
AcDbEntity
  8
0
  6
CONTINUOUS
370
     0
 62
     1
100
AcDbLine
 10
73.5
 20
6.09059212398857
 11
73.68950000000001
 21
6.200000000000006
  0
LINE
  5
E8
330
DF
100
AcDbEntity
  8
0
  6
CONTINUOUS
370
     0
 62
     1
100
AcDbLine
 10
73.6895
 20
6.200000000000006
 11
73.6895
 21
0.2000000000000057
  0
LINE
  5
E9
330
DF
100
AcDbEntity
  8
0
  6
CONTINUOUS
370
     0
 62
     1
100
AcDbLine
 10
73.5
 20
6.09059212398857
 11
73.5
 21
0.3094078760114407
  0
LINE
  5
EA
330
DF
100
AcDbEntity
  8
0
  6
CONTINUOUS
370
     0
 62
     1
100
AcDbLine
 10
73.6895
 20
0.2000000000000057
 11
76.31050000000001
 21
0.2000000000000057
  0
LINE
  5
EB
330
DF
100
AcDbEntity
  8
0
  6
CONTINUOUS
370
     0
 62
     1
100
AcDbLine
 10
76.5
 20
0.3094078760114389
 11
73.5
 21
0.3094078760114407
  0
LINE
  5
EC
330
DF
100
AcDbEntity
  8
0
  6
CONTINUOUS
370
     0
 62
     1
100
AcDbLine
 10
76.31050000000001
 20
0.2000000000000057
 11
76.5
 21
0.3094078760114389
  0
LINE
  5
ED
330
DF
100
AcDbEntity
  8
0
  6
CONTINUOUS
370
     0
 62
     1
100
AcDbLine
 10
73.5
 20
0.3094078760114407
 11
73.6895
 21
0.2000000000000057
  0
ENDBLK
  5
EE
330
DF
100
AcDbEntity
  8
0
100
AcDbBlockEnd
  0
ENDSEC
  0
SECTION
  2
ENTITIES
  0
LINE
  5
24
330
20
100
AcDbEntity
  8
0
  6
CONTINUOUS
370
     0
 62
     1
100
AcDbLine
 10
-9.199999999999999
 20
0.0
 11
19.2
 21
0.0
  0
LINE
  5
25
330
20
100
AcDbEntity
  8
0
  6
CONTINUOUS
370
     0
 62
     1
100
AcDbLine
 10
-9.5
 20
0.299999999999997
 11
-9.5
 21
8.199999999999999
  0
LINE
  5
26
330
20
100
AcDbEntity
  8
0
  6
CONTINUOUS
370
     0
 62
     1
100
AcDbLine
 10
19.5
 20
0.299999999999997
 11
19.5
 21
8.199999999999999
  0
LINE
  5
27
330
20
100
AcDbEntity
  8
0
  6
CONTINUOUS
370
     0
 62
     1
100
AcDbLine
 10
19.2
 20
8.5
 11
19.5
 21
8.199999999999999
  0
LINE
  5
28
330
20
100
AcDbEntity
  8
0
  6
CONTINUOUS
370
     0
 62
     1
100
AcDbLine
 10
-9.199999999999999
 20
8.5
 11
-9.5
 21
8.199999999999999
  0
LINE
  5
29
330
20
100
AcDbEntity
  8
0
  6
CONTINUOUS
370
     0
 62
     1
100
AcDbLine
 10
19.5
 20
0.299999999999997
 11
19.2
 21
0.0
  0
LINE
  5
2A
330
20
100
AcDbEntity
  8
0
  6
CONTINUOUS
370
     0
 62
     1
100
AcDbLine
 10
-9.199999999999999
 20
0.0
 11
-9.5
 21
0.299999999999997
  0
LINE
  5
2B
330
20
100
AcDbEntity
  8
0
  6
CONTINUOUS
370
     0
 62
     1
100
AcDbLine
 10
2.545392621945721
 20
4.000000000000001
 11
7.454607378053677
 21
4.0
  0
LINE
  5
2C
330
20
100
AcDbEntity
  8
0
  6
CONTINUOUS
370
     0
 62
     1
100
AcDbLine
 10
-9.199999999999999
 20
8.5
 11
19.2
 21
8.5
  0
LINE
  5
2D
330
20
100
AcDbEntity
  8
0
  6
CENTER
370
     0
 62
     1
100
AcDbLine
 10
5.0
 20
-2.5
 11
5.0
 21
12.0
  0
LINE
  5
2E
330
20
100
AcDbEntity
  8
0
  6
CONTINUOUS
370
     0
 62
     1
100
AcDbLine
 10
2.5
 20
3.5
 11
7.5
 21
3.5
  0
LINE
  5
2F
330
20
100
AcDbEntity
  8
0
  6
CONTINUOUS
370
     0
 62
     1
100
AcDbLine
 10
-0.855862294347423
 20
0.2000000000000026
 11
10.85586229434732
 21
0.200000000000002
  0
LINE
  5
30
330
20
100
AcDbEntity
  8
0
  6
CONTINUOUS
370
     0
 62
     1
100
AcDbLine
 10
2.5
 20
3.5
 11
2.5
 21
2.5
  0
LINE
  5
31
330
20
100
AcDbEntity
  8
0
  6
CONTINUOUS
370
     0
 62
     1
100
AcDbLine
 10
7.5
 20
3.5
 11
7.5
 21
2.5
  0
LINE
  5
32
330
20
100
AcDbEntity
  8
0
  6
CONTINUOUS
370
     0
 62
     1
100
AcDbLine
 10
7.5
 20
2.5
 11
9.042880924449422
 21
2.5
  0
LINE
  5
33
330
20
100
AcDbEntity
  8
0
  6
CONTINUOUS
370
     0
 62
     1
100
AcDbLine
 10
0.9571190755499694
 20
2.5
 11
2.5
 21
2.5
  0
LINE
  5
34
330
20
100
AcDbEntity
  8
0
  6
CONTINUOUS
370
     0
 62
     1
100
AcDbLine
 10
6.310500000000001
 20
3.5
 11
6.310500000000001
 21
0.2000000000000028
  0
LINE
  5
35
330
20
100
AcDbEntity
  8
0
  6
CONTINUOUS
370
     0
 62
     1
100
AcDbLine
 10
3.689499999999999
 20
3.5
 11
3.689499999999999
 21
0.2000000000000028
  0
LINE
  5
36
330
20
100
AcDbEntity
  8
0
  6
CONTINUOUS
370
     0
 62
     1
100
AcDbLine
 10
3.5
 20
3.5
 11
3.5
 21
0.2000000000000028
  0
LINE
  5
37
330
20
100
AcDbEntity
  8
0
  6
CONTINUOUS
370
     0
 62
     1
100
AcDbLine
 10
6.5
 20
3.5
 11
6.5
 21
0.2000000000000028
  0
SPLINE
  5
38
330
20
100
AcDbEntity
  8
0
  6
CONTINUOUS
370
     0
 62
     1
100
AcDbSpline
210
0.0
220
0.0
230
1.0
 70
     8
 71
     3
 72
     9
 73
     5
 74
     0
 42
1.000000000000000E-007
 43
1.000000000000000E-007
 40
0.0
 40
0.0
 40
0.0
 40
0.0
 40
8.061728766817767
 40
16.12345753363577
 40
16.12345753363577
 40
16.12345753363577
 40
16.12345753363577
 10
-1.0
 20
0.0
 30
0.0
 10
0.1999999999992497
 20
1.666666666666761
 30
0.0
 10
5.0
 20
8.333333333333334
 30
0.0
 10
9.799999999999812
 20
1.66666666666669
 30
0.0
 10
11.0
 20
0.0
 30
0.0
  0
INSERT
  5
3A
330
20
100
AcDbEntity
  8
0
  6
CONTINUOUS
370
     0
 62
     1
100
AcDbBlockReference
  2
COMP1
 10
0.0
 20
0.0
 41
1.0
 42
1.0
 50
0.0
  0
ARC
  5
49
330
20
100
AcDbEntity
  8
0
  6
CONTINUOUS
370
     0
 62
     1
100
AcDbCircle
 10
5.0
 20
8.5
 40
1.0
100
AcDbArc
 50
0.0
 51
180.0
  0
LINE
  5
4A
330
20
100
AcDbEntity
  8
0
  6
CONTINUOUS
370
     0
 62
     1
100
AcDbLine
 10
19.5
 20
6.0
 11
24.5
 21
6.0
  0
LINE
  5
4B
330
20
100
AcDbEntity
  8
0
  6
CONTINUOUS
370
     0
 62
     1
100
AcDbLine
 10
19.5
 20
3.5
 11
24.5
 21
3.5
  0
LINE
  5
4C
330
20
100
AcDbEntity
  8
0
  6
CONTINUOUS
370
     0
 62
     1
100
AcDbLine
 10
24.5
 20
6.0
 11
24.5
 21
3.5
  0
LINE
  5
4D
330
20
100
AcDbEntity
  8
0
  6
CONTINUOUS
370
     0
 62
     1
100
AcDbLine
 10
24.5
 20
5.65
 11
30.0
 21
5.65
  0
LINE
  5
4E
330
20
100
AcDbEntity
  8
0
  6
CONTINUOUS
370
     0
 62
     1
100
AcDbLine
 10
24.5
 20
3.85
 11
30.0
 21
3.85
  0
LINE
  5
4F
330
20
100
AcDbEntity
  8
0
  6
CENTER
370
     0
 62
     1
100
AcDbLine
 10
14.5
 20
4.75
 11
32.2301481136942
 21
4.75
  0
POLYLINE
  5
50
330
20
100
AcDbEntity
  8
0
  6
CONTINUOUS
370
     0
 62
     1
100
AcDb2dPolyline
 66
     1
 10
0.0
 20
0.0
 70
     0
 40
0.0
 41
0.0
  0
VERTEX
  5
51
330
20
100
AcDbEntity
  8
0
100
AcDbVertex
100
AcDb2dVertex
 10
30.0
 20
5.65
  0
VERTEX
  5
52
330
20
100
AcDbEntity
  8
0
100
AcDbVertex
100
AcDb2dVertex
 10
30.16305654659421
 20
5.398940220436389
  0
VERTEX
  5
53
330
20
100
AcDbEntity
  8
0
100
AcDbVertex
100
AcDb2dVertex
 10
30.225
 20
5.19999999999997
  0
VERTEX
  5
54
330
20
100
AcDbEntity
  8
0
100
AcDbVertex
100
AcDb2dVertex
 10
30.18004212341837
 20
5.000691564253372
  0
VERTEX
  5
55
330
20
100
AcDbEntity
  8
0
100
AcDbVertex
100
AcDb2dVertex
 10
30.0
 20
4.74999999999998
  0
VERTEX
  5
56
330
20
100
AcDbEntity
  8
0
100
AcDbVertex
100
AcDb2dVertex
 10
29.81995787658161
 20
4.499308435746566
  0
VERTEX
  5
57
330
20
100
AcDbEntity
  8
0
100
AcDbVertex
100
AcDb2dVertex
 10
29.775
 20
4.299999999999979
  0
VERTEX
  5
58
330
20
100
AcDbEntity
  8
0
100
AcDbVertex
100
AcDb2dVertex
 10
29.83694345340582
 20
4.101059779563479
  0
VERTEX
  5
59
330
20
100
AcDbEntity
  8
0
100
AcDbVertex
100
AcDb2dVertex
 10
30.0
 20
3.84999999999999
  0
SEQEND
  5
5A
330
20
100
AcDbEntity
  8
0
  0
SPLINE
  5
5B
330
20
100
AcDbEntity
  8
0
  6
CONTINUOUS
370
     0
 62
     1
100
AcDbSpline
210
0.0
220
0.0
230
1.0
 70
     8
 71
     3
 72
     9
 73
     5
 74
     0
 42
1.000000000000000E-007
 43
1.000000000000000E-007
 40
0.0
 40
0.0
 40
0.0
 40
0.0
 40
0.513060563550198
 40
1.026121127100426
 40
1.026121127100426
 40
1.026121127100426
 40
1.026121127100426
 10
30.0
 20
3.84999999999999
 30
0.0
 10
30.075
 20
3.93999999999993
 30
0.0
 10
30.375
 20
4.299999999999986
 30
0.0
 10
30.075
 20
4.65999999999998
 30
0.0
 10
30.0
 20
4.74999999999999
 30
0.0
  0
CIRCLE
  5
5C
330
20
100
AcDbEntity
  8
0
  6
CONTINUOUS
370
     0
 62
     1
100
AcDbCircle
 10
5.0
 20
-27.5
 40
14.5
  0
CIRCLE
  5
5D
330
20
100
AcDbEntity
  8
0
  6
CONTINUOUS
370
     0
 62
     1
100
AcDbCircle
 10
5.0
 20
-27.5
 40
10.0
  0
LINE
  5
5E
330
20
100
AcDbEntity
  8
0
  6
CENTER
370
     0
 62
     1
100
AcDbLine
 10
17.0208152801713
 20
-39.52081528017131
 11
-7.0208152801713
 21
-15.4791847198287
  0
CIRCLE
  5
5F
330
20
100
AcDbEntity
  8
0
  6
CENTER
370
     0
 62
     1
100
AcDbCircle
 10
5.0
 20
-27.5
 40
12.0
  0
CIRCLE
  5
60
330
20
100
AcDbEntity
  8
0
  6
CONTINUOUS
370
     0
 62
     1
100
AcDbCircle
 10
13.48528137423857
 20
-35.98528137423857
 40
1.5
  0
CIRCLE
  5
61
330
20
100
AcDbEntity
  8
0
  6
CONTINUOUS
370
     0
 62
     1
100
AcDbCircle
 10
13.48528137423857
 20
-35.98528137423857
 40
1.2295
  0
CIRCLE
  5
62
330
20
100
AcDbEntity
  8
0
  6
CONTINUOUS
370
     0
 62
     1
100
AcDbCircle
 10
13.48528137423857
 20
-19.01471862576143
 40
1.2295
  0
CIRCLE
  5
63
330
20
100
AcDbEntity
  8
0
  6
CONTINUOUS
370
     0
 62
     1
100
AcDbCircle
 10
13.48528137423857
 20
-19.01471862576143
 40
1.5
  0
CIRCLE
  5
64
330
20
100
AcDbEntity
  8
0
  6
CONTINUOUS
370
     0
 62
     1
100
AcDbCircle
 10
-3.48528137423857
 20
-19.01471862576143
 40
1.2295
  0
CIRCLE
  5
65
330
20
100
AcDbEntity
  8
0
  6
CONTINUOUS
370
     0
 62
     1
100
AcDbCircle
 10
-3.48528137423857
 20
-19.01471862576143
 40
1.5
  0
CIRCLE
  5
66
330
20
100
AcDbEntity
  8
0
  6
CONTINUOUS
370
     0
 62
     1
100
AcDbCircle
 10
-3.48528137423857
 20
-35.98528137423857
 40
1.2295
  0
CIRCLE
  5
67
330
20
100
AcDbEntity
  8
0
  6
CONTINUOUS
370
     0
 62
     1
100
AcDbCircle
 10
-3.48528137423857
 20
-35.98528137423857
 40
1.5
  0
LINE
  5
68
330
20
100
AcDbEntity
  8
0
  6
CENTER
370
     0
 62
     1
100
AcDbLine
 10
17.0208152801713
 20
-15.4791847198287
 11
-7.0208152801713
 21
-39.52081528017131
  0
CIRCLE
  5
69
330
20
100
AcDbEntity
  8
0
  6
CONTINUOUS
370
     0
 62
     1
100
AcDbCircle
 10
5.0
 20
-27.5
 40
1.5
  0
CIRCLE
  5
6A
330
20
100
AcDbEntity
  8
0
  6
CONTINUOUS
370
     0
 62
     1
100
AcDbCircle
 10
5.0
 20
-27.5
 40
1.3105
  0
CIRCLE
  5
6B
330
20
100
AcDbEntity
  8
0
  6
CONTINUOUS
370
     0
 62
     1
100
AcDbCircle
 10
11.06217782649107
 20
-24.0
 40
1.0
  0
CIRCLE
  5
6C
330
20
100
AcDbEntity
  8
0
  6
CONTINUOUS
370
     0
 62
     1
100
AcDbCircle
 10
-1.062177826491071
 20
-31.0
 40
1.0
  0
LINE
  5
6D
330
20
100
AcDbEntity
  8
0
  6
CONTINUOUS
370
     0
 62
     1
100
AcDbLine
 10
19.4460202131937
 20
-26.25
 11
24.5
 21
-26.25
  0
LINE
  5
6E
330
20
100
AcDbEntity
  8
0
  6
CONTINUOUS
370
     0
 62
     1
100
AcDbLine
 10
19.4460202131937
 20
-28.75
 11
24.5
 21
-28.75
  0
LINE
  5
6F
330
20
100
AcDbEntity
  8
0
  6
CONTINUOUS
370
     0
 62
     1
100
AcDbLine
 10
24.5
 20
-26.25
 11
24.5
 21
-28.75
  0
LINE
  5
70
330
20
100
AcDbEntity
  8
0
  6
CONTINUOUS
370
     0
 62
     1
100
AcDbLine
 10
24.5
 20
-26.6
 11
30.0
 21
-26.6
  0
LINE
  5
71
330
20
100
AcDbEntity
  8
0
  6
CONTINUOUS
370
     0
 62
     1
100
AcDbLine
 10
24.5
 20
-28.4
 11
30.0
 21
-28.4
  0
POLYLINE
  5
72
330
20
100
AcDbEntity
  8
0
  6
CONTINUOUS
370
     0
 62
     1
100
AcDb2dPolyline
 66
     1
 10
0.0
 20
0.0
 70
     0
 40
0.0
 41
0.0
  0
VERTEX
  5
73
330
20
100
AcDbEntity
  8
0
100
AcDbVertex
100
AcDb2dVertex
 10
30.0
 20
-26.6
  0
VERTEX
  5
74
330
20
100
AcDbEntity
  8
0
100
AcDbVertex
100
AcDb2dVertex
 10
30.16305654659421
 20
-26.85105977956361
  0
VERTEX
  5
75
330
20
100
AcDbEntity
  8
0
100
AcDbVertex
100
AcDb2dVertex
 10
30.225
 20
-27.05000000000003
  0
VERTEX
  5
76
330
20
100
AcDbEntity
  8
0
100
AcDbVertex
100
AcDb2dVertex
 10
30.18004212341837
 20
-27.24930843574663
  0
VERTEX
  5
77
330
20
100
AcDbEntity
  8
0
100
AcDbVertex
100
AcDb2dVertex
 10
30.0
 20
-27.50000000000002
  0
VERTEX
  5
78
330
20
100
AcDbEntity
  8
0
100
AcDbVertex
100
AcDb2dVertex
 10
29.81995787658162
 20
-27.75069156425343
  0
VERTEX
  5
79
330
20
100
AcDbEntity
  8
0
100
AcDbVertex
100
AcDb2dVertex
 10
29.775
 20
-27.95000000000002
  0
VERTEX
  5
7A
330
20
100
AcDbEntity
  8
0
100
AcDbVertex
100
AcDb2dVertex
 10
29.83694345340582
 20
-28.14894022043652
  0
VERTEX
  5
7B
330
20
100
AcDbEntity
  8
0
100
AcDbVertex
100
AcDb2dVertex
 10
30.0
 20
-28.40000000000001
  0
SEQEND
  5
7C
330
20
100
AcDbEntity
  8
0
  0
SPLINE
  5
7D
330
20
100
AcDbEntity
  8
0
  6
CONTINUOUS
370
     0
 62
     1
100
AcDbSpline
210
0.0
220
0.0
230
1.0
 70
     8
 71
     3
 72
     9
 73
     5
 74
     0
 42
1.000000000000000E-007
 43
1.000000000000000E-007
 40
0.0
 40
0.0
 40
0.0
 40
0.0
 40
0.5130605635501954
 40
1.02612112710045
 40
1.02612112710045
 40
1.02612112710045
 40
1.02612112710045
 10
30.0
 20
-28.40000000000001
 30
0.0
 10
30.075
 20
-28.31000000000007
 30
0.0
 10
30.37499999999999
 20
-27.95000000000001
 30
0.0
 10
30.075
 20
-27.59000000000002
 30
0.0
 10
30.0
 20
-27.50000000000001
 30
0.0
  0
CIRCLE
  5
7E
330
20
100
AcDbEntity
  8
0
  6
CONTINUOUS
370
     0
 62
     1
100
AcDbCircle
 10
5.0
 20
-67.50000000000001
 40
14.5
  0
CIRCLE
  5
7F
330
20
100
AcDbEntity
  8
0
  6
CONTINUOUS
370
     0
 62
     1
100
AcDbCircle
 10
5.0
 20
-67.50000000000001
 40
10.0
  0
LINE
  5
80
330
20
100
AcDbEntity
  8
0
  6
CENTER
370
     0
 62
     1
100
AcDbLine
 10
21.29993549275928
 20
-62.67173914003333
 11
-11.29993549275929
 21
-72.32826085996669
  0
CIRCLE
  5
81
330
20
100
AcDbEntity
  8
0
  6
CENTER
370
     0
 62
     1
100
AcDbCircle
 10
5.0
 20
-67.50000000000001
 40
12.0
  0
CIRCLE
  5
82
330
20
100
AcDbEntity
  8
0
  6
CONTINUOUS
370
     0
 62
     1
100
AcDbCircle
 10
16.50583681841831
 20
-64.09181586355294
 40
1.5
  0
CIRCLE
  5
83
330
20
100
AcDbEntity
  8
0
  6
CONTINUOUS
370
     0
 62
     1
100
AcDbCircle
 10
16.50583681841831
 20
-64.09181586355294
 40
1.2295
  0
CIRCLE
  5
84
330
20
100
AcDbEntity
  8
0
  6
CONTINUOUS
370
     0
 62
     1
100
AcDbCircle
 10
1.591815863552927
 20
-55.99416318158169
 40
1.2295
  0
CIRCLE
  5
85
330
20
100
AcDbEntity
  8
0
  6
CONTINUOUS
370
     0
 62
     1
100
AcDbCircle
 10
1.591815863552927
 20
-55.99416318158169
 40
1.5
  0
CIRCLE
  5
86
330
20
100
AcDbEntity
  8
0
  6
CONTINUOUS
370
     0
 62
     1
100
AcDbCircle
 10
-6.50583681841832
 20
-70.90818413644708
 40
1.2295
  0
CIRCLE
  5
87
330
20
100
AcDbEntity
  8
0
  6
CONTINUOUS
370
     0
 62
     1
100
AcDbCircle
 10
-6.50583681841832
 20
-70.90818413644708
 40
1.5
  0
CIRCLE
  5
88
330
20
100
AcDbEntity
  8
0
  6
CONTINUOUS
370
     0
 62
     1
100
AcDbCircle
 10
8.408184136447071
 20
-79.00583681841833
 40
1.2295
  0
CIRCLE
  5
89
330
20
100
AcDbEntity
  8
0
  6
CONTINUOUS
370
     0
 62
     1
100
AcDbCircle
 10
8.408184136447071
 20
-79.00583681841833
 40
1.5
  0
LINE
  5
8A
330
20
100
AcDbEntity
  8
0
  6
CENTER
370
     0
 62
     1
100
AcDbLine
 10
0.1717391400333135
 20
-51.20006450724073
 11
9.828260859966683
 21
-83.79993549275929
  0
CIRCLE
  5
8B
330
20
100
AcDbEntity
  8
0
  6
CONTINUOUS
370
     0
 62
     1
100
AcDbCircle
 10
5.0
 20
-67.5
 40
1.5
  0
CIRCLE
  5
8C
330
20
100
AcDbEntity
  8
0
  6
CONTINUOUS
370
     0
 62
     1
100
AcDbCircle
 10
5.0
 20
-67.5
 40
1.3105
  0
LINE
  5
8D
330
20
100
AcDbEntity
  8
0
  6
CONTINUOUS
370
     0
 62
     1
100
AcDbLine
 10
19.4460202131937
 20
-68.75
 11
24.5
 21
-68.75
  0
LINE
  5
8E
330
20
100
AcDbEntity
  8
0
  6
CONTINUOUS
370
     0
 62
     1
100
AcDbLine
 10
24.5
 20
-66.25
 11
24.5
 21
-68.75
  0
LINE
  5
8F
330
20
100
AcDbEntity
  8
0
  6
CONTINUOUS
370
     0
 62
     1
100
AcDbLine
 10
24.5
 20
-68.40000000000001
 11
30.0
 21
-68.40000000000001
  0
POLYLINE
  5
90
330
20
100
AcDbEntity
  8
0
  6
CONTINUOUS
370
     0
 62
     1
100
AcDb2dPolyline
 66
     1
 10
0.0
 20
0.0
 70
     0
 40
0.0
 41
0.0
  0
VERTEX
  5
91
330
20
100
AcDbEntity
  8
0
100
AcDbVertex
100
AcDb2dVertex
 10
30.0
 20
-66.59999999999999
  0
VERTEX
  5
92
330
20
100
AcDbEntity
  8
0
100
AcDbVertex
100
AcDb2dVertex
 10
30.16305654659421
 20
-66.85105977956361
  0
VERTEX
  5
93
330
20
100
AcDbEntity
  8
0
100
AcDbVertex
100
AcDb2dVertex
 10
30.225
 20
-67.05000000000003
  0
VERTEX
  5
94
330
20
100
AcDbEntity
  8
0
100
AcDbVertex
100
AcDb2dVertex
 10
30.18004212341837
 20
-67.24930843574663
  0
VERTEX
  5
95
330
20
100
AcDbEntity
  8
0
100
AcDbVertex
100
AcDb2dVertex
 10
30.0
 20
-67.50000000000003
  0
VERTEX
  5
96
330
20
100
AcDbEntity
  8
0
100
AcDbVertex
100
AcDb2dVertex
 10
29.81995787658162
 20
-67.75069156425343
  0
VERTEX
  5
97
330
20
100
AcDbEntity
  8
0
100
AcDbVertex
100
AcDb2dVertex
 10
29.775
 20
-67.95000000000002
  0
VERTEX
  5
98
330
20
100
AcDbEntity
  8
0
100
AcDbVertex
100
AcDb2dVertex
 10
29.83694345340582
 20
-68.14894022043653
  0
VERTEX
  5
99
330
20
100
AcDbEntity
  8
0
100
AcDbVertex
100
AcDb2dVertex
 10
30.0
 20
-68.40000000000001
  0
SEQEND
  5
9A
330
20
100
AcDbEntity
  8
0
  0
SPLINE
  5
9B
330
20
100
AcDbEntity
  8
0
  6
CONTINUOUS
370
     0
 62
     1
100
AcDbSpline
210
0.0
220
0.0
230
1.0
 70
     8
 71
     3
 72
     9
 73
     5
 74
     0
 42
1.000000000000000E-007
 43
1.000000000000000E-007
 40
0.0
 40
0.0
 40
0.0
 40
0.0
 40
0.5130605635501919
 40
1.026121127100417
 40
1.026121127100417
 40
1.026121127100417
 40
1.026121127100417
 10
30.0
 20
-68.40000000000001
 30
0.0
 10
30.075
 20
-68.31000000000007
 30
0.0
 10
30.375
 20
-67.95000000000002
 30
0.0
 10
30.075
 20
-67.59000000000002
 30
0.0
 10
30.0
 20
-67.50000000000001
 30
0.0
  0
LINE
  5
9C
330
20
100
AcDbEntity
  8
0
  6
CONTINUOUS
370
     0
 62
     1
100
AcDbLine
 10
19.4460202131937
 20
-66.25
 11
24.5
 21
-66.25
  0
LINE
  5
9D
330
20
100
AcDbEntity
  8
0
  6
CONTINUOUS
370
     0
 62
     1
100
AcDbLine
 10
24.5
 20
-66.59999999999999
 11
30.0
 21
-66.59999999999999
  0
LINE
  5
9E
330
20
100
AcDbEntity
  8
0
  6
CENTER
370
     0
 62
     1
100
AcDbLine
 10
-14.5
 20
-27.5
 11
24.5
 21
-27.5
  0
LINE
  5
9F
330
20
100
AcDbEntity
  8
0
  6
CENTER
370
     0
 62
     1
100
AcDbLine
 10
5.0
 20
-47.0
 11
5.0
 21
-8.0
  0
LINE
  5
A0
330
20
100
AcDbEntity
  8
0
  6
CENTER
370
     0
 62
     1
100
AcDbLine
 10
-14.5
 20
-67.50000000000001
 11
24.5
 21
-67.50000000000001
  0
LINE
  5
A1
330
20
100
AcDbEntity
  8
0
  6
CENTER
370
     0
 62
     1
100
AcDbLine
 10
5.0
 20
-87.00000000000001
 11
5.0
 21
-48.00000000000001
  0
CIRCLE
  5
A2
330
20
100
AcDbEntity
  8
0
  6
CONTINUOUS
370
     0
 62
     1
100
AcDbCircle
 10
11.06217782649107
 20
-64.0
 40
1.0
  0
CIRCLE
  5
A3
330
20
100
AcDbEntity
  8
0
  6
CONTINUOUS
370
     0
 62
     1
100
AcDbCircle
 10
-1.062177826491071
 20
-71.0
 40
1.0
  0
CIRCLE
  5
A4
330
20
100
AcDbEntity
  8
0
  6
CONTINUOUS
370
     0
 62
     1
100
AcDbCircle
 10
75.0
 20
-27.5
 40
17.0
  0
CIRCLE
  5
A5
330
20
100
AcDbEntity
  8
0
  6
CENTER
370
     0
 62
     1
100
AcDbCircle
 10
75.0
 20
-27.5
 40
13.75
  0
CIRCLE
  5
A6
330
20
100
AcDbEntity
  8
0
  6
CONTINUOUS
370
     0
 62
     1
100
AcDbCircle
 10
62.29665642796981
 20
-32.76189719501998
 40
2.0
  0
CIRCLE
  5
A7
330
20
100
AcDbEntity
  8
0
  6
CONTINUOUS
370
     0
 62
     1
100
AcDbCircle
 10
69.73810280498002
 20
-14.79665642796982
 40
2.0
  0
CIRCLE
  5
A8
330
20
100
AcDbEntity
  8
0
  6
CONTINUOUS
370
     0
 62
     1
100
AcDbCircle
 10
87.70334357203019
 20
-22.23810280498002
 40
2.0
  0
CIRCLE
  5
A9
330
20
100
AcDbEntity
  8
0
  6
CONTINUOUS
370
     0
 62
     1
100
AcDbCircle
 10
80.26189719501998
 20
-40.20334357203019
 40
2.0
  0
CIRCLE
  5
AA
330
20
100
AcDbEntity
  8
0
  6
CONTINUOUS
370
     0
 62
     1
100
AcDbCircle
 10
62.29665642796981
 20
-32.76189719501998
 40
1.621
  0
CIRCLE
  5
AB
330
20
100
AcDbEntity
  8
0
  6
CONTINUOUS
370
     0
 62
     1
100
AcDbCircle
 10
69.73810280498002
 20
-14.79665642796982
 40
1.621
  0
CIRCLE
  5
AC
330
20
100
AcDbEntity
  8
0
  6
CONTINUOUS
370
     0
 62
     1
100
AcDbCircle
 10
87.70334357203019
 20
-22.23810280498002
 40
1.621
  0
CIRCLE
  5
AD
330
20
100
AcDbEntity
  8
0
  6
CONTINUOUS
370
     0
 62
     1
100
AcDbCircle
 10
80.26189719501998
 20
-40.20334357203019
 40
1.621
  0
CIRCLE
  5
AE
330
20
100
AcDbEntity
  8
0
  6
CONTINUOUS
370
     0
 62
     1
100
AcDbCircle
 10
75.0
 20
-27.5
 40
11.0
  0
LINE
  5
AF
330
20
100
AcDbEntity
  8
0
  6
CENTER
370
     0
 62
     1
100
AcDbLine
 10
93.0156508839701
 20
-20.03767306888075
 11
56.9843491160299
 21
-34.96232693111925
  0
LINE
  5
B0
330
20
100
AcDbEntity
  8
0
  6
CENTER
370
     0
 62
     1
100
AcDbLine
 10
82.46232693111925
 20
-45.5156508839701
 11
67.53767306888075
 21
-9.484349116029907
  0
LINE
  5
B1
330
20
100
AcDbEntity
  8
0
  6
CONTINUOUS
370
     0
 62
     1
100
AcDbLine
 10
58.3
 20
0.0
 11
91.7
 21
0.0
  0
LINE
  5
B2
330
20
100
AcDbEntity
  8
0
  6
CONTINUOUS
370
     0
 62
     1
100
AcDbLine
 10
58.0
 20
0.2999999999999972
 11
58.0
 21
10.7
  0
LINE
  5
B3
330
20
100
AcDbEntity
  8
0
  6
CONTINUOUS
370
     0
 62
     1
100
AcDbLine
 10
92.0
 20
0.2999999999999972
 11
92.0
 21
10.7
  0
LINE
  5
B4
330
20
100
AcDbEntity
  8
0
  6
CONTINUOUS
370
     0
 62
     1
100
AcDbLine
 10
58.0
 20
10.7
 11
58.3
 21
11.0
  0
LINE
  5
B5
330
20
100
AcDbEntity
  8
0
  6
CONTINUOUS
370
     0
 62
     1
100
AcDbLine
 10
91.7
 20
11.0
 11
92.0
 21
10.7
  0
LINE
  5
B6
330
20
100
AcDbEntity
  8
0
  6
CONTINUOUS
370
     0
 62
     1
100
AcDbLine
 10
92.0
 20
0.2999999999999972
 11
91.7
 21
0.0
  0
LINE
  5
B7
330
20
100
AcDbEntity
  8
0
  6
CONTINUOUS
370
     0
 62
     1
100
AcDbLine
 10
58.3
 20
0.0
 11
58.0
 21
0.2999999999999972
  0
LINE
  5
B8
330
20
100
AcDbEntity
  8
0
  6
CENTER
370
     0
 62
     1
100
AcDbLine
 10
75.0
 20
-2.5
 11
75.0
 21
13.5
  0
LINE
  5
B9
330
20
100
AcDbEntity
  8
0
  6
CONTINUOUS
370
     0
 62
     1
100
AcDbLine
 10
77.0
 20
11.0
 11
91.7
 21
11.0
  0
LINE
  5
BA
330
20
100
AcDbEntity
  8
0
  6
CONTINUOUS
370
     0
 62
     1
100
AcDbLine
 10
58.3
 20
11.0
 11
73.0
 21
11.0
  0
LINE
  5
BB
330
20
100
AcDbEntity
  8
0
  6
CONTINUOUS
370
     0
 62
     1
100
AcDbLine
 10
73.0
 20
11.0
 11
77.0
 21
11.0
  0
LINE
  5
BC
330
20
100
AcDbEntity
  8
0
  6
CONTINUOUS
370
     0
 62
     1
100
AcDbLine
 10
72.34084200710787
 20
6.400000000000006
 11
77.65915799289148
 21
6.400000000000006
  0
LINE
  5
BD
330
20
100
AcDbEntity
  8
0
  6
CONTINUOUS
370
     0
 62
     1
100
AcDbLine
 10
77.5
 20
3.5
 11
77.5
 21
2.5
  0
LINE
  5
BE
330
20
100
AcDbEntity
  8
0
  6
CONTINUOUS
370
     0
 62
     1
100
AcDbLine
 10
72.5
 20
3.5
 11
72.5
 21
2.5
  0
LINE
  5
BF
330
20
100
AcDbEntity
  8
0
  6
CONTINUOUS
370
     0
 62
     1
100
AcDbLine
 10
72.5
 20
3.5
 11
77.5
 21
3.5
  0
LINE
  5
C0
330
20
100
AcDbEntity
  8
0
  6
CONTINUOUS
370
     0
 62
     1
100
AcDbLine
 10
77.5
 20
2.5
 11
80.23455437781729
 21
2.499999999999999
  0
LINE
  5
C1
330
20
100
AcDbEntity
  8
0
  6
CONTINUOUS
370
     0
 62
     1
100
AcDbLine
 10
69.76544562218216
 20
2.5
 11
72.5
 21
2.5
  0
LINE
  5
C2
330
20
100
AcDbEntity
  8
0
  6
CONTINUOUS
370
     0
 62
     1
100
AcDbLine
 10
76.22950000000002
 20
3.5
 11
76.22950000000002
 21
0.1999999999999886
  0
LINE
  5
C3
330
20
100
AcDbEntity
  8
0
  6
CONTINUOUS
370
     0
 62
     1
100
AcDbLine
 10
73.77049999999998
 20
3.5
 11
73.77049999999998
 21
0.1999999999999886
  0
LINE
  5
C4
330
20
100
AcDbEntity
  8
0
  6
CONTINUOUS
370
     0
 62
     1
100
AcDbLine
 10
73.5
 20
3.5
 11
73.5
 21
0.1999999999999886
  0
LINE
  5
C5
330
20
100
AcDbEntity
  8
0
  6
CONTINUOUS
370
     0
 62
     1
100
AcDbLine
 10
76.5
 20
3.5
 11
76.5
 21
0.1999999999999886
  0
LINE
  5
C6
330
20
100
AcDbEntity
  8
0
  6
CONTINUOUS
370
     0
 62
     1
100
AcDbLine
 10
68.59753785471095
 20
0.1999999999999886
 11
81.40246214528898
 21
0.1999999999999886
  0
SPLINE
  5
C7
330
20
100
AcDbEntity
  8
0
  6
CONTINUOUS
370
     0
 62
     1
100
AcDbSpline
210
0.0
220
0.0
230
1.0
 70
     8
 71
     3
 72
     9
 73
     5
 74
     0
 42
1.000000000000000E-007
 43
1.000000000000000E-007
 40
0.0
 40
0.0
 40
0.0
 40
0.0
 40
10.67886772358179
 40
21.35773544716375
 40
21.35773544716375
 40
21.35773544716375
 40
21.35773544716375
 10
68.5
 20
0.0
 30
0.0
 10
69.79999999999919
 20
2.666666666666818
 30
0.0
 10
74.99999999999999
 20
13.33333333333336
 30
0.0
 10
80.19999999999979
 20
2.666666666666705
 30
0.0
 10
81.5
 20
0.0
 30
0.0
  0
ARC
  5
C8
330
20
100
AcDbEntity
  8
0
  6
CONTINUOUS
370
     0
 62
     1
100
AcDbCircle
 10
75.0
 20
10.5
 40
1.499999999999997
100
AcDbArc
 50
19.47122063449073
 51
160.5287793655093
  0
CIRCLE
  5
C9
330
20
100
AcDbEntity
  8
0
  6
CONTINUOUS
370
     0
 62
     1
100
AcDbCircle
 10
81.06217782649107
 20
-24.0
 40
1.0
  0
CIRCLE
  5
CA
330
20
100
AcDbEntity
  8
0
  6
CONTINUOUS
370
     0
 62
     1
100
AcDbCircle
 10
75.0
 20
-27.5
 40
1.5
  0
CIRCLE
  5
CB
330
20
100
AcDbEntity
  8
0
  6
CONTINUOUS
370
     0
 62
     1
100
AcDbCircle
 10
75.0
 20
-27.5
 40
1.3105
  0
CIRCLE
  5
CC
330
20
100
AcDbEntity
  8
0
  6
CONTINUOUS
370
     0
 62
     1
100
AcDbCircle
 10
68.93782217350893
 20
-31.0
 40
1.0
  0
LINE
  5
CD
330
20
100
AcDbEntity
  8
0
  6
CONTINUOUS
370
     0
 62
     1
100
AcDbLine
 10
97.0
 20
5.25
 11
97.0
 21
2.75
  0
LINE
  5
CE
330
20
100
AcDbEntity
  8
0
  6
CONTINUOUS
370
     0
 62
     1
100
AcDbLine
 10
97.0
 20
3.1
 11
102.5
 21
3.1
  0
POLYLINE
  5
CF
330
20
100
AcDbEntity
  8
0
  6
CONTINUOUS
370
     0
 62
     1
100
AcDb2dPolyline
 66
     1
 10
0.0
 20
0.0
 70
     0
 40
0.0
 41
0.0
  0
VERTEX
  5
D0
330
20
100
AcDbEntity
  8
0
100
AcDbVertex
100
AcDb2dVertex
 10
102.5
 20
4.9
  0
VERTEX
  5
D1
330
20
100
AcDbEntity
  8
0
100
AcDbVertex
100
AcDb2dVertex
 10
102.6630565465942
 20
4.64894022043638
  0
VERTEX
  5
D2
330
20
100
AcDbEntity
  8
0
100
AcDbVertex
100
AcDb2dVertex
 10
102.725
 20
4.44999999999997
  0
VERTEX
  5
D3
330
20
100
AcDbEntity
  8
0
100
AcDbVertex
100
AcDb2dVertex
 10
102.6800421234184
 20
4.250691564253375
  0
VERTEX
  5
D4
330
20
100
AcDbEntity
  8
0
100
AcDbVertex
100
AcDb2dVertex
 10
102.5
 20
3.99999999999998
  0
VERTEX
  5
D5
330
20
100
AcDbEntity
  8
0
100
AcDbVertex
100
AcDb2dVertex
 10
102.3199578765816
 20
3.749308435746586
  0
VERTEX
  5
D6
330
20
100
AcDbEntity
  8
0
100
AcDbVertex
100
AcDb2dVertex
 10
102.275
 20
3.549999999999979
  0
VERTEX
  5
D7
330
20
100
AcDbEntity
  8
0
100
AcDbVertex
100
AcDb2dVertex
 10
102.3369434534058
 20
3.351059779563488
  0
VERTEX
  5
D8
330
20
100
AcDbEntity
  8
0
100
AcDbVertex
100
AcDb2dVertex
 10
102.5
 20
3.09999999999999
  0
SEQEND
  5
D9
330
20
100
AcDbEntity
  8
0
  0
SPLINE
  5
DA
330
20
100
AcDbEntity
  8
0
  6
CONTINUOUS
370
     0
 62
     1
100
AcDbSpline
210
0.0
220
0.0
230
1.0
 70
     8
 71
     3
 72
     9
 73
     5
 74
     0
 42
1.000000000000000E-007
 43
1.000000000000000E-007
 40
0.0
 40
0.0
 40
0.0
 40
0.0
 40
0.5130605635501946
 40
1.026121127100419
 40
1.026121127100419
 40
1.026121127100419
 40
1.026121127100419
 10
102.5
 20
3.09999999999999
 30
0.0
 10
102.575
 20
3.18999999999993
 30
0.0
 10
102.875
 20
3.549999999999986
 30
0.0
 10
102.575
 20
3.90999999999998
 30
0.0
 10
102.5
 20
3.99999999999999
 30
0.0
  0
LINE
  5
DB
330
20
100
AcDbEntity
  8
0
  6
CONTINUOUS
370
     0
 62
     1
100
AcDbLine
 10
92.0
 20
2.75
 11
97.0
 21
2.75
  0
LINE
  5
DC
330
20
100
AcDbEntity
  8
0
  6
CONTINUOUS
370
     0
 62
     1
100
AcDbLine
 10
97.0
 20
4.9
 11
102.5
 21
4.9
  0
LINE
  5
DD
330
20
100
AcDbEntity
  8
0
  6
CONTINUOUS
370
     0
 62
     1
100
AcDbLine
 10
92.0
 20
5.25
 11
97.0
 21
5.25
  0
LINE
  5
DE
330
20
100
AcDbEntity
  8
0
  6
CENTER
370
     0
 62
     1
100
AcDbLine
 10
87.0
 20
4.0
 11
104.7301481136942
 21
4.0
  0
INSERT
  5
E0
330
20
100
AcDbEntity
  8
0
  6
CONTINUOUS
370
     0
 62
     1
100
AcDbBlockReference
  2
COMP2
 10
0.0
 20
0.0
 41
1.0
 42
1.0
 50
0.0
  0
LINE
  5
EF
330
20
100
AcDbEntity
  8
0
  6
CENTER
370
     0
 62
     1
100
AcDbLine
 10
94.5
 20
-27.5
 11
55.5
 21
-27.5
  0
LINE
  5
F0
330
20
100
AcDbEntity
  8
0
  6
CENTER
370
     0
 62
     1
100
AcDbLine
 10
75.0
 20
-47.0
 11
75.0
 21
-8.0
  0
LINE
  5
F1
330
20
100
AcDbEntity
  8
0
  6
CONTINUOUS
370
     0
 62
     1
100
AcDbLine
 10
97.0
 20
-26.25
 11
97.0
 21
-28.75
  0
LINE
  5
F2
330
20
100
AcDbEntity
  8
0
  6
CONTINUOUS
370
     0
 62
     1
100
AcDbLine
 10
97.0
 20
-28.4
 11
102.5
 21
-28.4
  0
POLYLINE
  5
F3
330
20
100
AcDbEntity
  8
0
  6
CONTINUOUS
370
     0
 62
     1
100
AcDb2dPolyline
 66
     1
 10
0.0
 20
0.0
 70
     0
 40
0.0
 41
0.0
  0
VERTEX
  5
F4
330
20
100
AcDbEntity
  8
0
100
AcDbVertex
100
AcDb2dVertex
 10
102.5
 20
-26.6
  0
VERTEX
  5
F5
330
20
100
AcDbEntity
  8
0
100
AcDbVertex
100
AcDb2dVertex
 10
102.6630565465942
 20
-26.85105977956362
  0
VERTEX
  5
F6
330
20
100
AcDbEntity
  8
0
100
AcDbVertex
100
AcDb2dVertex
 10
102.725
 20
-27.05000000000003
  0
VERTEX
  5
F7
330
20
100
AcDbEntity
  8
0
100
AcDbVertex
100
AcDb2dVertex
 10
102.6800421234184
 20
-27.24930843574662
  0
VERTEX
  5
F8
330
20
100
AcDbEntity
  8
0
100
AcDbVertex
100
AcDb2dVertex
 10
102.5
 20
-27.50000000000002
  0
VERTEX
  5
F9
330
20
100
AcDbEntity
  8
0
100
AcDbVertex
100
AcDb2dVertex
 10
102.3199578765816
 20
-27.75069156425341
  0
VERTEX
  5
FA
330
20
100
AcDbEntity
  8
0
100
AcDbVertex
100
AcDb2dVertex
 10
102.275
 20
-27.95000000000002
  0
VERTEX
  5
FB
330
20
100
AcDbEntity
  8
0
100
AcDbVertex
100
AcDb2dVertex
 10
102.3369434534058
 20
-28.14894022043651
  0
VERTEX
  5
FC
330
20
100
AcDbEntity
  8
0
100
AcDbVertex
100
AcDb2dVertex
 10
102.5
 20
-28.40000000000001
  0
SEQEND
  5
FD
330
20
100
AcDbEntity
  8
0
  0
SPLINE
  5
FE
330
20
100
AcDbEntity
  8
0
  6
CONTINUOUS
370
     0
 62
     1
100
AcDbSpline
210
0.0
220
0.0
230
1.0
 70
     8
 71
     3
 72
     9
 73
     5
 74
     0
 42
1.000000000000000E-007
 43
1.000000000000000E-007
 40
0.0
 40
0.0
 40
0.0
 40
0.0
 40
0.513060563550192
 40
1.026121127100443
 40
1.026121127100443
 40
1.026121127100443
 40
1.026121127100443
 10
102.5
 20
-28.40000000000001
 30
0.0
 10
102.575
 20
-28.31000000000007
 30
0.0
 10
102.875
 20
-27.95000000000001
 30
0.0
 10
102.575
 20
-27.59000000000002
 30
0.0
 10
102.5
 20
-27.50000000000001
 30
0.0
  0
LINE
  5
FF
330
20
100
AcDbEntity
  8
0
  6
CONTINUOUS
370
     0
 62
     1
100
AcDbLine
 10
91.95398183318598
 20
-28.75
 11
97.0
 21
-28.75
  0
LINE
  5
100
330
20
100
AcDbEntity
  8
0
  6
CONTINUOUS
370
     0
 62
     1
100
AcDbLine
 10
97.0
 20
-26.6
 11
102.5
 21
-26.6
  0
LINE
  5
101
330
20
100
AcDbEntity
  8
0
  6
CONTINUOUS
370
     0
 62
     1
100
AcDbLine
 10
91.95398183318598
 20
-26.25
 11
97.0
 21
-26.25
  0
MTEXT
  5
102
330
20
100
AcDbEntity
  8
0
  6
CONTINUOUS
370
     0
 62
     1
100
AcDbMText
 10
-19.66666603088379
 20
25.33333396911621
 40
2.0
 41
0.0
 71
     7
 72
     1
  1
{\W0.639098;\L２Ｎ～２００Ｎ}
 11
1.0
 21
0.0
  7
BIGFONT
  0
MTEXT
  5
103
330
20
100
AcDbEntity
  8
0
  6
CONTINUOUS
370
     0
 62
     1
100
AcDbMText
 10
47.83333206176758
 20
25.33333396911621
 40
2.0
 41
0.0
 71
     7
 72
     1
  1
{\W0.631579;\L５００Ｎ～２ＫＮ}
 11
1.0
 21
0.0
  7
BIGFONT
  0
MTEXT
  5
104
330
20
100
AcDbEntity
  8
0
  6
CONTINUOUS
370
     0
 62
     1
100
AcDbMText
 10
-19.66666603088379
 20
-14.66666698455811
 40
2.0
 41
0.0
 71
     7
 72
     1
  1
{\W0.649123;\L２Ｎ～１０Ｎ}
 11
1.0
 21
0.0
  7
BIGFONT
  0
MTEXT
  5
105
330
20
100
AcDbEntity
  8
0
  6
CONTINUOUS
370
     0
 62
     1
100
AcDbMText
 10
-19.66666603088379
 20
-54.66666793823242
 40
2.0
 41
0.0
 71
     7
 72
     1
  1
{\W0.631579;\L２０Ｎ～２００Ｎ}
 11
1.0
 21
0.0
  7
BIGFONT
  0
ENDSEC
  0
SECTION
  2
OBJECTS
  0
DICTIONARY
  5
C
100
AcDbDictionary
281
     1
  3
ACAD_GROUP
350
D
  3
ACAD_MLINESTYLE
350
E
  3
ACDBVARIABLEDICTIONARY
350
106
  3
ACAD_PLOTSTYLENAME
350
107
  3
ACAD_LAYOUT
350
108
  3
ACAD_PLOTSETTINGS
350
109
  0
DICTIONARY
  5
D
102
{ACAD_REACTORS
330
C
102
}
330
C
100
AcDbDictionary
281
     1
  0
DICTIONARY
  5
E
102
{ACAD_REACTORS
330
C
102
}
330
C
100
AcDbDictionary
281
     1
  3
STANDARD
350
13
  0
DICTIONARY
  5
106
102
{ACAD_REACTORS
330
C
102
}
330
C
100
AcDbDictionary
281
     1
  3
SORTENTS
350
10A
  0
ACDBDICTIONARYWDFLT
  5
107
102
{ACAD_REACTORS
330
C
102
}
330
C
100
AcDbDictionary
281
     1
  3
Normal
350
10B
100
AcDbDictionaryWithDefault
340
10B
  0
DICTIONARY
  5
108
102
{ACAD_REACTORS
330
C
102
}
330
C
100
AcDbDictionary
281
     1
  3
Model
350
10C
  0
DICTIONARY
  5
109
102
{ACAD_REACTORS
330
C
102
}
330
C
100
AcDbDictionary
281
     1
  0
MLINESTYLE
  5
13
102
{ACAD_REACTORS
330
E
102
}
330
E
100
AcDbMlineStyle
  2
STANDARD
 70
     0
  3

 62
   256
 51
90.0
 52
90.0
 71
     2
 49
0.5
 62
   256
  6
BYLAYER
 49
-0.5
 62
   256
  6
BYLAYER
  0
DICTIONARYVAR
  5
10A
102
{ACAD_REACTORS
330
106
102
}
330
106
100
DictionaryVariables
280
     0
  1
96
  0
ACDBPLACEHOLDER
  5
10B
102
{ACAD_REACTORS
330
107
102
}
330
107
  0
LAYOUT
  5
10C
102
{ACAD_REACTORS
330
108
102
}
330
108
100
AcDbPlotSettings
  1

  2

  4

  6

 40
0.0
 41
0.0
 42
0.0
 43
0.0
 44
0.0
 45
0.0
 46
0.0
 47
0.0
 48
0.0
 49
0.0
140
0.0
141
0.0
142
1.0
143
1.0
 70
  1712
 72
     0
 73
     0
 74
     0
  7

 75
     0
147
1.0
148
0.0
149
0.0
100
AcDbLayout
  1
Model
 70
     1
 71
     0
 10
0.0
 20
0.0
 11
297.0
 21
210.0
 12
0.0
 22
0.0
 32
0.0
 14
0.0
 24
0.0
 34
0.0
 15
0.0
 25
0.0
 35
0.0
146
0.0
 13
0.0
 23
0.0
 33
0.0
 16
1.0
 26
0.0
 36
0.0
 17
0.0
 27
1.0
 37
0.0
 76
     0
330
20
  0
ENDSEC
  0
EOF
