  0
SECTION
  2
HEADER
  9
$ACADVER
  1
AC1015
  9
$ACADMAINTVER
 70
     0
  9
$DWGCODEPAGE
  3
ANSI_932
  9
$INSBASE
 10
0.0
 20
0.0
 30
0.0
  9
$EXTMIN
 10
-12.5
 20
-32.5
  9
$EXTMAX
 10
20.0
 20
12.5
  9
$LIMMIN
 10
-12.5
 20
-32.5
  9
$LIMMAX
 10
20.0
 20
12.5
  9
$ORTHOMODE
 70
     0
  9
$REGENMODE
 70
     1
  9
$FILLMODE
 70
     1
  9
$QTEXTMODE
 70
     0
  9
$MIRRTEXT
 70
     1
  9
$LTSCALE
 40
1.0
  9
$OSMODE
 70
     0
  9
$ATTMODE
 70
     1
  9
$TEXTSIZE
 40
3.0
  9
$TRACEWID
 40
0.5
  9
$TEXTSTYLE
  7
STANDARD
  9
$CLAYER
  8
0
  9
$CELTYPE
  6
BYLAYER
  9
$CECOLOR
 62
   256
  9
$CELTSCALE
 40
1.0
  9
$DISPSILH
 70
     0
  9
$DIMSCALE
 40
1.0
  9
$DIMASZ
 40
3.0
  9
$DIMEXO
 40
1.0
  9
$DIMDLI
 40
5.0
  9
$DIMRND
 40
0.0
  9
$DIMDLE
 40
5.0
  9
$DIMEXE
 40
2.0
  9
$DIMTP
 40
0.0
  9
$DIMTM
 40
0.0
  9
$DIMTXT
 40
3.0
  9
$DIMCEN
 40
2.0
  9
$DIMTSZ
 40
0.0
  9
$DIMTOL
 70
     0
  9
$DIMLIM
 70
     0
  9
$DIMTIH
 70
     0
  9
$DIMTOH
 70
     0
  9
$DIMSE1
 70
     0
  9
$DIMSE2
 70
     0
  9
$DIMTAD
 70
     1
  9
$DIMZIN
 70
     8
  9
$DIMBLK
  1

  9
$DIMASO
 70
     1
  9
$DIMSHO
 70
     1
  9
$DIMPOST
  1

  9
$DIMAPOST
  1

  9
$DIMALT
 70
     0
  9
$DIMALTD
 70
     0
  9
$DIMALTF
 40
25.4
  9
$DIMLFAC
 40
1.0
  9
$DIMTOFL
 70
     1
  9
$DIMTVP
 40
1.0
  9
$DIMTIX
 70
     0
  9
$DIMSOXD
 70
     0
  9
$DIMSAH
 70
     0
  9
$DIMBLK1
  1

  9
$DIMBLK2
  1

  9
$DIMSTYLE
  2
ISO-25
  9
$DIMCLRD
 70
     0
  9
$DIMCLRE
 70
     0
  9
$DIMCLRT
 70
     0
  9
$DIMTFAC
 40
1.0
  9
$DIMGAP
 40
1.0
  9
$DIMJUST
 70
     0
  9
$DIMSD1
 70
     0
  9
$DIMSD2
 70
     0
  9
$DIMTOLJ
 70
     0
  9
$DIMTZIN
 70
     8
  9
$DIMALTZ
 70
     0
  9
$DIMALTTZ
 70
     0
  9
$DIMUPT
 70
     0
  9
$DIMDEC
 70
     2
  9
$DIMTDEC
 70
     2
  9
$DIMALTU
 70
     2
  9
$DIMALTTD
 70
     3
  9
$DIMTXSTY
  7
STANDARD
  9
$DIMAUNIT
 70
     0
  9
$DIMADEC
 70
     0
  9
$DIMALTRND
 40
0.0
  9
$DIMAZIN
 70
     0
  9
$DIMDSEP
 70
    46
  9
$DIMATFIT
 70
     3
  9
$DIMFRAC
 70
     0
  9
$DIMLDRBLK
  1

  9
$DIMLUNIT
 70
     2
  9
$DIMLWD
 70
    -2
  9
$DIMLWE
 70
    -2
  9
$DIMTMOVE
 70
     0
  9
$LUNITS
 70
     2
  9
$LUPREC
 70
     4
  9
$SKETCHINC
 40
1.0
  9
$FILLETRAD
 40
0.0
  9
$AUNITS
 70
     0
  9
$AUPREC
 70
     0
  9
$MENU
  1
.
  9
$ELEVATION
 40
0.0
  9
$PELEVATION
 40
0.0
  9
$THICKNESS
 40
0.0
  9
$LIMCHECK
 70
     0
  9
$CHAMFERA
 40
0.0
  9
$CHAMFERB
 40
0.0
  9
$CHAMFERC
 40
0.0
  9
$CHAMFERD
 40
0.0
  9
$SKPOLY
 70
     0
  9
$TDCREATE
 40
2454124.533773148
  9
$TDUCREATE
 40
2454124.533773148
  9
$TDUPDATE
 40
2454124.533773148
  9
$TDUUPDATE
 40
2454124.533773148
  9
$TDINDWG
 40
0.0
  9
$TDUSRTIMER
 40
0.0
  9
$USRTIMER
 70
     1
  9
$ANGBASE
 50
0.0
  9
$ANGDIR
 70
     0
  9
$PDMODE
 70
     0
  9
$PDSIZE
 40
0.0
  9
$PLINEWID
 40
0.0
  9
$SPLFRAME
 70
     0
  9
$SPLINETYPE
 70
     6
  9
$SPLINESEGS
 70
     8
  9
$HANDSEED
  5
53
  9
$SURFTAB1
 70
     6
  9
$SURFTAB2
 70
     6
  9
$SURFTYPE
 70
     6
  9
$SURFU
 70
     6
  9
$SURFV
 70
     6
  9
$UCSBASE
  2

  9
$UCSNAME
  2

  9
$UCSORG
 10
0.0
 20
0.0
 30
0.0
  9
$UCSXDIR
 10
1.0
 20
0.0
 30
0.0
  9
$UCSYDIR
 10
0.0
 20
1.0
 30
0.0
  9
$UCSORTHOREF
  2

  9
$UCSORTHOVIEW
 70
     0
  9
$UCSORGTOP
 10
0.0
 20
0.0
 30
0.0
  9
$UCSORGBOTTOM
 10
0.0
 20
0.0
 30
0.0
  9
$UCSORGLEFT
 10
0.0
 20
0.0
 30
0.0
  9
$UCSORGRIGHT
 10
0.0
 20
0.0
 30
0.0
  9
$UCSORGFRONT
 10
0.0
 20
0.0
 30
0.0
  9
$UCSORGBACK
 10
0.0
 20
0.0
 30
0.0
  9
$PUCSBASE
  2

  9
$PUCSNAME
  2

  9
$PUCSORG
 10
0.0
 20
0.0
 30
0.0
  9
$PUCSXDIR
 10
1.0
 20
0.0
 30
0.0
  9
$PUCSYDIR
 10
0.0
 20
1.0
 30
0.0
  9
$PUCSORTHOREF
  2

  9
$PUCSORTHOVIEW
 70
     0
  9
$PUCSORGTOP
 10
0.0
 20
0.0
 30
0.0
  9
$PUCSORGBOTTOM
 10
0.0
 20
0.0
 30
0.0
  9
$PUCSORGLEFT
 10
0.0
 20
0.0
 30
0.0
  9
$PUCSORGRIGHT
 10
0.0
 20
0.0
 30
0.0
  9
$PUCSORGFRONT
 10
0.0
 20
0.0
 30
0.0
  9
$PUCSORGBACK
 10
0.0
 20
0.0
 30
0.0
  9
$USERI1
 70
     0
  9
$USERI2
 70
     0
  9
$USERI3
 70
     0
  9
$USERI4
 70
     0
  9
$USERI5
 70
     0
  9
$USERR1
 40
0.0
  9
$USERR2
 40
0.0
  9
$USERR3
 40
0.0
  9
$USERR4
 40
0.0
  9
$USERR5
 40
0.0
  9
$WORLDVIEW
 70
     1
  9
$SHADEDGE
 70
     3
  9
$SHADEDIF
 70
    70
  9
$MAXACTVP
 70
    16
  9
$PINSBASE
 10
0.0
 20
0.0
 30
0.0
  9
$PLIMCHECK
 70
     0
  9
$PEXTMIN
 10
1.000000E+20
 20
1.000000E+20
 30
1.000000E+20
  9
$PEXTMAX
 10
-1.000000E+20
 20
-1.000000E+20
 30
-1.000000E+20
  9
$PLIMMIN
 10
-12.5
 20
-32.5
  9
$PLIMMAX
 10
20.0
 20
12.5
  9
$UNITMODE
 70
     0
  9
$VISRETAIN
 70
     0
  9
$PLINEGEN
 70
     0
  9
$PSLTSCALE
 70
     0
  9
$TREEDEPTH
 70
  3020
  9
$CMLSTYLE
  2
STANDARD
  9
$CMLJUST
 70
     0
  9
$CMLSCALE
 40
1.0
  9
$PROXYGRAPHICS
 70
     1
  9
$MEASUREMENT
 70
     0
  9
$CELWEIGHT
370
    -3
  9
$ENDCAPS
280
     0
  9
$JOINSTYLE
280
     0
  9
$LWDISPLAY
290
     1
  9
$INSUNITS
 70
     0
  9
$HYPERLINKBASE
  1

  9
$STYLESHEET
  1

  9
$XEDIT
290
     1
  9
$CEPSNTYPE
380
     0
  9
$PSTYLEMODE
290
     1
  9
$FINGERPRINTGUID
  2
{6F25CFC2-5053-11D3-9BE9-00805F4AB38E}
  9
$VERSIONGUID
  2
{6F25CFC5-5053-11D3-9BE9-00805F4AB38E}
  9
$EXTNAMES
290
     1
  9
$PSVPSCALE
 40
0.0
  9
$OLESTARTUP
290
     0
  0
ENDSEC
  0
SECTION
  2
CLASSES
  0
CLASS
  1
LWPOLYLINE
  2
AcDbPolyline
  3
AutoCAD 2000
 90
    32768
280
     0
281
     1
  0
CLASS
  1
DICTIONARYVAR
  2
AcDbDictionaryVar
  3
AutoCAD 2000
 90
        0
280
     0
281
     1
  0
CLASS
  1
ACDBDICTIONARYWDFLT
  2
AcDbDictionaryWithDefault
  3
AutoCAD 2000
 90
        0
280
     0
281
     1
  0
CLASS
  1
ACDBPLACEHOLDER
  2
AcDbPlaceHolder
  3
AutoCAD 2000
 90
        0
280
     0
281
     1
  0
CLASS
  1
LAYOUT
  2
AcDbLayout
  3
AutoCAD 2000
 90
        0
280
     0
281
     1
  0
CLASS
  1
HATCH
  2
AcDbHatch
  3
AutoCAD 2000
 90
        0
280
     0
281
     1
  0
ENDSEC
  0
SECTION
  2
TABLES
  0
TABLE
  2
VPORT
  5
8
100
AcDbSymbolTable
 70
     1
  0
VPORT
  5
4A
330
0
100
AcDbSymbolTableRecord
100
AcDbViewportTableRecord
  2
*ACTIVE
 70
     0
 10
0.0
 20
0.0
 11
1.0
 21
1.0
 12
3.75
 22
-10.0
 13
0.0
 23
0.0
 14
0.0
 24
0.0
 15
0.0
 25
0.0
 16
0.0
 26
0.0
 36
1.0
 17
0.0
 27
0.0
 37
0.0
 40
45.0
 41
1.5
 42
50.0
 43
0.0
 44
0.0
 50
0.0
 51
0.0
 71
     0
 72
   100
 73
     1
 74
     1
 75
     0
 76
     0
 77
     0
 78
     0
281
     0
 65
     1
110
0.0
120
0.0
130
0.0
111
1.0
121
0.0
131
0.0
112
0.0
122
1.0
132
0.0
 79
     0
146
0.0
  0
ENDTAB
  0
TABLE
  2
LTYPE
  5
5
330
0
100
AcDbSymbolTable
 70
    20
  0
LTYPE
  5
4B
330
5
100
AcDbSymbolTableRecord
100
AcDbLinetypeTableRecord
  2
BYBLOCK
 70
     0
  3

 72
    65
 73
     0
 40
0.0
  0
LTYPE
  5
4C
330
5
100
AcDbSymbolTableRecord
100
AcDbLinetypeTableRecord
  2
BYLAYER
 70
     0
  3

 72
    65
 73
     0
 40
0.0
  0
LTYPE
  5
4D
330
5
100
AcDbSymbolTableRecord
100
AcDbLinetypeTableRecord
  2
CONTINUOUS
 70
    64
  3
solid line
 72
    65
 73
     0
 40
0.0
  0
LTYPE
  5
4E
330
0
100
AcDbSymbolTableRecord
100
AcDbLinetypeTableRecord
  2
CENTER
 70
    64
  3
--- - --- - --- - --- - --- - 
 72
    65
 73
     4
 40
6.0
 49
3.0
 74
     0
 49
-1.0
 74
     0
 49
1.0
 74
     0
 49
-1.0
 74
     0
  0
ENDTAB
  0
TABLE
  2
LAYER
  5
2
330
0
100
AcDbSymbolTable
 70
    20
  0
LAYER
  5
4F
330
2
100
AcDbSymbolTableRecord
100
AcDbLayerTableRecord
  2
0
 70
    64
 62
     7
  6
CONTINUOUS
370
    -3
390
46
  0
LAYER
  5
25
330
2
100
AcDbSymbolTableRecord
100
AcDbLayerTableRecord
  2
100
 70
    64
 62
     7
  6
CONTINUOUS
370
    -3
390
46
  0
ENDTAB
  0
TABLE
  2
STYLE
  5
3
330
0
100
AcDbSymbolTable
 70
     4
  0
STYLE
  5
50
330
3
100
AcDbSymbolTableRecord
100
AcDbTextStyleTableRecord
  2
STANDARD
 70
    64
 40
0.0
 41
1.052631578947368
 50
0.0
 71
     0
 42
3.0
  3
monotxt
  4

  0
ENDTAB
  0
TABLE
  2
VIEW
  5
6
330
0
100
AcDbSymbolTable
 70
     0
  0
ENDTAB
  0
TABLE
  2
UCS
  5
7
330
0
100
AcDbSymbolTable
 70
     0
  0
ENDTAB
  0
TABLE
  2
APPID
  5
9
330
0
100
AcDbSymbolTable
 70
     1
  0
APPID
  5
51
330
9
100
AcDbSymbolTableRecord
100
AcDbRegAppTableRecord
  2
ACAD
 70
     0
  0
ENDTAB
  0
TABLE
  2
DIMSTYLE
  5
A
330
0
100
AcDbSymbolTable
 70
     8
100
AcDbDimStyleTable
 71
     0
  0
DIMSTYLE
105
52
330
A
100
AcDbSymbolTableRecord
100
AcDbDimStyleTableRecord
  2
ISO-25
 70
     0
  3

  4

  5

  6

  7

 40
1.0
 41
3.0
 42
1.0
 43
5.0
 44
2.0
 45
0.0
 46
5.0
 47
0.0
 48
0.0
140
3.0
141
2.0
142
0.0
143
25.4
144
1.0
145
1.0
146
1.0
147
1.0
 71
     0
 72
     0
 73
     0
 74
     0
 75
     0
 76
     0
 77
     1
 78
     8
170
     0
171
     0
172
     1
173
     0
174
     0
175
     0
176
     0
177
     0
178
     0
270
     0
271
     2
272
     2
273
     2
274
     3
340
50
275
     0
277
     2
280
     0
281
     0
282
     0
283
     0
284
     8
285
     0
286
     0
287
     3
288
     0
  0
ENDTAB
  0
TABLE
  2
BLOCK_RECORD
  5
1
330
0
100
AcDbSymbolTable
 70
     2
  0
BLOCK_RECORD
  5
20
330
1
100
AcDbSymbolTableRecord
100
AcDbBlockTableRecord
  2
*MODEL_SPACE
340
47
  0
BLOCK_RECORD
  5
22
330
1
100
AcDbSymbolTableRecord
100
AcDbBlockTableRecord
  2
*PAPER_SPACE
340
0
  0
ENDTAB
  0
ENDSEC
  0
SECTION
  2
BLOCKS
  0
BLOCK
  5
21
330
20
100
AcDbEntity
  8
0
100
AcDbBlockBegin
  2
*MODEL_SPACE
 70
     0
 10
0.0
 20
0.0
 30
0.0
  3
*MODEL_SPACE
  1

  0
ENDBLK
  5
48
330
20
100
AcDbEntity
  8
0
100
AcDbBlockEnd
  0
BLOCK
  5
23
330
22
100
AcDbEntity
 67
     1
  8
0
100
AcDbBlockBegin
  2
*PAPER_SPACE
 70
     0
 10
0.0
 20
0.0
 30
0.0
  3
*PAPER_SPACE
  1

  0
ENDBLK
  5
49
330
22
100
AcDbEntity
 67
     1
  8
0
100
AcDbBlockEnd
  0
ENDSEC
  0
SECTION
  2
ENTITIES
  0
CIRCLE
  5
24
330
20
100
AcDbEntity
  8
100
  6
CONTINUOUS
100
AcDbCircle
 10
0.0
 20
0.0
 40
7.5
  0
LINE
  5
26
330
20
100
AcDbEntity
  8
100
  6
CENTER
100
AcDbLine
 10
-12.5
 20
0.0
 11
20.0
 21
0.0
  0
LINE
  5
27
330
20
100
AcDbEntity
  8
100
  6
CENTER
100
AcDbLine
 10
0.0
 20
-12.5
 11
0.0
 21
12.5
  0
CIRCLE
  5
28
330
20
100
AcDbEntity
  8
100
  6
CONTINUOUS
100
AcDbCircle
 10
0.0
 20
0.0
 40
0.5
  0
CIRCLE
  5
29
330
20
100
AcDbEntity
  8
100
  6
CONTINUOUS
100
AcDbCircle
 10
0.0
 20
0.0
 40
7.2
  0
LINE
  5
2A
330
20
100
AcDbEntity
  8
100
  6
CONTINUOUS
100
AcDbLine
 10
7.445804187594515
 20
0.9
 11
17.5
 21
0.9000000000000004
  0
LINE
  5
2B
330
20
100
AcDbEntity
  8
100
  6
CONTINUOUS
100
AcDbLine
 10
7.445804187594515
 20
-0.9
 11
17.5
 21
-0.9000000000000004
  0
SPLINE
  5
2C
330
20
100
AcDbEntity
  8
100
  6
CONTINUOUS
100
AcDbSpline
210
0.0
220
0.0
230
1.0
 70
     8
 71
     3
 72
    10
 73
     6
 74
     0
 42
1.000000000000000E-007
 43
1.000000000000000E-007
 40
0.0
 40
0.0
 40
0.0
 40
0.0
 40
0.4922851636881059
 40
1.571402652599443
 40
2.063687816287554
 40
2.063687816287554
 40
2.063687816287554
 40
2.063687816287554
 10
17.5
 20
0.9000000000000168
 30
0.0
 10
17.58571428571429
 20
0.8571428571428194
 30
0.0
 10
17.92857142857142
 20
0.6857142857143025
 30
0.0
 10
17.07142857142858
 20
-0.6857142857142857
 30
0.0
 10
17.41428571428572
 20
-0.8571428571428535
 30
0.0
 10
17.5
 20
-0.9000000000000004
 30
0.0
  0
SPLINE
  5
2D
330
20
100
AcDbEntity
  8
100
  6
CONTINUOUS
100
AcDbSpline
210
0.0
220
0.0
230
1.0
 70
     8
 71
     3
 72
    23
 73
    19
 74
     0
 42
1.000000000000000E-007
 43
1.000000000000000E-007
 40
0.0
 40
0.0
 40
0.0
 40
0.0
 40
0.07535915704178242
 40
0.1499422973029496
 40
0.2229792682022954
 40
0.2937126107035521
 40
0.3614066066018071
 40
0.4253605027328498
 40
0.484929335209036
 40
0.5395587444119659
 40
0.6337380258633676
 40
0.711781696265655
 40
0.7787133818109636
 40
0.838592898803772
 40
0.8938746430796362
 40
0.9452288212642059
 40
0.9918334378912405
 40
1.031843908100073
 40
1.031843908100073
 40
1.031843908100073
 40
1.031843908100073
 10
17.5
 20
8.257283745649602E-015
 30
0.0
 10
17.51071428571429
 20
-0.02276785714284897
 30
0.0
 10
17.53214285714286
 20
-0.06830357142856497
 30
0.0
 10
17.56361607142869
 20
-0.136063058035991
 30
0.0
 10
17.59374999999999
 20
-0.202734374999993
 30
0.0
 10
17.62187499999994
 20
-0.2677734374998657
 30
0.0
 10
17.64732142857147
 20
-0.330636160714376
 30
0.0
 10
17.66941964285712
 20
-0.3907784598213513
 30
0.0
 10
17.6875
 20
-0.4476562499999948
 30
0.0
 10
17.70535714285714
 20
-0.5184151785714114
 30
0.0
 10
17.71428571428571
 20
-0.5959821428571043
 30
0.0
 10
17.70725446428571
 20
-0.6733258928571391
 30
0.0
 10
17.68616071428571
 20
-0.7366071428571516
 30
0.0
 10
17.65468750000001
 20
-0.7874999999999858
 30
0.0
 10
17.61651785714285
 20
-0.8276785714285686
 30
0.0
 10
17.57533482142858
 20
-0.8588169642857025
 30
0.0
 10
17.53482142857143
 20
-0.882589285714284
 30
0.0
 10
17.51071428571429
 20
-0.894642857142857
 30
0.0
 10
17.5
 20
-0.9000000000000004
 30
0.0
  0
LINE
  5
2E
330
20
100
AcDbEntity
  8
100
  6
CONTINUOUS
100
AcDbLine
 10
-7.5
 20
-27.5
 11
7.5
 21
-27.5
  0
LINE
  5
2F
330
20
100
AcDbEntity
  8
100
  6
CONTINUOUS
100
AcDbLine
 10
-7.2
 20
-23.0
 11
7.2
 21
-23.0
  0
LINE
  5
30
330
20
100
AcDbEntity
  8
100
  6
CENTER
100
AcDbLine
 10
0.0
 20
-17.5
 11
0.0
 21
-32.5
  0
LINE
  5
31
330
20
100
AcDbEntity
  8
100
  6
CONTINUOUS
100
AcDbLine
 10
-7.5
 20
-23.3
 11
-7.5
 21
-27.5
  0
LINE
  5
32
330
20
100
AcDbEntity
  8
100
  6
CONTINUOUS
100
AcDbLine
 10
-0.5
 20
-22.51250782228091
 11
-0.5
 21
-23.0
  0
LINE
  5
33
330
20
100
AcDbEntity
  8
100
  6
CONTINUOUS
100
AcDbLine
 10
0.5
 20
-22.51250782228091
 11
0.5
 21
-23.0
  0
ARC
  5
34
330
20
100
AcDbEntity
  8
100
  6
CONTINUOUS
100
AcDbCircle
 10
0.0
 20
-32.5
 40
10.0
100
AcDbArc
 50
87.13401601740114
 51
92.86598398259886
  0
LINE
  5
35
330
20
100
AcDbEntity
  8
100
  6
CONTINUOUS
100
AcDbLine
 10
0.5
 20
-22.51250782228091
 11
-0.5
 21
-22.51250782228091
  0
LINE
  5
36
330
20
100
AcDbEntity
  8
100
  6
CONTINUOUS
100
AcDbLine
 10
7.5
 20
-23.3
 11
7.2
 21
-23.0
  0
LINE
  5
37
330
20
100
AcDbEntity
  8
100
  6
CONTINUOUS
100
AcDbLine
 10
-7.5
 20
-23.3
 11
-7.2
 21
-23.0
  0
LINE
  5
38
330
20
100
AcDbEntity
  8
100
  6
CONTINUOUS
100
AcDbLine
 10
7.5
 20
-23.3
 11
-7.5
 21
-23.3
  0
LINE
  5
39
330
20
100
AcDbEntity
  8
100
  6
CENTER
100
AcDbLine
 10
5.0
 20
-25.5
 11
20.0
 21
-25.5
  0
LINE
  5
3A
330
20
100
AcDbEntity
  8
100
  6
CONTINUOUS
100
AcDbLine
 10
7.5
 20
-24.6
 11
17.5
 21
-24.6
  0
SPLINE
  5
3B
330
20
100
AcDbEntity
  8
100
  6
CONTINUOUS
100
AcDbSpline
210
0.0
220
0.0
230
1.0
 70
     8
 71
     3
 72
    23
 73
    19
 74
     0
 42
1.000000000000000E-007
 43
1.000000000000000E-007
 40
0.0
 40
0.0
 40
0.0
 40
0.0
 40
0.07535915704178088
 40
0.1499422973029471
 40
0.2229792682022935
 40
0.2937126107035528
 40
0.3614066066018102
 40
0.4253605027328525
 40
0.4849293352090363
 40
0.5395587444119658
 40
0.633738025863369
 40
0.7117816962656565
 40
0.7787133818109637
 40
0.8385928988037698
 40
0.8938746430796369
 40
0.9452288212642046
 40
0.9918334378912377
 40
1.031843908100071
 40
1.031843908100071
 40
1.031843908100071
 40
1.031843908100071
 10
17.5
 20
-25.49999999999999
 30
0.0
 10
17.51071428571429
 20
-25.52276785714285
 30
0.0
 10
17.53214285714273
 20
-25.56830357142829
 30
0.0
 10
17.56361607142863
 20
-25.63606305803586
 30
0.0
 10
17.59374999999999
 20
-25.70273437499999
 30
0.0
 10
17.62187499999992
 20
-25.76777343749981
 30
0.0
 10
17.64732142857147
 20
-25.83063616071438
 30
0.0
 10
17.66941964285711
 20
-25.89077845982133
 30
0.0
 10
17.6875
 20
-25.94765624999999
 30
0.0
 10
17.70535714285714
 20
-26.01841517857142
 30
0.0
 10
17.71428571428571
 20
-26.0959821428571
 30
0.0
 10
17.70725446428571
 20
-26.17332589285714
 30
0.0
 10
17.68616071428571
 20
-26.23660714285715
 30
0.0
 10
17.65468749999999
 20
-26.2875
 30
0.0
 10
17.61651785714285
 20
-26.32767857142857
 30
0.0
 10
17.57533482142854
 20
-26.35881696428573
 30
0.0
 10
17.53482142857143
 20
-26.38258928571428
 30
0.0
 10
17.51071428571429
 20
-26.39464285714286
 30
0.0
 10
17.5
 20
-26.4
 30
0.0
  0
SPLINE
  5
3C
330
20
100
AcDbEntity
  8
100
  6
CONTINUOUS
100
AcDbSpline
210
0.0
220
0.0
230
1.0
 70
     8
 71
     3
 72
    10
 73
     6
 74
     0
 42
1.000000000000000E-007
 43
1.000000000000000E-007
 40
0.0
 40
0.0
 40
0.0
 40
0.0
 40
0.492285163688106
 40
1.571402652599444
 40
2.063687816287552
 40
2.063687816287552
 40
2.063687816287552
 40
2.063687816287552
 10
17.5
 20
-24.59999999999998
 30
0.0
 10
17.58571428571429
 20
-24.64285714285718
 30
0.0
 10
17.92857142857142
 20
-24.8142857142857
 30
0.0
 10
17.07142857142857
 20
-26.18571428571428
 30
0.0
 10
17.41428571428572
 20
-26.35714285714285
 30
0.0
 10
17.5
 20
-26.4
 30
0.0
  0
SPLINE
  5
3D
330
20
100
AcDbEntity
  8
100
  6
CONTINUOUS
100
AcDbSpline
210
0.0
220
0.0
230
1.0
 70
     8
 71
     3
 72
     9
 73
     5
 74
     0
 42
1.000000000000000E-007
 43
1.000000000000000E-007
 40
0.0
 40
0.0
 40
0.0
 40
0.0
 40
0.9020193017672171
 40
1.804038603534498
 40
1.804038603534498
 40
1.804038603534498
 40
1.804038603534498
 10
7.5
 20
-24.6
 30
0.0
 10
7.48193472919817
 20
-24.77999999999989
 30
0.0
 10
7.409673645990856
 20
-25.5
 30
0.0
 10
7.481934729198171
 20
-26.21999999999996
 30
0.0
 10
7.5
 20
-26.39999999999999
 30
0.0
  0
LINE
  5
3E
330
20
100
AcDbEntity
  8
100
  6
CONTINUOUS
100
AcDbLine
 10
7.5
 20
-26.4
 11
17.5
 21
-26.4
  0
LINE
  5
3F
330
20
100
AcDbEntity
  8
100
  6
CONTINUOUS
100
AcDbLine
 10
7.5
 20
-26.4
 11
7.5
 21
-27.5
  0
LINE
  5
40
330
20
100
AcDbEntity
  8
100
  6
CONTINUOUS
100
AcDbLine
 10
7.5
 20
-23.3
 11
7.5
 21
-24.6
  0
ENDSEC
  0
SECTION
  2
OBJECTS
  0
DICTIONARY
  5
C
100
AcDbDictionary
281
     1
  3
ACAD_GROUP
350
D
  3
ACAD_MLINESTYLE
350
E
  3
ACDBVARIABLEDICTIONARY
350
41
  3
ACAD_PLOTSTYLENAME
350
42
  3
ACAD_LAYOUT
350
43
  3
ACAD_PLOTSETTINGS
350
44
  0
DICTIONARY
  5
D
102
{ACAD_REACTORS
330
C
102
}
330
C
100
AcDbDictionary
281
     1
  0
DICTIONARY
  5
E
102
{ACAD_REACTORS
330
C
102
}
330
C
100
AcDbDictionary
281
     1
  3
STANDARD
350
13
  0
DICTIONARY
  5
41
102
{ACAD_REACTORS
330
C
102
}
330
C
100
AcDbDictionary
281
     1
  3
SORTENTS
350
45
  0
ACDBDICTIONARYWDFLT
  5
42
102
{ACAD_REACTORS
330
C
102
}
330
C
100
AcDbDictionary
281
     1
  3
Normal
350
46
100
AcDbDictionaryWithDefault
340
46
  0
DICTIONARY
  5
43
102
{ACAD_REACTORS
330
C
102
}
330
C
100
AcDbDictionary
281
     1
  3
Model
350
47
  0
DICTIONARY
  5
44
102
{ACAD_REACTORS
330
C
102
}
330
C
100
AcDbDictionary
281
     1
  0
MLINESTYLE
  5
13
102
{ACAD_REACTORS
330
E
102
}
330
E
100
AcDbMlineStyle
  2
STANDARD
 70
     0
  3

 62
   256
 51
90.0
 52
90.0
 71
     2
 49
0.5
 62
   256
  6
BYLAYER
 49
-0.5
 62
   256
  6
BYLAYER
  0
DICTIONARYVAR
  5
45
102
{ACAD_REACTORS
330
41
102
}
330
41
100
DictionaryVariables
280
     0
  1
96
  0
ACDBPLACEHOLDER
  5
46
102
{ACAD_REACTORS
330
42
102
}
330
42
  0
LAYOUT
  5
47
102
{ACAD_REACTORS
330
43
102
}
330
43
100
AcDbPlotSettings
  1

  2

  4

  6

 40
0.0
 41
0.0
 42
0.0
 43
0.0
 44
0.0
 45
0.0
 46
0.0
 47
0.0
 48
0.0
 49
0.0
140
0.0
141
0.0
142
1.0
143
1.0
 70
  1712
 72
     0
 73
     0
 74
     0
  7

 75
     0
147
1.0
148
0.0
149
0.0
100
AcDbLayout
  1
Model
 70
     1
 71
     0
 10
0.0
 20
0.0
 11
297.0
 21
210.0
 12
0.0
 22
0.0
 32
0.0
 14
0.0
 24
0.0
 34
0.0
 15
0.0
 25
0.0
 35
0.0
146
0.0
 13
0.0
 23
0.0
 33
0.0
 16
1.0
 26
0.0
 36
0.0
 17
0.0
 27
1.0
 37
0.0
 76
     0
330
20
  0
ENDSEC
  0
EOF
