  0
SECTION
  2
HEADER
  9
$ACADVER
  1
AC1015
  9
$ACADMAINTVER
 70
     0
  9
$DWGCODEPAGE
  3
ANSI_932
  9
$INSBASE
 10
0.0
 20
0.0
 30
0.0
  9
$EXTMIN
 10
-65.0
 20
-40.0
  9
$EXTMAX
 10
101.0
 20
106.0
  9
$LIMMIN
 10
-65.0
 20
-40.0
  9
$LIMMAX
 10
101.0
 20
106.0
  9
$ORTHOMODE
 70
     0
  9
$REGENMODE
 70
     1
  9
$FILLMODE
 70
     1
  9
$QTEXTMODE
 70
     0
  9
$MIRRTEXT
 70
     1
  9
$LTSCALE
 40
1.0
  9
$OSMODE
 70
     0
  9
$ATTMODE
 70
     1
  9
$TEXTSIZE
 40
3.0
  9
$TRACEWID
 40
0.5
  9
$TEXTSTYLE
  7
STANDARD
  9
$CLAYER
  8
0
  9
$CELTYPE
  6
BYLAYER
  9
$CECOLOR
 62
   256
  9
$CELTSCALE
 40
1.0
  9
$DISPSILH
 70
     0
  9
$DIMSCALE
 40
1.0
  9
$DIMASZ
 40
3.0
  9
$DIMEXO
 40
1.0
  9
$DIMDLI
 40
5.0
  9
$DIMRND
 40
0.0
  9
$DIMDLE
 40
5.0
  9
$DIMEXE
 40
2.0
  9
$DIMTP
 40
0.0
  9
$DIMTM
 40
0.0
  9
$DIMTXT
 40
3.0
  9
$DIMCEN
 40
2.0
  9
$DIMTSZ
 40
0.0
  9
$DIMTOL
 70
     0
  9
$DIMLIM
 70
     0
  9
$DIMTIH
 70
     0
  9
$DIMTOH
 70
     0
  9
$DIMSE1
 70
     0
  9
$DIMSE2
 70
     0
  9
$DIMTAD
 70
     1
  9
$DIMZIN
 70
     8
  9
$DIMBLK
  1

  9
$DIMASO
 70
     1
  9
$DIMSHO
 70
     1
  9
$DIMPOST
  1

  9
$DIMAPOST
  1

  9
$DIMALT
 70
     0
  9
$DIMALTD
 70
     0
  9
$DIMALTF
 40
25.4
  9
$DIMLFAC
 40
1.0
  9
$DIMTOFL
 70
     1
  9
$DIMTVP
 40
1.0
  9
$DIMTIX
 70
     0
  9
$DIMSOXD
 70
     0
  9
$DIMSAH
 70
     0
  9
$DIMBLK1
  1

  9
$DIMBLK2
  1

  9
$DIMSTYLE
  2
ISO-25
  9
$DIMCLRD
 70
     0
  9
$DIMCLRE
 70
     0
  9
$DIMCLRT
 70
     0
  9
$DIMTFAC
 40
1.0
  9
$DIMGAP
 40
1.5
  9
$DIMJUST
 70
     0
  9
$DIMSD1
 70
     0
  9
$DIMSD2
 70
     0
  9
$DIMTOLJ
 70
     0
  9
$DIMTZIN
 70
     8
  9
$DIMALTZ
 70
     0
  9
$DIMALTTZ
 70
     0
  9
$DIMUPT
 70
     0
  9
$DIMDEC
 70
     2
  9
$DIMTDEC
 70
     2
  9
$DIMALTU
 70
     2
  9
$DIMALTTD
 70
     3
  9
$DIMTXSTY
  7
STANDARD
  9
$DIMAUNIT
 70
     0
  9
$DIMADEC
 70
     0
  9
$DIMALTRND
 40
0.0
  9
$DIMAZIN
 70
     0
  9
$DIMDSEP
 70
    46
  9
$DIMATFIT
 70
     3
  9
$DIMFRAC
 70
     0
  9
$DIMLDRBLK
  1

  9
$DIMLUNIT
 70
     2
  9
$DIMLWD
 70
    -2
  9
$DIMLWE
 70
    -2
  9
$DIMTMOVE
 70
     0
  9
$LUNITS
 70
     2
  9
$LUPREC
 70
     4
  9
$SKETCHINC
 40
1.0
  9
$FILLETRAD
 40
0.0
  9
$AUNITS
 70
     0
  9
$AUPREC
 70
     0
  9
$MENU
  1
.
  9
$ELEVATION
 40
0.0
  9
$PELEVATION
 40
0.0
  9
$THICKNESS
 40
0.0
  9
$LIMCHECK
 70
     0
  9
$CHAMFERA
 40
0.0
  9
$CHAMFERB
 40
0.0
  9
$CHAMFERC
 40
0.0
  9
$CHAMFERD
 40
0.0
  9
$SKPOLY
 70
     0
  9
$TDCREATE
 40
2454089.728263889
  9
$TDUCREATE
 40
2454089.728263889
  9
$TDUPDATE
 40
2454089.728263889
  9
$TDUUPDATE
 40
2454089.728263889
  9
$TDINDWG
 40
0.0
  9
$TDUSRTIMER
 40
0.0
  9
$USRTIMER
 70
     1
  9
$ANGBASE
 50
0.0
  9
$ANGDIR
 70
     0
  9
$PDMODE
 70
     0
  9
$PDSIZE
 40
0.0
  9
$PLINEWID
 40
0.0
  9
$SPLFRAME
 70
     0
  9
$SPLINETYPE
 70
     6
  9
$SPLINESEGS
 70
     8
  9
$HANDSEED
  5
12C
  9
$SURFTAB1
 70
     6
  9
$SURFTAB2
 70
     6
  9
$SURFTYPE
 70
     6
  9
$SURFU
 70
     6
  9
$SURFV
 70
     6
  9
$UCSBASE
  2

  9
$UCSNAME
  2

  9
$UCSORG
 10
0.0
 20
0.0
 30
0.0
  9
$UCSXDIR
 10
1.0
 20
0.0
 30
0.0
  9
$UCSYDIR
 10
0.0
 20
1.0
 30
0.0
  9
$UCSORTHOREF
  2

  9
$UCSORTHOVIEW
 70
     0
  9
$UCSORGTOP
 10
0.0
 20
0.0
 30
0.0
  9
$UCSORGBOTTOM
 10
0.0
 20
0.0
 30
0.0
  9
$UCSORGLEFT
 10
0.0
 20
0.0
 30
0.0
  9
$UCSORGRIGHT
 10
0.0
 20
0.0
 30
0.0
  9
$UCSORGFRONT
 10
0.0
 20
0.0
 30
0.0
  9
$UCSORGBACK
 10
0.0
 20
0.0
 30
0.0
  9
$PUCSBASE
  2

  9
$PUCSNAME
  2

  9
$PUCSORG
 10
0.0
 20
0.0
 30
0.0
  9
$PUCSXDIR
 10
1.0
 20
0.0
 30
0.0
  9
$PUCSYDIR
 10
0.0
 20
1.0
 30
0.0
  9
$PUCSORTHOREF
  2

  9
$PUCSORTHOVIEW
 70
     0
  9
$PUCSORGTOP
 10
0.0
 20
0.0
 30
0.0
  9
$PUCSORGBOTTOM
 10
0.0
 20
0.0
 30
0.0
  9
$PUCSORGLEFT
 10
0.0
 20
0.0
 30
0.0
  9
$PUCSORGRIGHT
 10
0.0
 20
0.0
 30
0.0
  9
$PUCSORGFRONT
 10
0.0
 20
0.0
 30
0.0
  9
$PUCSORGBACK
 10
0.0
 20
0.0
 30
0.0
  9
$USERI1
 70
     0
  9
$USERI2
 70
     0
  9
$USERI3
 70
     0
  9
$USERI4
 70
     0
  9
$USERI5
 70
     0
  9
$USERR1
 40
0.0
  9
$USERR2
 40
0.0
  9
$USERR3
 40
0.0
  9
$USERR4
 40
0.0
  9
$USERR5
 40
0.0
  9
$WORLDVIEW
 70
     1
  9
$SHADEDGE
 70
     3
  9
$SHADEDIF
 70
    70
  9
$MAXACTVP
 70
    16
  9
$PINSBASE
 10
0.0
 20
0.0
 30
0.0
  9
$PLIMCHECK
 70
     0
  9
$PEXTMIN
 10
1.000000E+20
 20
1.000000E+20
 30
1.000000E+20
  9
$PEXTMAX
 10
-1.000000E+20
 20
-1.000000E+20
 30
-1.000000E+20
  9
$PLIMMIN
 10
-65.0
 20
-40.0
  9
$PLIMMAX
 10
101.0
 20
106.0
  9
$UNITMODE
 70
     0
  9
$VISRETAIN
 70
     0
  9
$PLINEGEN
 70
     0
  9
$PSLTSCALE
 70
     0
  9
$TREEDEPTH
 70
  3020
  9
$CMLSTYLE
  2
STANDARD
  9
$CMLJUST
 70
     0
  9
$CMLSCALE
 40
1.0
  9
$PROXYGRAPHICS
 70
     1
  9
$MEASUREMENT
 70
     0
  9
$CELWEIGHT
370
    -3
  9
$ENDCAPS
280
     0
  9
$JOINSTYLE
280
     0
  9
$LWDISPLAY
290
     1
  9
$INSUNITS
 70
     0
  9
$HYPERLINKBASE
  1

  9
$STYLESHEET
  1

  9
$XEDIT
290
     1
  9
$CEPSNTYPE
380
     0
  9
$PSTYLEMODE
290
     1
  9
$FINGERPRINTGUID
  2
{6F25CFC2-5053-11D3-9BE9-00805F4AB38E}
  9
$VERSIONGUID
  2
{6F25CFC5-5053-11D3-9BE9-00805F4AB38E}
  9
$EXTNAMES
290
     1
  9
$PSVPSCALE
 40
0.0
  9
$OLESTARTUP
290
     0
  0
ENDSEC
  0
SECTION
  2
CLASSES
  0
CLASS
  1
LWPOLYLINE
  2
AcDbPolyline
  3
AutoCAD 2000
 90
    32768
280
     0
281
     1
  0
CLASS
  1
DICTIONARYVAR
  2
AcDbDictionaryVar
  3
AutoCAD 2000
 90
        0
280
     0
281
     1
  0
CLASS
  1
ACDBDICTIONARYWDFLT
  2
AcDbDictionaryWithDefault
  3
AutoCAD 2000
 90
        0
280
     0
281
     1
  0
CLASS
  1
ACDBPLACEHOLDER
  2
AcDbPlaceHolder
  3
AutoCAD 2000
 90
        0
280
     0
281
     1
  0
CLASS
  1
LAYOUT
  2
AcDbLayout
  3
AutoCAD 2000
 90
        0
280
     0
281
     1
  0
CLASS
  1
HATCH
  2
AcDbHatch
  3
AutoCAD 2000
 90
        0
280
     0
281
     1
  0
ENDSEC
  0
SECTION
  2
TABLES
  0
TABLE
  2
VPORT
  5
8
100
AcDbSymbolTable
 70
     1
  0
VPORT
  5
122
330
0
100
AcDbSymbolTableRecord
100
AcDbViewportTableRecord
  2
*ACTIVE
 70
     0
 10
0.0
 20
0.0
 11
1.0
 21
1.0
 12
18.0
 22
33.0
 13
0.0
 23
0.0
 14
0.0
 24
0.0
 15
0.0
 25
0.0
 16
0.0
 26
0.0
 36
1.0
 17
0.0
 27
0.0
 37
0.0
 40
146.0
 41
1.5
 42
50.0
 43
0.0
 44
0.0
 50
0.0
 51
0.0
 71
     0
 72
   100
 73
     1
 74
     1
 75
     0
 76
     0
 77
     0
 78
     0
281
     0
 65
     1
110
0.0
120
0.0
130
0.0
111
1.0
121
0.0
131
0.0
112
0.0
122
1.0
132
0.0
 79
     0
146
0.0
  0
ENDTAB
  0
TABLE
  2
LTYPE
  5
5
330
0
100
AcDbSymbolTable
 70
    20
  0
LTYPE
  5
123
330
5
100
AcDbSymbolTableRecord
100
AcDbLinetypeTableRecord
  2
BYBLOCK
 70
     0
  3

 72
    65
 73
     0
 40
0.0
  0
LTYPE
  5
124
330
5
100
AcDbSymbolTableRecord
100
AcDbLinetypeTableRecord
  2
BYLAYER
 70
     0
  3

 72
    65
 73
     0
 40
0.0
  0
LTYPE
  5
125
330
5
100
AcDbSymbolTableRecord
100
AcDbLinetypeTableRecord
  2
CONTINUOUS
 70
    64
  3
solid line
 72
    65
 73
     0
 40
0.0
  0
LTYPE
  5
126
330
0
100
AcDbSymbolTableRecord
100
AcDbLinetypeTableRecord
  2
DASHED
 70
    64
  3
-- -- -- -- -- -- -- -- -- -- 
 72
    65
 73
     2
 40
3.0
 49
2.0
 74
     0
 49
-1.0
 74
     0
  0
LTYPE
  5
127
330
0
100
AcDbSymbolTableRecord
100
AcDbLinetypeTableRecord
  2
CENTER
 70
    64
  3
--- - --- - --- - --- - --- - 
 72
    65
 73
     4
 40
6.0
 49
3.0
 74
     0
 49
-1.0
 74
     0
 49
1.0
 74
     0
 49
-1.0
 74
     0
  0
ENDTAB
  0
TABLE
  2
LAYER
  5
2
330
0
100
AcDbSymbolTable
 70
    20
  0
LAYER
  5
128
330
2
100
AcDbSymbolTableRecord
100
AcDbLayerTableRecord
  2
0
 70
    64
 62
     7
  6
CONTINUOUS
370
    -3
390
11E
  0
LAYER
  5
25
330
2
100
AcDbSymbolTableRecord
100
AcDbLayerTableRecord
  2
100
 70
    64
 62
     7
  6
CONTINUOUS
370
    -3
390
11E
  0
LAYER
  5
89
330
2
100
AcDbSymbolTableRecord
100
AcDbLayerTableRecord
  2
10
 70
    64
 62
     7
  6
CONTINUOUS
370
    -3
390
11E
  0
ENDTAB
  0
TABLE
  2
STYLE
  5
3
330
0
100
AcDbSymbolTable
 70
     4
  0
STYLE
  5
129
330
3
100
AcDbSymbolTableRecord
100
AcDbTextStyleTableRecord
  2
STANDARD
 70
    64
 40
0.0
 41
1.052631578947368
 50
0.0
 71
     0
 42
3.0
  3
monotxt
  4

  0
ENDTAB
  0
TABLE
  2
VIEW
  5
6
330
0
100
AcDbSymbolTable
 70
     0
  0
ENDTAB
  0
TABLE
  2
UCS
  5
7
330
0
100
AcDbSymbolTable
 70
     0
  0
ENDTAB
  0
TABLE
  2
APPID
  5
9
330
0
100
AcDbSymbolTable
 70
     1
  0
APPID
  5
12A
330
9
100
AcDbSymbolTableRecord
100
AcDbRegAppTableRecord
  2
ACAD
 70
     0
  0
ENDTAB
  0
TABLE
  2
DIMSTYLE
  5
A
330
0
100
AcDbSymbolTable
 70
     8
100
AcDbDimStyleTable
 71
     0
  0
DIMSTYLE
105
12B
330
A
100
AcDbSymbolTableRecord
100
AcDbDimStyleTableRecord
  2
ISO-25
 70
     0
  3

  4

  5

  6

  7

 40
1.0
 41
3.0
 42
1.0
 43
5.0
 44
2.0
 45
0.0
 46
5.0
 47
0.0
 48
0.0
140
3.0
141
2.0
142
0.0
143
25.4
144
1.0
145
1.0
146
1.0
147
1.5
 71
     0
 72
     0
 73
     0
 74
     0
 75
     0
 76
     0
 77
     1
 78
     8
170
     0
171
     0
172
     1
173
     0
174
     0
175
     0
176
     0
177
     0
178
     0
270
     0
271
     2
272
     2
273
     2
274
     3
340
129
275
     0
277
     2
280
     0
281
     0
282
     0
283
     0
284
     8
285
     0
286
     0
287
     3
288
     0
  0
ENDTAB
  0
TABLE
  2
BLOCK_RECORD
  5
1
330
0
100
AcDbSymbolTable
 70
     2
  0
BLOCK_RECORD
  5
20
330
1
100
AcDbSymbolTableRecord
100
AcDbBlockTableRecord
  2
*MODEL_SPACE
340
11F
  0
BLOCK_RECORD
  5
22
330
1
100
AcDbSymbolTableRecord
100
AcDbBlockTableRecord
  2
*PAPER_SPACE
340
0
  0
ENDTAB
  0
ENDSEC
  0
SECTION
  2
BLOCKS
  0
BLOCK
  5
21
330
20
100
AcDbEntity
  8
0
100
AcDbBlockBegin
  2
*MODEL_SPACE
 70
     0
 10
0.0
 20
0.0
 30
0.0
  3
*MODEL_SPACE
  1

  0
ENDBLK
  5
120
330
20
100
AcDbEntity
  8
0
100
AcDbBlockEnd
  0
BLOCK
  5
23
330
22
100
AcDbEntity
 67
     1
  8
0
100
AcDbBlockBegin
  2
*PAPER_SPACE
 70
     0
 10
0.0
 20
0.0
 30
0.0
  3
*PAPER_SPACE
  1

  0
ENDBLK
  5
121
330
22
100
AcDbEntity
 67
     1
  8
0
100
AcDbBlockEnd
  0
ENDSEC
  0
SECTION
  2
ENTITIES
  0
LINE
  5
24
330
20
100
AcDbEntity
  8
100
  6
CENTER
100
AcDbLine
 10
-9.0
 20
90.0
 11
9.0
 21
90.0
  0
LINE
  5
26
330
20
100
AcDbEntity
  8
100
  6
CENTER
100
AcDbLine
 10
0.0
 20
81.0
 11
0.0
 21
99.0
  0
LINE
  5
27
330
20
100
AcDbEntity
  8
100
  6
CENTER
100
AcDbLine
 10
0.0
 20
40.0
 11
0.0
 21
-40.0
  0
LINE
  5
28
330
20
100
AcDbEntity
  8
100
  6
DASHED
100
AcDbLine
 10
6.0
 20
35.0
 11
6.0
 21
18.0
  0
LINE
  5
29
330
20
100
AcDbEntity
  8
100
  6
DASHED
100
AcDbLine
 10
-6.0
 20
35.0
 11
-6.0
 21
18.0
  0
LINE
  5
2A
330
20
100
AcDbEntity
  8
100
  6
DASHED
100
AcDbLine
 10
-5.0
 20
35.0
 11
-5.0
 21
18.0
  0
LINE
  5
2B
330
20
100
AcDbEntity
  8
100
  6
DASHED
100
AcDbLine
 10
5.0
 20
35.0
 11
5.0
 21
18.0
  0
CIRCLE
  5
2C
330
20
100
AcDbEntity
  8
100
  6
CONTINUOUS
100
AcDbCircle
 10
0.0
 20
90.0
 40
6.0
  0
CIRCLE
  5
2D
330
20
100
AcDbEntity
  8
100
  6
CONTINUOUS
100
AcDbCircle
 10
0.0
 20
90.0
 40
5.0
  0
LINE
  5
2E
330
20
100
AcDbEntity
  8
100
  6
CONTINUOUS
100
AcDbLine
 10
9.0
 20
18.0
 11
-28.0
 21
18.0
  0
LINE
  5
2F
330
20
100
AcDbEntity
  8
100
  6
CONTINUOUS
100
AcDbLine
 10
75.0
 20
-35.0
 11
75.0
 21
35.0
  0
LINE
  5
30
330
20
100
AcDbEntity
  8
100
  6
CONTINUOUS
100
AcDbLine
 10
95.0
 20
-35.0
 11
95.0
 21
35.0
  0
LINE
  5
31
330
20
100
AcDbEntity
  8
100
  6
CONTINUOUS
100
AcDbLine
 10
95.0
 20
-35.0
 11
75.0
 21
-35.0
  0
LINE
  5
32
330
20
100
AcDbEntity
  8
100
  6
CONTINUOUS
100
AcDbLine
 10
75.0
 20
-9.0
 11
95.0
 21
-9.0
  0
LINE
  5
33
330
20
100
AcDbEntity
  8
100
  6
CONTINUOUS
100
AcDbLine
 10
75.0
 20
-18.0
 11
95.0
 21
-18.0
  0
LINE
  5
34
330
20
100
AcDbEntity
  8
100
  6
CONTINUOUS
100
AcDbLine
 10
29.0
 20
14.5
 11
29.0
 21
-34.5
  0
LINE
  5
35
330
20
100
AcDbEntity
  8
100
  6
CONTINUOUS
100
AcDbLine
 10
-29.0
 20
14.5
 11
-29.0
 21
-34.5
  0
LINE
  5
36
330
20
100
AcDbEntity
  8
100
  6
CONTINUOUS
100
AcDbLine
 10
-29.0
 20
14.5
 11
29.0
 21
14.5
  0
LINE
  5
37
330
20
100
AcDbEntity
  8
100
  6
CONTINUOUS
100
AcDbLine
 10
30.0
 20
-9.0
 11
30.0
 21
30.0
  0
LINE
  5
38
330
20
100
AcDbEntity
  8
100
  6
CONTINUOUS
100
AcDbLine
 10
29.0
 20
-9.0
 11
30.0
 21
-9.0
  0
LINE
  5
39
330
20
100
AcDbEntity
  8
100
  6
CONTINUOUS
100
AcDbLine
 10
28.0
 20
30.0
 11
30.0
 21
30.0
  0
LINE
  5
3A
330
20
100
AcDbEntity
  8
100
  6
CONTINUOUS
100
AcDbLine
 10
-28.0
 20
18.0
 11
-28.0
 21
35.0
  0
LINE
  5
3B
330
20
100
AcDbEntity
  8
100
  6
CONTINUOUS
100
AcDbLine
 10
28.0
 20
14.5
 11
28.0
 21
35.0
  0
LINE
  5
3C
330
20
100
AcDbEntity
  8
100
  6
CONTINUOUS
100
AcDbLine
 10
101.0
 20
14.5
 11
101.0
 21
-13.49999999999999
  0
LINE
  5
3D
330
20
100
AcDbEntity
  8
100
  6
CONTINUOUS
100
AcDbLine
 10
69.0
 20
14.5
 11
69.0
 21
-13.5
  0
LINE
  5
3E
330
20
100
AcDbEntity
  8
100
  6
CONTINUOUS
100
AcDbLine
 10
96.0
 20
-18.5
 11
96.0
 21
-34.5
  0
LINE
  5
3F
330
20
100
AcDbEntity
  8
100
  6
CONTINUOUS
100
AcDbLine
 10
74.0
 20
-18.5
 11
74.0
 21
-34.5
  0
LINE
  5
40
330
20
100
AcDbEntity
  8
100
  6
CONTINUOUS
100
AcDbLine
 10
100.0
 20
13.5
 11
100.0
 21
-13.08578643762689
  0
LINE
  5
41
330
20
100
AcDbEntity
  8
100
  6
CONTINUOUS
100
AcDbLine
 10
70.0
 20
13.5
 11
70.0
 21
-13.08578643762689
  0
LINE
  5
42
330
20
100
AcDbEntity
  8
100
  6
CONTINUOUS
100
AcDbLine
 10
74.0
 20
-18.5
 11
68.99000000000001
 21
-13.49
  0
LINE
  5
43
330
20
100
AcDbEntity
  8
100
  6
CONTINUOUS
100
AcDbLine
 10
101.0
 20
-13.49999999999999
 11
96.0
 21
-18.5
  0
LINE
  5
44
330
20
100
AcDbEntity
  8
100
  6
CONTINUOUS
100
AcDbLine
 10
100.0
 20
-13.08578643762689
 11
95.0
 21
-18.08578643762689
  0
LINE
  5
45
330
20
100
AcDbEntity
  8
100
  6
CONTINUOUS
100
AcDbLine
 10
75.0
 20
-18.08578643762689
 11
70.0
 21
-13.08578643762689
  0
LINE
  5
46
330
20
100
AcDbEntity
  8
100
  6
CONTINUOUS
100
AcDbLine
 10
74.0
 20
-34.5
 11
75.0
 21
-34.5
  0
LINE
  5
47
330
20
100
AcDbEntity
  8
100
  6
CONTINUOUS
100
AcDbLine
 10
95.0
 20
-34.5
 11
96.0
 21
-34.5
  0
LINE
  5
48
330
20
100
AcDbEntity
  8
100
  6
CONTINUOUS
100
AcDbLine
 10
96.5
 20
14.5
 11
96.5
 21
13.5
  0
LINE
  5
49
330
20
100
AcDbEntity
  8
100
  6
CONTINUOUS
100
AcDbLine
 10
73.5
 20
14.5
 11
73.5
 21
13.5
  0
LINE
  5
4A
330
20
100
AcDbEntity
  8
100
  6
CONTINUOUS
100
AcDbLine
 10
70.0
 20
13.5
 11
75.0
 21
13.5
  0
LINE
  5
4B
330
20
100
AcDbEntity
  8
100
  6
CONTINUOUS
100
AcDbLine
 10
95.0
 20
13.5
 11
100.0
 21
13.5
  0
LINE
  5
4C
330
20
100
AcDbEntity
  8
100
  6
CONTINUOUS
100
AcDbLine
 10
69.0
 20
14.5
 11
75.0
 21
14.5
  0
LINE
  5
4D
330
20
100
AcDbEntity
  8
100
  6
CONTINUOUS
100
AcDbLine
 10
95.0
 20
14.5
 11
101.0
 21
14.5
  0
LINE
  5
4E
330
20
100
AcDbEntity
  8
100
  6
CONTINUOUS
100
AcDbLine
 10
75.0
 20
30.0
 11
95.0
 21
30.0
  0
LINE
  5
4F
330
20
100
AcDbEntity
  8
100
  6
CONTINUOUS
100
AcDbLine
 10
28.0
 20
35.0
 11
-28.0
 21
35.0
  0
LINE
  5
50
330
20
100
AcDbEntity
  8
100
  6
CONTINUOUS
100
AcDbLine
 10
28.0
 20
-35.0
 11
-28.0
 21
-35.0
  0
ARC
  5
51
330
20
100
AcDbEntity
  8
100
  6
CONTINUOUS
100
AcDbCircle
 10
9.0
 20
14.0
 40
4.0
100
AcDbArc
 50
7.180755781458281
 51
90.0
  0
LINE
  5
52
330
20
100
AcDbEntity
  8
100
  6
CONTINUOUS
100
AcDbLine
 10
-29.0
 20
-34.5
 11
29.0
 21
-34.5
  0
LINE
  5
53
330
20
100
AcDbEntity
  8
100
  6
CONTINUOUS
100
AcDbLine
 10
-29.0
 20
-13.5
 11
29.0
 21
-13.5
  0
LINE
  5
54
330
20
100
AcDbEntity
  8
100
  6
CONTINUOUS
100
AcDbLine
 10
-29.0
 20
-18.49999999999997
 11
29.0
 21
-18.49999999999997
  0
LINE
  5
55
330
20
100
AcDbEntity
  8
100
  6
CONTINUOUS
100
AcDbLine
 10
-28.0
 20
-35.0
 11
-28.0
 21
-34.5
  0
LINE
  5
56
330
20
100
AcDbEntity
  8
100
  6
CONTINUOUS
100
AcDbLine
 10
28.0
 20
-35.0
 11
28.0
 21
-34.5
  0
LINE
  5
57
330
20
100
AcDbEntity
  8
100
  6
CONTINUOUS
100
AcDbLine
 10
98.0
 20
-8.0
 11
98.0
 21
8.0
  0
LINE
  5
58
330
20
100
AcDbEntity
  8
100
  6
CONTINUOUS
100
AcDbLine
 10
72.0
 20
-8.0
 11
72.0
 21
8.0
  0
LINE
  5
59
330
20
100
AcDbEntity
  8
100
  6
CONTINUOUS
100
AcDbLine
 10
96.0
 20
-10.0
 11
96.0
 21
10.0
  0
LINE
  5
5A
330
20
100
AcDbEntity
  8
100
  6
CONTINUOUS
100
AcDbLine
 10
74.0
 20
-10.0
 11
74.0
 21
10.0
  0
LINE
  5
5B
330
20
100
AcDbEntity
  8
100
  6
CONTINUOUS
100
AcDbLine
 10
96.0
 20
10.0
 11
98.0
 21
8.0
  0
LINE
  5
5C
330
20
100
AcDbEntity
  8
100
  6
CONTINUOUS
100
AcDbLine
 10
98.0
 20
-8.0
 11
96.0
 21
-10.0
  0
LINE
  5
5D
330
20
100
AcDbEntity
  8
100
  6
CONTINUOUS
100
AcDbLine
 10
74.00000000000003
 20
-10.0
 11
72.0
 21
-8.0
  0
LINE
  5
5E
330
20
100
AcDbEntity
  8
100
  6
CONTINUOUS
100
AcDbLine
 10
72.0
 20
8.0
 11
74.0
 21
10.0
  0
LINE
  5
5F
330
20
100
AcDbEntity
  8
100
  6
CONTINUOUS
100
AcDbLine
 10
74.0
 20
10.0
 11
75.0
 21
10.0
  0
LINE
  5
60
330
20
100
AcDbEntity
  8
100
  6
CONTINUOUS
100
AcDbLine
 10
95.0
 20
10.0
 11
96.0
 21
10.0
  0
LINE
  5
61
330
20
100
AcDbEntity
  8
100
  6
CONTINUOUS
100
AcDbLine
 10
74.00000000000003
 20
-10.0
 11
75.0
 21
-10.0
  0
LINE
  5
62
330
20
100
AcDbEntity
  8
100
  6
CONTINUOUS
100
AcDbLine
 10
95.0
 20
-10.0
 11
96.0
 21
-10.0
  0
LINE
  5
63
330
20
100
AcDbEntity
  8
100
  6
CONTINUOUS
100
AcDbLine
 10
75.0
 20
35.0
 11
95.0
 21
35.0
  0
LINE
  5
64
330
20
100
AcDbEntity
  8
100
  6
CENTER
100
AcDbLine
 10
-25.0
 20
0.0
 11
-65.0
 21
0.0
  0
LINE
  5
65
330
20
100
AcDbEntity
  8
100
  6
CONTINUOUS
100
AcDbLine
 10
-46.0
 20
-5.75
 11
-46.0
 21
5.75
  0
LINE
  5
66
330
20
100
AcDbEntity
  8
100
  6
CONTINUOUS
100
AcDbLine
 10
-29.0
 20
5.75
 11
-46.0
 21
5.75
  0
LINE
  5
67
330
20
100
AcDbEntity
  8
100
  6
CONTINUOUS
100
AcDbLine
 10
-29.0
 20
-5.75
 11
-46.0
 21
-5.75
  0
ARC
  5
68
330
20
100
AcDbEntity
  8
100
  6
CONTINUOUS
100
AcDbCircle
 10
-58.625
 20
1.5
 40
1.625
100
AcDbArc
 50
292.6198649480405
 51
67.38013505195957
  0
ARC
  5
69
330
20
100
AcDbEntity
  8
100
  6
CONTINUOUS
100
AcDbCircle
 10
-57.375
 20
-1.5
 40
1.625
100
AcDbArc
 50
112.6198649480404
 51
247.3801350519596
  0
ARC
  5
6A
330
20
100
AcDbEntity
  8
100
  6
CONTINUOUS
100
AcDbCircle
 10
-57.375
 20
1.5
 40
1.625
100
AcDbArc
 50
112.6198649480404
 51
247.3801350519596
  0
LINE
  5
6B
330
20
100
AcDbEntity
  8
100
  6
CONTINUOUS
100
AcDbLine
 10
28.0
 20
80.0
 11
-28.0
 21
80.0
  0
LINE
  5
6C
330
20
100
AcDbEntity
  8
100
  6
CONTINUOUS
100
AcDbLine
 10
28.0
 20
100.0
 11
-28.0
 21
100.0
  0
LINE
  5
6D
330
20
100
AcDbEntity
  8
100
  6
CONTINUOUS
100
AcDbLine
 10
-28.0
 20
100.0
 11
-28.0
 21
80.0
  0
LINE
  5
6E
330
20
100
AcDbEntity
  8
100
  6
CONTINUOUS
100
AcDbLine
 10
28.0
 20
100.0
 11
28.0
 21
80.0
  0
LINE
  5
6F
330
20
100
AcDbEntity
  8
100
  6
CONTINUOUS
100
AcDbLine
 10
-29.0
 20
106.0
 11
29.0
 21
106.0
  0
LINE
  5
70
330
20
100
AcDbEntity
  8
100
  6
CONTINUOUS
100
AcDbLine
 10
-29.0
 20
74.0
 11
29.0
 21
74.0
  0
LINE
  5
71
330
20
100
AcDbEntity
  8
100
  6
CONTINUOUS
100
AcDbLine
 10
-29.0
 20
74.0
 11
-29.0
 21
106.0
  0
LINE
  5
72
330
20
100
AcDbEntity
  8
100
  6
CONTINUOUS
100
AcDbLine
 10
9.0
 20
101.5
 11
29.0
 21
101.5
  0
LINE
  5
73
330
20
100
AcDbEntity
  8
100
  6
CONTINUOUS
100
AcDbLine
 10
9.0
 20
78.5
 11
29.0
 21
78.5
  0
LINE
  5
74
330
20
100
AcDbEntity
  8
100
  6
CONTINUOUS
100
AcDbLine
 10
9.0
 20
100.0
 11
29.0
 21
100.0
  0
LINE
  5
75
330
20
100
AcDbEntity
  8
100
  6
CONTINUOUS
100
AcDbLine
 10
9.0
 20
80.0
 11
29.0
 21
80.0
  0
LINE
  5
76
330
20
100
AcDbEntity
  8
100
  6
CONTINUOUS
100
AcDbLine
 10
29.0
 20
74.0
 11
29.0
 21
80.0
  0
LINE
  5
77
330
20
100
AcDbEntity
  8
100
  6
CONTINUOUS
100
AcDbLine
 10
29.0
 20
100.0
 11
29.0
 21
106.0
  0
LINE
  5
78
330
20
100
AcDbEntity
  8
100
  6
CONTINUOUS
100
AcDbLine
 10
9.0
 20
78.5
 11
9.0
 21
80.0
  0
LINE
  5
79
330
20
100
AcDbEntity
  8
100
  6
CONTINUOUS
100
AcDbLine
 10
9.0
 20
100.0
 11
9.0
 21
101.5
  0
LINE
  5
7A
330
20
100
AcDbEntity
  8
100
  6
CONTINUOUS
100
AcDbLine
 10
30.0
 20
100.0
 11
30.0
 21
80.0
  0
LINE
  5
7B
330
20
100
AcDbEntity
  8
100
  6
CONTINUOUS
100
AcDbLine
 10
28.0
 20
100.0
 11
30.0
 21
100.0
  0
LINE
  5
7C
330
20
100
AcDbEntity
  8
100
  6
CONTINUOUS
100
AcDbLine
 10
28.0
 20
80.0
 11
30.0
 21
80.0
  0
LINE
  5
7D
330
20
100
AcDbEntity
  8
100
  6
CONTINUOUS
100
AcDbLine
 10
-46.0
 20
3.0
 11
-58.0
 21
3.0
  0
LINE
  5
7E
330
20
100
AcDbEntity
  8
100
  6
CONTINUOUS
100
AcDbLine
 10
-46.0
 20
-3.0
 11
-58.0
 21
-3.0
  0
ARC
  5
7F
330
20
100
AcDbEntity
  8
100
  6
CONTINUOUS
100
AcDbCircle
 10
-57.375
 20
91.5
 40
1.625
100
AcDbArc
 50
112.6198649480404
 51
247.3801350519596
  0
ARC
  5
80
330
20
100
AcDbEntity
  8
100
  6
CONTINUOUS
100
AcDbCircle
 10
-58.625
 20
91.5
 40
1.625
100
AcDbArc
 50
292.6198649480405
 51
67.38013505195957
  0
ARC
  5
81
330
20
100
AcDbEntity
  8
100
  6
CONTINUOUS
100
AcDbCircle
 10
-57.375
 20
88.5
 40
1.625
100
AcDbArc
 50
112.6198649480404
 51
247.3801350519596
  0
LINE
  5
82
330
20
100
AcDbEntity
  8
100
  6
CENTER
100
AcDbLine
 10
-25.0
 20
90.0
 11
-65.0
 21
90.0
  0
LINE
  5
83
330
20
100
AcDbEntity
  8
100
  6
CONTINUOUS
100
AcDbLine
 10
-46.0
 20
93.0
 11
-58.0
 21
93.0
  0
LINE
  5
84
330
20
100
AcDbEntity
  8
100
  6
CONTINUOUS
100
AcDbLine
 10
-46.0
 20
87.0
 11
-58.0
 21
87.0
  0
LINE
  5
85
330
20
100
AcDbEntity
  8
100
  6
CONTINUOUS
100
AcDbLine
 10
-29.0
 20
84.25
 11
-46.0
 21
84.25
  0
LINE
  5
86
330
20
100
AcDbEntity
  8
100
  6
CONTINUOUS
100
AcDbLine
 10
-29.0
 20
95.75
 11
-46.0
 21
95.75
  0
LINE
  5
87
330
20
100
AcDbEntity
  8
100
  6
CONTINUOUS
100
AcDbLine
 10
-46.0
 20
84.25
 11
-46.0
 21
95.75
  0
LINE
  5
88
330
20
100
AcDbEntity
  8
10
  6
CONTINUOUS
100
AcDbLine
 10
74.0
 20
-24.50000250000002
 11
74.0
 21
-24.61905
  0
LINE
  5
8A
330
20
100
AcDbEntity
  8
10
  6
CONTINUOUS
100
AcDbLine
 10
74.0
 20
-24.61905
 11
74.0
 21
-29.49999749999998
  0
LINE
  5
8B
330
20
100
AcDbEntity
  8
10
  6
CONTINUOUS
100
AcDbLine
 10
72.968255
 20
-29.40973150885047
 11
74.0
 21
-29.49999749999998
  0
LINE
  5
8C
330
20
100
AcDbEntity
  8
10
  6
CONTINUOUS
100
AcDbLine
 10
72.968255
 20
-24.59026849114953
 11
72.968255
 21
-29.40973150885047
  0
LINE
  5
8D
330
20
100
AcDbEntity
  8
10
  6
CONTINUOUS
100
AcDbLine
 10
72.968255
 20
-24.59026849114953
 11
74.0
 21
-24.50000250000002
  0
ARC
  5
8E
330
20
100
AcDbEntity
  8
10
  6
CONTINUOUS
100
AcDbCircle
 10
78.82731233913634
 20
-27.0
 40
6.335247339136317
100
AcDbArc
 50
157.6434605857299
 51
202.3565394142702
  0
CIRCLE
  5
8F
330
20
100
AcDbEntity
  8
10
  6
CONTINUOUS
100
AcDbCircle
 10
92.5
 20
27.5
 40
1.99999998
  0
ARC
  5
90
330
20
100
AcDbEntity
  8
10
  6
CONTINUOUS
100
AcDbCircle
 10
92.5
 20
27.5
 40
1.27272726
100
AcDbArc
 50
81.78678929826212
 51
90.0
  0
ARC
  5
91
330
20
100
AcDbEntity
  8
10
  6
CONTINUOUS
100
AcDbCircle
 10
92.5
 20
27.5
 40
1.27272726
100
AcDbArc
 50
351.786789298262
 51
8.213210701738062
  0
ARC
  5
92
330
20
100
AcDbEntity
  8
10
  6
CONTINUOUS
100
AcDbCircle
 10
92.5
 20
27.5
 40
1.27272726
100
AcDbArc
 50
261.7867892982621
 51
278.2132107017379
  0
ARC
  5
93
330
20
100
AcDbEntity
  8
10
  6
CONTINUOUS
100
AcDbCircle
 10
92.5
 20
27.5
 40
1.27272726
100
AcDbArc
 50
171.7867892982625
 51
188.2132107017375
  0
ARC
  5
94
330
20
100
AcDbEntity
  8
10
  6
CONTINUOUS
100
AcDbCircle
 10
92.5
 20
27.5
 40
1.27272726
100
AcDbArc
 50
90.0
 51
98.21321070173788
  0
LINE
  5
95
330
20
100
AcDbEntity
  8
10
  6
CONTINUOUS
100
AcDbLine
 10
92.68181817999999
 20
26.24032669800118
 11
92.68181817999999
 21
26.88181818800001
  0
LINE
  5
96
330
20
100
AcDbEntity
  8
10
  6
CONTINUOUS
100
AcDbLine
 10
92.68181817999999
 20
28.11818181199999
 11
92.68181817999999
 21
28.75967330199882
  0
LINE
  5
97
330
20
100
AcDbEntity
  8
10
  6
CONTINUOUS
100
AcDbLine
 10
92.31818182000001
 20
26.24032669800118
 11
92.31818182000001
 21
26.88181818800001
  0
LINE
  5
98
330
20
100
AcDbEntity
  8
10
  6
CONTINUOUS
100
AcDbLine
 10
92.31818182000001
 20
28.11818181199999
 11
92.31818182000001
 21
28.75967330199882
  0
LINE
  5
99
330
20
100
AcDbEntity
  8
10
  6
CONTINUOUS
100
AcDbLine
 10
91.24032669800113
 20
27.68181817999999
 11
91.88181818799998
 21
27.68181817999999
  0
LINE
  5
9A
330
20
100
AcDbEntity
  8
10
  6
CONTINUOUS
100
AcDbLine
 10
93.11818181199993
 20
27.68181817999999
 11
93.75967330199879
 21
27.68181817999999
  0
LINE
  5
9B
330
20
100
AcDbEntity
  8
10
  6
CONTINUOUS
100
AcDbLine
 10
91.24032669800113
 20
27.31818182000001
 11
91.88181818799998
 21
27.31818182000001
  0
LINE
  5
9C
330
20
100
AcDbEntity
  8
10
  6
CONTINUOUS
100
AcDbLine
 10
93.11818181199993
 20
27.31818182000001
 11
93.75967330199879
 21
27.31818182000001
  0
ARC
  5
9D
330
20
100
AcDbEntity
  8
10
  6
CONTINUOUS
100
AcDbCircle
 10
93.11818181199993
 20
28.11818181199999
 40
0.436363632
100
AcDbArc
 50
180.0
 51
270.0
  0
ARC
  5
9E
330
20
100
AcDbEntity
  8
10
  6
CONTINUOUS
100
AcDbCircle
 10
93.11818181199993
 20
26.88181818800001
 40
0.436363632
100
AcDbArc
 50
90.0
 51
180.0
  0
ARC
  5
9F
330
20
100
AcDbEntity
  8
10
  6
CONTINUOUS
100
AcDbCircle
 10
91.88181818799998
 20
26.88181818800001
 40
0.436363632
100
AcDbArc
 50
0.0
 51
90.0
  0
ARC
  5
A0
330
20
100
AcDbEntity
  8
10
  6
CONTINUOUS
100
AcDbCircle
 10
91.88181818799998
 20
28.11818181199999
 40
0.436363632
100
AcDbArc
 50
270.0
 51
0.0
  0
CIRCLE
  5
A1
330
20
100
AcDbEntity
  8
10
  6
CONTINUOUS
100
AcDbCircle
 10
20.0
 20
-27.0
 40
2.4999999999975
  0
ARC
  5
A2
330
20
100
AcDbEntity
  8
10
  6
CONTINUOUS
100
AcDbCircle
 10
20.0
 20
-27.0
 40
1.5909090909075
100
AcDbArc
 50
81.78678929826214
 51
90.0
  0
ARC
  5
A3
330
20
100
AcDbEntity
  8
10
  6
CONTINUOUS
100
AcDbCircle
 10
20.0
 20
-27.0
 40
1.5909090909075
100
AcDbArc
 50
351.7867892982617
 51
8.213210701738294
  0
ARC
  5
A4
330
20
100
AcDbEntity
  8
10
  6
CONTINUOUS
100
AcDbCircle
 10
20.0
 20
-27.0
 40
1.5909090909075
100
AcDbArc
 50
261.7867892982621
 51
278.2132107017379
  0
ARC
  5
A5
330
20
100
AcDbEntity
  8
10
  6
CONTINUOUS
100
AcDbCircle
 10
20.0
 20
-27.0
 40
1.5909090909075
100
AcDbArc
 50
171.7867892982617
 51
188.2132107017383
  0
ARC
  5
A6
330
20
100
AcDbEntity
  8
10
  6
CONTINUOUS
100
AcDbCircle
 10
20.0
 20
-27.0
 40
1.5909090909075
100
AcDbArc
 50
90.0
 51
98.21321070173786
  0
LINE
  5
A7
330
20
100
AcDbEntity
  8
10
  6
CONTINUOUS
100
AcDbLine
 10
20.22727272727249
 20
-28.57459164324287
 11
20.22727272727249
 21
-27.77272727272647
  0
LINE
  5
A8
330
20
100
AcDbEntity
  8
10
  6
CONTINUOUS
100
AcDbLine
 10
20.22727272727249
 20
-26.22727272727353
 11
20.22727272727249
 21
-25.42540835675713
  0
LINE
  5
A9
330
20
100
AcDbEntity
  8
10
  6
CONTINUOUS
100
AcDbLine
 10
19.77272727272751
 20
-28.57459164324287
 11
19.77272727272751
 21
-27.77272727272647
  0
LINE
  5
AA
330
20
100
AcDbEntity
  8
10
  6
CONTINUOUS
100
AcDbLine
 10
19.77272727272751
 20
-26.22727272727353
 11
19.77272727272751
 21
-25.42540835675713
  0
LINE
  5
AB
330
20
100
AcDbEntity
  8
10
  6
CONTINUOUS
100
AcDbLine
 10
18.42540835675712
 20
-26.77272727272749
 11
19.22727272727354
 21
-26.77272727272749
  0
LINE
  5
AC
330
20
100
AcDbEntity
  8
10
  6
CONTINUOUS
100
AcDbLine
 10
20.77272727272646
 20
-26.77272727272749
 11
21.57459164324288
 21
-26.77272727272749
  0
LINE
  5
AD
330
20
100
AcDbEntity
  8
10
  6
CONTINUOUS
100
AcDbLine
 10
18.42540835675712
 20
-27.22727272727251
 11
19.22727272727354
 21
-27.22727272727251
  0
LINE
  5
AE
330
20
100
AcDbEntity
  8
10
  6
CONTINUOUS
100
AcDbLine
 10
20.77272727272646
 20
-27.22727272727251
 11
21.57459164324288
 21
-27.22727272727251
  0
ARC
  5
AF
330
20
100
AcDbEntity
  8
10
  6
CONTINUOUS
100
AcDbCircle
 10
20.77272727272646
 20
-26.22727272727353
 40
0.545454545454
100
AcDbArc
 50
180.0
 51
270.0
  0
ARC
  5
B0
330
20
100
AcDbEntity
  8
10
  6
CONTINUOUS
100
AcDbCircle
 10
20.77272727272646
 20
-27.77272727272647
 40
0.545454545454
100
AcDbArc
 50
90.0
 51
180.0
  0
ARC
  5
B1
330
20
100
AcDbEntity
  8
10
  6
CONTINUOUS
100
AcDbCircle
 10
19.22727272727354
 20
-27.77272727272647
 40
0.545454545454
100
AcDbArc
 50
0.0
 51
90.0
  0
ARC
  5
B2
330
20
100
AcDbEntity
  8
10
  6
CONTINUOUS
100
AcDbCircle
 10
19.22727272727354
 20
-26.22727272727353
 40
0.545454545454
100
AcDbArc
 50
270.0
 51
0.0
  0
CIRCLE
  5
B3
330
20
100
AcDbEntity
  8
10
  6
CONTINUOUS
100
AcDbCircle
 10
77.5
 20
27.5
 40
1.99999998
  0
ARC
  5
B4
330
20
100
AcDbEntity
  8
10
  6
CONTINUOUS
100
AcDbCircle
 10
77.5
 20
27.5
 40
1.27272726
100
AcDbArc
 50
90.0
 51
98.21321070173788
  0
ARC
  5
B5
330
20
100
AcDbEntity
  8
10
  6
CONTINUOUS
100
AcDbCircle
 10
77.5
 20
27.5
 40
1.27272726
100
AcDbArc
 50
171.7867892982619
 51
188.2132107017381
  0
ARC
  5
B6
330
20
100
AcDbEntity
  8
10
  6
CONTINUOUS
100
AcDbCircle
 10
77.5
 20
27.5
 40
1.27272726
100
AcDbArc
 50
261.7867892982621
 51
278.2132107017379
  0
ARC
  5
B7
330
20
100
AcDbEntity
  8
10
  6
CONTINUOUS
100
AcDbCircle
 10
77.5
 20
27.5
 40
1.27272726
100
AcDbArc
 50
351.7867892982625
 51
8.213210701737513
  0
ARC
  5
B8
330
20
100
AcDbEntity
  8
10
  6
CONTINUOUS
100
AcDbCircle
 10
77.5
 20
27.5
 40
1.27272726
100
AcDbArc
 50
81.78678929826212
 51
90.0
  0
LINE
  5
B9
330
20
100
AcDbEntity
  8
10
  6
CONTINUOUS
100
AcDbLine
 10
77.31818182000001
 20
26.24032669800118
 11
77.31818182000001
 21
26.88181818800001
  0
LINE
  5
BA
330
20
100
AcDbEntity
  8
10
  6
CONTINUOUS
100
AcDbLine
 10
77.31818182000001
 20
28.11818181199999
 11
77.31818182000001
 21
28.75967330199882
  0
LINE
  5
BB
330
20
100
AcDbEntity
  8
10
  6
CONTINUOUS
100
AcDbLine
 10
77.68181817999999
 20
26.24032669800118
 11
77.68181817999999
 21
26.88181818800001
  0
LINE
  5
BC
330
20
100
AcDbEntity
  8
10
  6
CONTINUOUS
100
AcDbLine
 10
77.68181817999999
 20
28.11818181199999
 11
77.68181817999999
 21
28.75967330199882
  0
LINE
  5
BD
330
20
100
AcDbEntity
  8
10
  6
CONTINUOUS
100
AcDbLine
 10
78.75967330199887
 20
27.68181817999999
 11
78.11818181200002
 21
27.68181817999999
  0
LINE
  5
BE
330
20
100
AcDbEntity
  8
10
  6
CONTINUOUS
100
AcDbLine
 10
76.88181818800007
 20
27.68181817999999
 11
76.24032669800121
 21
27.68181817999999
  0
LINE
  5
BF
330
20
100
AcDbEntity
  8
10
  6
CONTINUOUS
100
AcDbLine
 10
78.75967330199887
 20
27.31818182000001
 11
78.11818181200002
 21
27.31818182000001
  0
LINE
  5
C0
330
20
100
AcDbEntity
  8
10
  6
CONTINUOUS
100
AcDbLine
 10
76.88181818800007
 20
27.31818182000001
 11
76.24032669800121
 21
27.31818182000001
  0
ARC
  5
C1
330
20
100
AcDbEntity
  8
10
  6
CONTINUOUS
100
AcDbCircle
 10
76.88181818800007
 20
28.11818181199999
 40
0.436363632
100
AcDbArc
 50
270.0
 51
0.0
  0
ARC
  5
C2
330
20
100
AcDbEntity
  8
10
  6
CONTINUOUS
100
AcDbCircle
 10
76.88181818800007
 20
26.88181818800001
 40
0.436363632
100
AcDbArc
 50
0.0
 51
90.0
  0
ARC
  5
C3
330
20
100
AcDbEntity
  8
10
  6
CONTINUOUS
100
AcDbCircle
 10
78.11818181200002
 20
26.88181818800001
 40
0.436363632
100
AcDbArc
 50
90.0
 51
180.0
  0
ARC
  5
C4
330
20
100
AcDbEntity
  8
10
  6
CONTINUOUS
100
AcDbCircle
 10
78.11818181200002
 20
28.11818181199999
 40
0.436363632
100
AcDbArc
 50
180.0
 51
270.0
  0
CIRCLE
  5
C5
330
20
100
AcDbEntity
  8
10
  6
CONTINUOUS
100
AcDbCircle
 10
92.5
 20
-6.5
 40
1.99999998
  0
ARC
  5
C6
330
20
100
AcDbEntity
  8
10
  6
CONTINUOUS
100
AcDbCircle
 10
92.5
 20
-6.5
 40
1.27272726
100
AcDbArc
 50
270.0
 51
278.2132107017378
  0
ARC
  5
C7
330
20
100
AcDbEntity
  8
10
  6
CONTINUOUS
100
AcDbCircle
 10
92.5
 20
-6.5
 40
1.27272726
100
AcDbArc
 50
351.786789298262
 51
8.213210701738062
  0
ARC
  5
C8
330
20
100
AcDbEntity
  8
10
  6
CONTINUOUS
100
AcDbCircle
 10
92.5
 20
-6.5
 40
1.27272726
100
AcDbArc
 50
81.78678929826222
 51
98.21321070173779
  0
ARC
  5
C9
330
20
100
AcDbEntity
  8
10
  6
CONTINUOUS
100
AcDbCircle
 10
92.5
 20
-6.5
 40
1.27272726
100
AcDbArc
 50
171.7867892982625
 51
188.2132107017375
  0
ARC
  5
CA
330
20
100
AcDbEntity
  8
10
  6
CONTINUOUS
100
AcDbCircle
 10
92.5
 20
-6.5
 40
1.27272726
100
AcDbArc
 50
261.7867892982622
 51
270.0
  0
LINE
  5
CB
330
20
100
AcDbEntity
  8
10
  6
CONTINUOUS
100
AcDbLine
 10
92.68181817999999
 20
-5.240326698001169
 11
92.68181817999999
 21
-5.881818188000025
  0
LINE
  5
CC
330
20
100
AcDbEntity
  8
10
  6
CONTINUOUS
100
AcDbLine
 10
92.68181817999999
 20
-7.118181811999975
 11
92.68181817999999
 21
-7.759673301998831
  0
LINE
  5
CD
330
20
100
AcDbEntity
  8
10
  6
CONTINUOUS
100
AcDbLine
 10
92.31818182000001
 20
-5.240326698001169
 11
92.31818182000001
 21
-5.881818188000025
  0
LINE
  5
CE
330
20
100
AcDbEntity
  8
10
  6
CONTINUOUS
100
AcDbLine
 10
92.31818182000001
 20
-7.118181811999975
 11
92.31818182000001
 21
-7.759673301998831
  0
LINE
  5
CF
330
20
100
AcDbEntity
  8
10
  6
CONTINUOUS
100
AcDbLine
 10
91.24032669800113
 20
-6.681818179999993
 11
91.88181818799998
 21
-6.681818179999993
  0
LINE
  5
D0
330
20
100
AcDbEntity
  8
10
  6
CONTINUOUS
100
AcDbLine
 10
93.11818181199993
 20
-6.681818179999993
 11
93.75967330199879
 21
-6.681818179999993
  0
LINE
  5
D1
330
20
100
AcDbEntity
  8
10
  6
CONTINUOUS
100
AcDbLine
 10
91.24032669800113
 20
-6.318181820000007
 11
91.88181818799998
 21
-6.318181820000007
  0
LINE
  5
D2
330
20
100
AcDbEntity
  8
10
  6
CONTINUOUS
100
AcDbLine
 10
93.11818181199993
 20
-6.318181820000007
 11
93.75967330199879
 21
-6.318181820000007
  0
ARC
  5
D3
330
20
100
AcDbEntity
  8
10
  6
CONTINUOUS
100
AcDbCircle
 10
93.11818181199993
 20
-7.118181811999975
 40
0.436363632
100
AcDbArc
 50
90.0
 51
180.0
  0
ARC
  5
D4
330
20
100
AcDbEntity
  8
10
  6
CONTINUOUS
100
AcDbCircle
 10
93.11818181199993
 20
-5.881818188000025
 40
0.436363632
100
AcDbArc
 50
180.0
 51
270.0
  0
ARC
  5
D5
330
20
100
AcDbEntity
  8
10
  6
CONTINUOUS
100
AcDbCircle
 10
91.88181818799998
 20
-5.881818188000025
 40
0.436363632
100
AcDbArc
 50
270.0
 51
0.0
  0
ARC
  5
D6
330
20
100
AcDbEntity
  8
10
  6
CONTINUOUS
100
AcDbCircle
 10
91.88181818799998
 20
-7.118181811999975
 40
0.436363632
100
AcDbArc
 50
0.0
 51
90.0
  0
CIRCLE
  5
D7
330
20
100
AcDbEntity
  8
10
  6
CONTINUOUS
100
AcDbCircle
 10
77.5
 20
-6.5
 40
1.99999998
  0
ARC
  5
D8
330
20
100
AcDbEntity
  8
10
  6
CONTINUOUS
100
AcDbCircle
 10
77.5
 20
-6.5
 40
1.27272726
100
AcDbArc
 50
261.7867892982622
 51
270.0
  0
ARC
  5
D9
330
20
100
AcDbEntity
  8
10
  6
CONTINUOUS
100
AcDbCircle
 10
77.5
 20
-6.5
 40
1.27272726
100
AcDbArc
 50
171.7867892982619
 51
188.2132107017381
  0
ARC
  5
DA
330
20
100
AcDbEntity
  8
10
  6
CONTINUOUS
100
AcDbCircle
 10
77.5
 20
-6.5
 40
1.27272726
100
AcDbArc
 50
81.78678929826222
 51
98.21321070173779
  0
ARC
  5
DB
330
20
100
AcDbEntity
  8
10
  6
CONTINUOUS
100
AcDbCircle
 10
77.5
 20
-6.5
 40
1.27272726
100
AcDbArc
 50
351.7867892982625
 51
8.213210701737513
  0
ARC
  5
DC
330
20
100
AcDbEntity
  8
10
  6
CONTINUOUS
100
AcDbCircle
 10
77.5
 20
-6.5
 40
1.27272726
100
AcDbArc
 50
270.0
 51
278.2132107017378
  0
LINE
  5
DD
330
20
100
AcDbEntity
  8
10
  6
CONTINUOUS
100
AcDbLine
 10
77.31818182000001
 20
-5.240326698001169
 11
77.31818182000001
 21
-5.881818188000025
  0
LINE
  5
DE
330
20
100
AcDbEntity
  8
10
  6
CONTINUOUS
100
AcDbLine
 10
77.31818182000001
 20
-7.118181811999975
 11
77.31818182000001
 21
-7.759673301998831
  0
LINE
  5
DF
330
20
100
AcDbEntity
  8
10
  6
CONTINUOUS
100
AcDbLine
 10
77.68181817999999
 20
-5.240326698001169
 11
77.68181817999999
 21
-5.881818188000025
  0
LINE
  5
E0
330
20
100
AcDbEntity
  8
10
  6
CONTINUOUS
100
AcDbLine
 10
77.68181817999999
 20
-7.118181811999975
 11
77.68181817999999
 21
-7.759673301998831
  0
LINE
  5
E1
330
20
100
AcDbEntity
  8
10
  6
CONTINUOUS
100
AcDbLine
 10
78.75967330199887
 20
-6.681818179999993
 11
78.11818181200002
 21
-6.681818179999993
  0
LINE
  5
E2
330
20
100
AcDbEntity
  8
10
  6
CONTINUOUS
100
AcDbLine
 10
76.88181818800007
 20
-6.681818179999993
 11
76.24032669800121
 21
-6.681818179999993
  0
LINE
  5
E3
330
20
100
AcDbEntity
  8
10
  6
CONTINUOUS
100
AcDbLine
 10
78.75967330199887
 20
-6.318181820000007
 11
78.11818181200002
 21
-6.318181820000007
  0
LINE
  5
E4
330
20
100
AcDbEntity
  8
10
  6
CONTINUOUS
100
AcDbLine
 10
76.88181818800007
 20
-6.318181820000007
 11
76.24032669800121
 21
-6.318181820000007
  0
ARC
  5
E5
330
20
100
AcDbEntity
  8
10
  6
CONTINUOUS
100
AcDbCircle
 10
76.88181818800007
 20
-7.118181811999975
 40
0.436363632
100
AcDbArc
 50
0.0
 51
90.0
  0
ARC
  5
E6
330
20
100
AcDbEntity
  8
10
  6
CONTINUOUS
100
AcDbCircle
 10
76.88181818800007
 20
-5.881818188000025
 40
0.436363632
100
AcDbArc
 50
270.0
 51
0.0
  0
ARC
  5
E7
330
20
100
AcDbEntity
  8
10
  6
CONTINUOUS
100
AcDbCircle
 10
78.11818181200002
 20
-5.881818188000025
 40
0.436363632
100
AcDbArc
 50
180.0
 51
270.0
  0
ARC
  5
E8
330
20
100
AcDbEntity
  8
10
  6
CONTINUOUS
100
AcDbCircle
 10
78.11818181200002
 20
-7.118181811999975
 40
0.436363632
100
AcDbArc
 50
90.0
 51
180.0
  0
LINE
  5
E9
330
20
100
AcDbEntity
  8
10
  6
CONTINUOUS
100
AcDbLine
 10
96.0
 20
-24.50000250000002
 11
96.0
 21
-24.61905
  0
LINE
  5
EA
330
20
100
AcDbEntity
  8
10
  6
CONTINUOUS
100
AcDbLine
 10
96.0
 20
-24.61905
 11
96.0
 21
-29.49999749999998
  0
LINE
  5
EB
330
20
100
AcDbEntity
  8
10
  6
CONTINUOUS
100
AcDbLine
 10
97.031745
 20
-29.40973150885047
 11
96.0
 21
-29.49999749999998
  0
LINE
  5
EC
330
20
100
AcDbEntity
  8
10
  6
CONTINUOUS
100
AcDbLine
 10
97.031745
 20
-24.59026849114953
 11
97.031745
 21
-29.40973150885047
  0
LINE
  5
ED
330
20
100
AcDbEntity
  8
10
  6
CONTINUOUS
100
AcDbLine
 10
97.031745
 20
-24.59026849114953
 11
96.0
 21
-24.50000250000002
  0
ARC
  5
EE
330
20
100
AcDbEntity
  8
10
  6
CONTINUOUS
100
AcDbCircle
 10
91.17268766086366
 20
-27.0
 40
6.335247339136317
100
AcDbArc
 50
337.6434605857299
 51
22.35653941427014
  0
CIRCLE
  5
EF
330
20
100
AcDbEntity
  8
10
  6
CONTINUOUS
100
AcDbCircle
 10
-20.0
 20
-27.0
 40
2.4999999999975
  0
ARC
  5
F0
330
20
100
AcDbEntity
  8
10
  6
CONTINUOUS
100
AcDbCircle
 10
-20.0
 20
-27.0
 40
1.5909090909075
100
AcDbArc
 50
90.0
 51
98.21321070173786
  0
ARC
  5
F1
330
20
100
AcDbEntity
  8
10
  6
CONTINUOUS
100
AcDbCircle
 10
-20.0
 20
-27.0
 40
1.5909090909075
100
AcDbArc
 50
171.7867892982617
 51
188.2132107017383
  0
ARC
  5
F2
330
20
100
AcDbEntity
  8
10
  6
CONTINUOUS
100
AcDbCircle
 10
-20.0
 20
-27.0
 40
1.5909090909075
100
AcDbArc
 50
261.7867892982621
 51
278.2132107017379
  0
ARC
  5
F3
330
20
100
AcDbEntity
  8
10
  6
CONTINUOUS
100
AcDbCircle
 10
-20.0
 20
-27.0
 40
1.5909090909075
100
AcDbArc
 50
351.7867892982617
 51
8.213210701738294
  0
ARC
  5
F4
330
20
100
AcDbEntity
  8
10
  6
CONTINUOUS
100
AcDbCircle
 10
-20.0
 20
-27.0
 40
1.5909090909075
100
AcDbArc
 50
81.78678929826214
 51
90.0
  0
LINE
  5
F5
330
20
100
AcDbEntity
  8
10
  6
CONTINUOUS
100
AcDbLine
 10
-20.22727272727249
 20
-28.57459164324287
 11
-20.22727272727249
 21
-27.77272727272647
  0
LINE
  5
F6
330
20
100
AcDbEntity
  8
10
  6
CONTINUOUS
100
AcDbLine
 10
-20.22727272727249
 20
-26.22727272727353
 11
-20.22727272727249
 21
-25.42540835675713
  0
LINE
  5
F7
330
20
100
AcDbEntity
  8
10
  6
CONTINUOUS
100
AcDbLine
 10
-19.77272727272751
 20
-28.57459164324287
 11
-19.77272727272751
 21
-27.77272727272647
  0
LINE
  5
F8
330
20
100
AcDbEntity
  8
10
  6
CONTINUOUS
100
AcDbLine
 10
-19.77272727272751
 20
-26.22727272727353
 11
-19.77272727272751
 21
-25.42540835675713
  0
LINE
  5
F9
330
20
100
AcDbEntity
  8
10
  6
CONTINUOUS
100
AcDbLine
 10
-18.42540835675712
 20
-26.77272727272749
 11
-19.22727272727354
 21
-26.77272727272749
  0
LINE
  5
FA
330
20
100
AcDbEntity
  8
10
  6
CONTINUOUS
100
AcDbLine
 10
-20.77272727272646
 20
-26.77272727272749
 11
-21.57459164324288
 21
-26.77272727272749
  0
LINE
  5
FB
330
20
100
AcDbEntity
  8
10
  6
CONTINUOUS
100
AcDbLine
 10
-18.42540835675712
 20
-27.22727272727251
 11
-19.22727272727354
 21
-27.22727272727251
  0
LINE
  5
FC
330
20
100
AcDbEntity
  8
10
  6
CONTINUOUS
100
AcDbLine
 10
-20.77272727272646
 20
-27.22727272727251
 11
-21.57459164324288
 21
-27.22727272727251
  0
ARC
  5
FD
330
20
100
AcDbEntity
  8
10
  6
CONTINUOUS
100
AcDbCircle
 10
-20.77272727272646
 20
-26.22727272727353
 40
0.545454545454
100
AcDbArc
 50
270.0
 51
0.0
  0
ARC
  5
FE
330
20
100
AcDbEntity
  8
10
  6
CONTINUOUS
100
AcDbCircle
 10
-20.77272727272646
 20
-27.77272727272647
 40
0.545454545454
100
AcDbArc
 50
0.0
 51
90.0
  0
ARC
  5
FF
330
20
100
AcDbEntity
  8
10
  6
CONTINUOUS
100
AcDbCircle
 10
-19.22727272727354
 20
-27.77272727272647
 40
0.545454545454
100
AcDbArc
 50
90.0
 51
180.0
  0
ARC
  5
100
330
20
100
AcDbEntity
  8
10
  6
CONTINUOUS
100
AcDbCircle
 10
-19.22727272727354
 20
-26.22727272727353
 40
0.545454545454
100
AcDbArc
 50
180.0
 51
270.0
  0
LINE
  5
101
330
20
100
AcDbEntity
  8
10
  6
CONTINUOUS
100
AcDbLine
 10
30.0
 20
-8.499997999999977
 11
30.0
 21
-8.404759999999996
  0
LINE
  5
102
330
20
100
AcDbEntity
  8
10
  6
CONTINUOUS
100
AcDbLine
 10
30.0
 20
-8.404759999999996
 11
30.0
 21
-4.500002000000009
  0
LINE
  5
103
330
20
100
AcDbEntity
  8
10
  6
CONTINUOUS
100
AcDbLine
 10
30.82539600000001
 20
-4.572214792919624
 11
30.0
 21
-4.500002000000009
  0
LINE
  5
104
330
20
100
AcDbEntity
  8
10
  6
CONTINUOUS
100
AcDbLine
 10
30.82539600000001
 20
-8.427785207080376
 11
30.82539600000001
 21
-4.572214792919624
  0
LINE
  5
105
330
20
100
AcDbEntity
  8
10
  6
CONTINUOUS
100
AcDbLine
 10
30.82539600000001
 20
-8.427785207080376
 11
30.0
 21
-8.499997999999977
  0
ARC
  5
106
330
20
100
AcDbEntity
  8
10
  6
CONTINUOUS
100
AcDbCircle
 10
26.13815012869094
 20
-6.5
 40
5.068197871309054
100
AcDbArc
 50
337.6434605857299
 51
22.35653941427014
  0
LINE
  5
107
330
20
100
AcDbEntity
  8
10
  6
CONTINUOUS
100
AcDbLine
 10
30.0
 20
29.49999799999998
 11
30.0
 21
29.40476000000001
  0
LINE
  5
108
330
20
100
AcDbEntity
  8
10
  6
CONTINUOUS
100
AcDbLine
 10
30.0
 20
29.40476000000001
 11
30.0
 21
25.50000200000002
  0
LINE
  5
109
330
20
100
AcDbEntity
  8
10
  6
CONTINUOUS
100
AcDbLine
 10
30.82539600000001
 20
25.57221479291962
 11
30.0
 21
25.50000200000002
  0
LINE
  5
10A
330
20
100
AcDbEntity
  8
10
  6
CONTINUOUS
100
AcDbLine
 10
30.82539600000001
 20
29.42778520708038
 11
30.82539600000001
 21
25.57221479291962
  0
LINE
  5
10B
330
20
100
AcDbEntity
  8
10
  6
CONTINUOUS
100
AcDbLine
 10
30.82539600000001
 20
29.42778520708038
 11
30.0
 21
29.49999799999998
  0
ARC
  5
10C
330
20
100
AcDbEntity
  8
10
  6
CONTINUOUS
100
AcDbCircle
 10
26.13815012869094
 20
27.5
 40
5.068197871309054
100
AcDbArc
 50
337.6434605857299
 51
22.35653941427014
  0
LINE
  5
10D
330
20
100
AcDbEntity
  8
10
  6
CONTINUOUS
100
AcDbLine
 10
30.0
 20
99.49999799999998
 11
30.0
 21
99.40476000000001
  0
LINE
  5
10E
330
20
100
AcDbEntity
  8
10
  6
CONTINUOUS
100
AcDbLine
 10
30.0
 20
99.40476000000001
 11
30.0
 21
95.50000200000002
  0
LINE
  5
10F
330
20
100
AcDbEntity
  8
10
  6
CONTINUOUS
100
AcDbLine
 10
30.82539600000001
 20
95.57221479291962
 11
30.0
 21
95.50000200000002
  0
LINE
  5
110
330
20
100
AcDbEntity
  8
10
  6
CONTINUOUS
100
AcDbLine
 10
30.82539600000001
 20
99.42778520708038
 11
30.82539600000001
 21
95.57221479291962
  0
LINE
  5
111
330
20
100
AcDbEntity
  8
10
  6
CONTINUOUS
100
AcDbLine
 10
30.82539600000001
 20
99.42778520708038
 11
30.0
 21
99.49999799999998
  0
ARC
  5
112
330
20
100
AcDbEntity
  8
10
  6
CONTINUOUS
100
AcDbCircle
 10
26.13815012869094
 20
97.5
 40
5.068197871309054
100
AcDbArc
 50
337.6434605857299
 51
22.35653941427014
  0
LINE
  5
113
330
20
100
AcDbEntity
  8
10
  6
CONTINUOUS
100
AcDbLine
 10
30.0
 20
80.50000200000002
 11
30.0
 21
80.59523999999999
  0
LINE
  5
114
330
20
100
AcDbEntity
  8
10
  6
CONTINUOUS
100
AcDbLine
 10
30.0
 20
80.59523999999999
 11
30.0
 21
84.49999799999998
  0
LINE
  5
115
330
20
100
AcDbEntity
  8
10
  6
CONTINUOUS
100
AcDbLine
 10
30.82539600000001
 20
84.42778520708038
 11
30.0
 21
84.49999799999998
  0
LINE
  5
116
330
20
100
AcDbEntity
  8
10
  6
CONTINUOUS
100
AcDbLine
 10
30.82539600000001
 20
80.57221479291962
 11
30.82539600000001
 21
84.42778520708038
  0
LINE
  5
117
330
20
100
AcDbEntity
  8
10
  6
CONTINUOUS
100
AcDbLine
 10
30.82539600000001
 20
80.57221479291962
 11
30.0
 21
80.50000200000002
  0
ARC
  5
118
330
20
100
AcDbEntity
  8
10
  6
CONTINUOUS
100
AcDbCircle
 10
26.13815012869094
 20
82.5
 40
5.068197871309054
100
AcDbArc
 50
337.6434605857299
 51
22.35653941427014
  0
ENDSEC
  0
SECTION
  2
OBJECTS
  0
DICTIONARY
  5
C
100
AcDbDictionary
281
     1
  3
ACAD_GROUP
350
D
  3
ACAD_MLINESTYLE
350
E
  3
ACDBVARIABLEDICTIONARY
350
119
  3
ACAD_PLOTSTYLENAME
350
11A
  3
ACAD_LAYOUT
350
11B
  3
ACAD_PLOTSETTINGS
350
11C
  0
DICTIONARY
  5
D
102
{ACAD_REACTORS
330
C
102
}
330
C
100
AcDbDictionary
281
     1
  0
DICTIONARY
  5
E
102
{ACAD_REACTORS
330
C
102
}
330
C
100
AcDbDictionary
281
     1
  3
STANDARD
350
13
  0
DICTIONARY
  5
119
102
{ACAD_REACTORS
330
C
102
}
330
C
100
AcDbDictionary
281
     1
  3
SORTENTS
350
11D
  0
ACDBDICTIONARYWDFLT
  5
11A
102
{ACAD_REACTORS
330
C
102
}
330
C
100
AcDbDictionary
281
     1
  3
Normal
350
11E
100
AcDbDictionaryWithDefault
340
11E
  0
DICTIONARY
  5
11B
102
{ACAD_REACTORS
330
C
102
}
330
C
100
AcDbDictionary
281
     1
  3
Model
350
11F
  0
DICTIONARY
  5
11C
102
{ACAD_REACTORS
330
C
102
}
330
C
100
AcDbDictionary
281
     1
  0
MLINESTYLE
  5
13
102
{ACAD_REACTORS
330
E
102
}
330
E
100
AcDbMlineStyle
  2
STANDARD
 70
     0
  3

 62
   256
 51
90.0
 52
90.0
 71
     2
 49
0.5
 62
   256
  6
BYLAYER
 49
-0.5
 62
   256
  6
BYLAYER
  0
DICTIONARYVAR
  5
11D
102
{ACAD_REACTORS
330
119
102
}
330
119
100
DictionaryVariables
280
     0
  1
96
  0
ACDBPLACEHOLDER
  5
11E
102
{ACAD_REACTORS
330
11A
102
}
330
11A
  0
LAYOUT
  5
11F
102
{ACAD_REACTORS
330
11B
102
}
330
11B
100
AcDbPlotSettings
  1

  2

  4

  6

 40
0.0
 41
0.0
 42
0.0
 43
0.0
 44
0.0
 45
0.0
 46
0.0
 47
0.0
 48
0.0
 49
0.0
140
0.0
141
0.0
142
1.0
143
1.0
 70
  1712
 72
     0
 73
     0
 74
     0
  7

 75
     0
147
1.0
148
0.0
149
0.0
100
AcDbLayout
  1
Model
 70
     1
 71
     0
 10
0.0
 20
0.0
 11
297.0
 21
210.0
 12
0.0
 22
0.0
 32
0.0
 14
0.0
 24
0.0
 34
0.0
 15
0.0
 25
0.0
 35
0.0
146
0.0
 13
0.0
 23
0.0
 33
0.0
 16
1.0
 26
0.0
 36
0.0
 17
0.0
 27
1.0
 37
0.0
 76
     0
330
20
  0
ENDSEC
  0
EOF
