  0
SECTION
  2
HEADER
  9
$ACADVER
  1
AC1015
  9
$ACADMAINTVER
 70
     0
  9
$DWGCODEPAGE
  3
ANSI_932
  9
$INSBASE
 10
0.0
 20
0.0
 30
0.0
  9
$EXTMIN
 10
-80.56100463867188
 20
-162.5774383544922
  9
$EXTMAX
 10
129.0
 20
27.5
  9
$LIMMIN
 10
-80.56100463867188
 20
-162.5774383544922
  9
$LIMMAX
 10
129.0
 20
27.5
  9
$ORTHOMODE
 70
     0
  9
$REGENMODE
 70
     1
  9
$FILLMODE
 70
     1
  9
$QTEXTMODE
 70
     0
  9
$MIRRTEXT
 70
     1
  9
$LTSCALE
 40
1.0
  9
$OSMODE
 70
     0
  9
$ATTMODE
 70
     1
  9
$TEXTSIZE
 40
3.0
  9
$TRACEWID
 40
0.5
  9
$TEXTSTYLE
  7
STANDARD
  9
$CLAYER
  8
0
  9
$CELTYPE
  6
BYLAYER
  9
$CECOLOR
 62
   256
  9
$CELTSCALE
 40
1.0
  9
$DISPSILH
 70
     0
  9
$DIMSCALE
 40
1.0
  9
$DIMASZ
 40
3.0
  9
$DIMEXO
 40
1.0
  9
$DIMDLI
 40
5.0
  9
$DIMRND
 40
0.0
  9
$DIMDLE
 40
5.0
  9
$DIMEXE
 40
2.0
  9
$DIMTP
 40
0.0
  9
$DIMTM
 40
0.0
  9
$DIMTXT
 40
3.0
  9
$DIMCEN
 40
2.0
  9
$DIMTSZ
 40
0.0
  9
$DIMTOL
 70
     0
  9
$DIMLIM
 70
     0
  9
$DIMTIH
 70
     0
  9
$DIMTOH
 70
     0
  9
$DIMSE1
 70
     0
  9
$DIMSE2
 70
     0
  9
$DIMTAD
 70
     1
  9
$DIMZIN
 70
     8
  9
$DIMBLK
  1

  9
$DIMASO
 70
     1
  9
$DIMSHO
 70
     1
  9
$DIMPOST
  1

  9
$DIMAPOST
  1

  9
$DIMALT
 70
     0
  9
$DIMALTD
 70
     0
  9
$DIMALTF
 40
25.4
  9
$DIMLFAC
 40
1.0
  9
$DIMTOFL
 70
     1
  9
$DIMTVP
 40
1.0
  9
$DIMTIX
 70
     0
  9
$DIMSOXD
 70
     0
  9
$DIMSAH
 70
     0
  9
$DIMBLK1
  1

  9
$DIMBLK2
  1

  9
$DIMSTYLE
  2
ISO-25
  9
$DIMCLRD
 70
     0
  9
$DIMCLRE
 70
     0
  9
$DIMCLRT
 70
     0
  9
$DIMTFAC
 40
1.0
  9
$DIMGAP
 40
0.5
  9
$DIMJUST
 70
     0
  9
$DIMSD1
 70
     0
  9
$DIMSD2
 70
     0
  9
$DIMTOLJ
 70
     0
  9
$DIMTZIN
 70
     8
  9
$DIMALTZ
 70
     0
  9
$DIMALTTZ
 70
     0
  9
$DIMUPT
 70
     0
  9
$DIMDEC
 70
     2
  9
$DIMTDEC
 70
     2
  9
$DIMALTU
 70
     2
  9
$DIMALTTD
 70
     3
  9
$DIMTXSTY
  7
STANDARD
  9
$DIMAUNIT
 70
     0
  9
$DIMADEC
 70
     0
  9
$DIMALTRND
 40
0.0
  9
$DIMAZIN
 70
     0
  9
$DIMDSEP
 70
    46
  9
$DIMATFIT
 70
     3
  9
$DIMFRAC
 70
     0
  9
$DIMLDRBLK
  1

  9
$DIMLUNIT
 70
     2
  9
$DIMLWD
 70
    -2
  9
$DIMLWE
 70
    -2
  9
$DIMTMOVE
 70
     0
  9
$LUNITS
 70
     2
  9
$LUPREC
 70
     4
  9
$SKETCHINC
 40
1.0
  9
$FILLETRAD
 40
0.0
  9
$AUNITS
 70
     0
  9
$AUPREC
 70
     0
  9
$MENU
  1
.
  9
$ELEVATION
 40
0.0
  9
$PELEVATION
 40
0.0
  9
$THICKNESS
 40
0.0
  9
$LIMCHECK
 70
     0
  9
$CHAMFERA
 40
0.0
  9
$CHAMFERB
 40
0.0
  9
$CHAMFERC
 40
0.0
  9
$CHAMFERD
 40
0.0
  9
$SKPOLY
 70
     0
  9
$TDCREATE
 40
2454089.729803241
  9
$TDUCREATE
 40
2454089.729803241
  9
$TDUPDATE
 40
2454089.729803241
  9
$TDUUPDATE
 40
2454089.729803241
  9
$TDINDWG
 40
0.0
  9
$TDUSRTIMER
 40
0.0
  9
$USRTIMER
 70
     1
  9
$ANGBASE
 50
0.0
  9
$ANGDIR
 70
     0
  9
$PDMODE
 70
     0
  9
$PDSIZE
 40
0.0
  9
$PLINEWID
 40
0.0
  9
$SPLFRAME
 70
     0
  9
$SPLINETYPE
 70
     6
  9
$SPLINESEGS
 70
     8
  9
$HANDSEED
  5
CD
  9
$SURFTAB1
 70
     6
  9
$SURFTAB2
 70
     6
  9
$SURFTYPE
 70
     6
  9
$SURFU
 70
     6
  9
$SURFV
 70
     6
  9
$UCSBASE
  2

  9
$UCSNAME
  2

  9
$UCSORG
 10
0.0
 20
0.0
 30
0.0
  9
$UCSXDIR
 10
1.0
 20
0.0
 30
0.0
  9
$UCSYDIR
 10
0.0
 20
1.0
 30
0.0
  9
$UCSORTHOREF
  2

  9
$UCSORTHOVIEW
 70
     0
  9
$UCSORGTOP
 10
0.0
 20
0.0
 30
0.0
  9
$UCSORGBOTTOM
 10
0.0
 20
0.0
 30
0.0
  9
$UCSORGLEFT
 10
0.0
 20
0.0
 30
0.0
  9
$UCSORGRIGHT
 10
0.0
 20
0.0
 30
0.0
  9
$UCSORGFRONT
 10
0.0
 20
0.0
 30
0.0
  9
$UCSORGBACK
 10
0.0
 20
0.0
 30
0.0
  9
$PUCSBASE
  2

  9
$PUCSNAME
  2

  9
$PUCSORG
 10
0.0
 20
0.0
 30
0.0
  9
$PUCSXDIR
 10
1.0
 20
0.0
 30
0.0
  9
$PUCSYDIR
 10
0.0
 20
1.0
 30
0.0
  9
$PUCSORTHOREF
  2

  9
$PUCSORTHOVIEW
 70
     0
  9
$PUCSORGTOP
 10
0.0
 20
0.0
 30
0.0
  9
$PUCSORGBOTTOM
 10
0.0
 20
0.0
 30
0.0
  9
$PUCSORGLEFT
 10
0.0
 20
0.0
 30
0.0
  9
$PUCSORGRIGHT
 10
0.0
 20
0.0
 30
0.0
  9
$PUCSORGFRONT
 10
0.0
 20
0.0
 30
0.0
  9
$PUCSORGBACK
 10
0.0
 20
0.0
 30
0.0
  9
$USERI1
 70
     0
  9
$USERI2
 70
     0
  9
$USERI3
 70
     0
  9
$USERI4
 70
     0
  9
$USERI5
 70
     0
  9
$USERR1
 40
0.0
  9
$USERR2
 40
0.0
  9
$USERR3
 40
0.0
  9
$USERR4
 40
0.0
  9
$USERR5
 40
0.0
  9
$WORLDVIEW
 70
     1
  9
$SHADEDGE
 70
     3
  9
$SHADEDIF
 70
    70
  9
$MAXACTVP
 70
    16
  9
$PINSBASE
 10
0.0
 20
0.0
 30
0.0
  9
$PLIMCHECK
 70
     0
  9
$PEXTMIN
 10
1.000000E+20
 20
1.000000E+20
 30
1.000000E+20
  9
$PEXTMAX
 10
-1.000000E+20
 20
-1.000000E+20
 30
-1.000000E+20
  9
$PLIMMIN
 10
-80.56100463867188
 20
-162.5774383544922
  9
$PLIMMAX
 10
129.0
 20
27.5
  9
$UNITMODE
 70
     0
  9
$VISRETAIN
 70
     0
  9
$PLINEGEN
 70
     0
  9
$PSLTSCALE
 70
     0
  9
$TREEDEPTH
 70
  3020
  9
$CMLSTYLE
  2
STANDARD
  9
$CMLJUST
 70
     0
  9
$CMLSCALE
 40
1.0
  9
$PROXYGRAPHICS
 70
     1
  9
$MEASUREMENT
 70
     0
  9
$CELWEIGHT
370
    -3
  9
$ENDCAPS
280
     0
  9
$JOINSTYLE
280
     0
  9
$LWDISPLAY
290
     1
  9
$INSUNITS
 70
     0
  9
$HYPERLINKBASE
  1

  9
$STYLESHEET
  1

  9
$XEDIT
290
     1
  9
$CEPSNTYPE
380
     0
  9
$PSTYLEMODE
290
     1
  9
$FINGERPRINTGUID
  2
{6F25CFC2-5053-11D3-9BE9-00805F4AB38E}
  9
$VERSIONGUID
  2
{6F25CFC5-5053-11D3-9BE9-00805F4AB38E}
  9
$EXTNAMES
290
     1
  9
$PSVPSCALE
 40
0.0
  9
$OLESTARTUP
290
     0
  0
ENDSEC
  0
SECTION
  2
CLASSES
  0
CLASS
  1
LWPOLYLINE
  2
AcDbPolyline
  3
AutoCAD 2000
 90
    32768
280
     0
281
     1
  0
CLASS
  1
DICTIONARYVAR
  2
AcDbDictionaryVar
  3
AutoCAD 2000
 90
        0
280
     0
281
     1
  0
CLASS
  1
ACDBDICTIONARYWDFLT
  2
AcDbDictionaryWithDefault
  3
AutoCAD 2000
 90
        0
280
     0
281
     1
  0
CLASS
  1
ACDBPLACEHOLDER
  2
AcDbPlaceHolder
  3
AutoCAD 2000
 90
        0
280
     0
281
     1
  0
CLASS
  1
LAYOUT
  2
AcDbLayout
  3
AutoCAD 2000
 90
        0
280
     0
281
     1
  0
CLASS
  1
HATCH
  2
AcDbHatch
  3
AutoCAD 2000
 90
        0
280
     0
281
     1
  0
ENDSEC
  0
SECTION
  2
TABLES
  0
TABLE
  2
VPORT
  5
8
100
AcDbSymbolTable
 70
     1
  0
VPORT
  5
C3
330
0
100
AcDbSymbolTableRecord
100
AcDbViewportTableRecord
  2
*ACTIVE
 70
     0
 10
0.0
 20
0.0
 11
1.0
 21
1.0
 12
24.21949768066406
 22
-67.53871917724609
 13
0.0
 23
0.0
 14
0.0
 24
0.0
 15
0.0
 25
0.0
 16
0.0
 26
0.0
 36
1.0
 17
0.0
 27
0.0
 37
0.0
 40
190.0774383544922
 41
1.5
 42
50.0
 43
0.0
 44
0.0
 50
0.0
 51
0.0
 71
     0
 72
   100
 73
     1
 74
     1
 75
     0
 76
     0
 77
     0
 78
     0
281
     0
 65
     1
110
0.0
120
0.0
130
0.0
111
1.0
121
0.0
131
0.0
112
0.0
122
1.0
132
0.0
 79
     0
146
0.0
  0
ENDTAB
  0
TABLE
  2
LTYPE
  5
5
330
0
100
AcDbSymbolTable
 70
    20
  0
LTYPE
  5
C4
330
5
100
AcDbSymbolTableRecord
100
AcDbLinetypeTableRecord
  2
BYBLOCK
 70
     0
  3

 72
    65
 73
     0
 40
0.0
  0
LTYPE
  5
C5
330
5
100
AcDbSymbolTableRecord
100
AcDbLinetypeTableRecord
  2
BYLAYER
 70
     0
  3

 72
    65
 73
     0
 40
0.0
  0
LTYPE
  5
C6
330
5
100
AcDbSymbolTableRecord
100
AcDbLinetypeTableRecord
  2
CONTINUOUS
 70
    64
  3
solid line
 72
    65
 73
     0
 40
0.0
  0
LTYPE
  5
C7
330
0
100
AcDbSymbolTableRecord
100
AcDbLinetypeTableRecord
  2
DASHED
 70
    64
  3
-- -- -- -- -- -- -- -- -- -- 
 72
    65
 73
     2
 40
3.0
 49
2.0
 74
     0
 49
-1.0
 74
     0
  0
LTYPE
  5
C8
330
0
100
AcDbSymbolTableRecord
100
AcDbLinetypeTableRecord
  2
CENTER
 70
    64
  3
--- - --- - --- - --- - --- - 
 72
    65
 73
     4
 40
6.0
 49
3.0
 74
     0
 49
-1.0
 74
     0
 49
1.0
 74
     0
 49
-1.0
 74
     0
  0
ENDTAB
  0
TABLE
  2
LAYER
  5
2
330
0
100
AcDbSymbolTable
 70
    20
  0
LAYER
  5
C9
330
2
100
AcDbSymbolTableRecord
100
AcDbLayerTableRecord
  2
0
 70
    64
 62
     7
  6
CONTINUOUS
370
    -3
390
BF
  0
LAYER
  5
25
330
2
100
AcDbSymbolTableRecord
100
AcDbLayerTableRecord
  2
100
 70
    64
 62
     7
  6
CONTINUOUS
370
    -3
390
BF
  0
LAYER
  5
2D
330
2
100
AcDbSymbolTableRecord
100
AcDbLayerTableRecord
  2
10
 70
    64
 62
     7
  6
CONTINUOUS
370
    -3
390
BF
  0
ENDTAB
  0
TABLE
  2
STYLE
  5
3
330
0
100
AcDbSymbolTable
 70
     4
  0
STYLE
  5
CA
330
3
100
AcDbSymbolTableRecord
100
AcDbTextStyleTableRecord
  2
STANDARD
 70
    64
 40
0.0
 41
1.052631578947368
 50
0.0
 71
     0
 42
3.0
  3
monotxt
  4

  0
ENDTAB
  0
TABLE
  2
VIEW
  5
6
330
0
100
AcDbSymbolTable
 70
     0
  0
ENDTAB
  0
TABLE
  2
UCS
  5
7
330
0
100
AcDbSymbolTable
 70
     0
  0
ENDTAB
  0
TABLE
  2
APPID
  5
9
330
0
100
AcDbSymbolTable
 70
     1
  0
APPID
  5
CB
330
9
100
AcDbSymbolTableRecord
100
AcDbRegAppTableRecord
  2
ACAD
 70
     0
  0
ENDTAB
  0
TABLE
  2
DIMSTYLE
  5
A
330
0
100
AcDbSymbolTable
 70
     8
100
AcDbDimStyleTable
 71
     0
  0
DIMSTYLE
105
CC
330
A
100
AcDbSymbolTableRecord
100
AcDbDimStyleTableRecord
  2
ISO-25
 70
     0
  3

  4

  5

  6

  7

 40
1.0
 41
3.0
 42
1.0
 43
5.0
 44
2.0
 45
0.0
 46
5.0
 47
0.0
 48
0.0
140
3.0
141
2.0
142
0.0
143
25.4
144
1.0
145
1.0
146
1.0
147
0.5
 71
     0
 72
     0
 73
     0
 74
     0
 75
     0
 76
     0
 77
     1
 78
     8
170
     0
171
     0
172
     1
173
     0
174
     0
175
     0
176
     0
177
     0
178
     0
270
     0
271
     2
272
     2
273
     2
274
     3
340
CA
275
     0
277
     2
280
     0
281
     0
282
     0
283
     0
284
     8
285
     0
286
     0
287
     3
288
     0
  0
ENDTAB
  0
TABLE
  2
BLOCK_RECORD
  5
1
330
0
100
AcDbSymbolTable
 70
     2
  0
BLOCK_RECORD
  5
20
330
1
100
AcDbSymbolTableRecord
100
AcDbBlockTableRecord
  2
*MODEL_SPACE
340
C0
  0
BLOCK_RECORD
  5
22
330
1
100
AcDbSymbolTableRecord
100
AcDbBlockTableRecord
  2
*PAPER_SPACE
340
0
  0
ENDTAB
  0
ENDSEC
  0
SECTION
  2
BLOCKS
  0
BLOCK
  5
21
330
20
100
AcDbEntity
  8
0
100
AcDbBlockBegin
  2
*MODEL_SPACE
 70
     0
 10
0.0
 20
0.0
 30
0.0
  3
*MODEL_SPACE
  1

  0
ENDBLK
  5
C1
330
20
100
AcDbEntity
  8
0
100
AcDbBlockEnd
  0
BLOCK
  5
23
330
22
100
AcDbEntity
 67
     1
  8
0
100
AcDbBlockBegin
  2
*PAPER_SPACE
 70
     0
 10
0.0
 20
0.0
 30
0.0
  3
*PAPER_SPACE
  1

  0
ENDBLK
  5
C2
330
22
100
AcDbEntity
 67
     1
  8
0
100
AcDbBlockEnd
  0
ENDSEC
  0
SECTION
  2
ENTITIES
  0
LINE
  5
24
330
20
100
AcDbEntity
  8
100
  6
CONTINUOUS
100
AcDbLine
 10
84.0
 20
-127.5
 11
84.0
 21
-90.0
  0
LINE
  5
26
330
20
100
AcDbEntity
  8
100
  6
CONTINUOUS
100
AcDbLine
 10
129.0
 20
-127.5
 11
129.0
 21
-90.0
  0
LINE
  5
27
330
20
100
AcDbEntity
  8
100
  6
CONTINUOUS
100
AcDbLine
 10
88.0
 20
-155.5
 11
88.0
 21
-131.5
  0
LINE
  5
28
330
20
100
AcDbEntity
  8
100
  6
CONTINUOUS
100
AcDbLine
 10
125.0
 20
-155.5
 11
125.0
 21
-131.5
  0
LINE
  5
29
330
20
100
AcDbEntity
  8
100
  6
CONTINUOUS
100
AcDbLine
 10
85.0
 20
-127.0857864376269
 11
85.0
 21
-91.0
  0
LINE
  5
2A
330
20
100
AcDbEntity
  8
100
  6
CONTINUOUS
100
AcDbLine
 10
128.0
 20
-127.0857864376269
 11
128.0
 21
-91.0
  0
LINE
  5
2B
330
20
100
AcDbEntity
  8
100
  6
CONTINUOUS
100
AcDbLine
 10
87.0
 20
-122.0
 11
87.0
 21
-96.0
  0
LINE
  5
2C
330
20
100
AcDbEntity
  8
10
  6
CONTINUOUS
100
AcDbLine
 10
87.99999999999999
 20
-145.35
 11
87.99999999999999
 21
-151.65
  0
LINE
  5
2E
330
20
100
AcDbEntity
  8
10
  6
CONTINUOUS
100
AcDbLine
 10
86.69999999999997
 20
-151.5362647374163
 11
87.99999999999999
 21
-151.65
  0
LINE
  5
2F
330
20
100
AcDbEntity
  8
10
  6
CONTINUOUS
100
AcDbLine
 10
86.69999999999997
 20
-145.4637352625837
 11
86.69999999999997
 21
-151.5362647374163
  0
LINE
  5
30
330
20
100
AcDbEntity
  8
10
  6
CONTINUOUS
100
AcDbLine
 10
86.69999999999997
 20
-145.4637352625837
 11
87.99999999999999
 21
-145.35
  0
ARC
  5
31
330
20
100
AcDbEntity
  8
10
  6
CONTINUOUS
100
AcDbCircle
 10
94.08241962973138
 20
-148.5
 40
7.98241962973139
100
AcDbArc
 50
157.6434605857302
 51
202.3565394142702
  0
LINE
  5
32
330
20
100
AcDbEntity
  8
100
  6
CONTINUOUS
100
AcDbLine
 10
45.0
 20
-94.84999999999999
 11
45.0
 21
-83.0
  0
LINE
  5
33
330
20
100
AcDbEntity
  8
100
  6
CONTINUOUS
100
AcDbLine
 10
89.0
 20
-156.5
 11
89.0
 21
-61.5
  0
LINE
  5
34
330
20
100
AcDbEntity
  8
100
  6
CONTINUOUS
100
AcDbLine
 10
-45.0
 20
-83.5
 11
-45.0
 21
-62.09584240176571
  0
LINE
  5
35
330
20
100
AcDbEntity
  8
100
  6
CONTINUOUS
100
AcDbLine
 10
45.0
 20
-155.9041575982343
 11
45.0
 21
-134.5
  0
LINE
  5
36
330
20
100
AcDbEntity
  8
100
  6
CONTINUOUS
100
AcDbLine
 10
124.0
 20
-156.5
 11
124.0
 21
-61.5
  0
LINE
  5
37
330
20
100
AcDbEntity
  8
100
  6
CONTINUOUS
100
AcDbLine
 10
84.0
 20
-90.0
 11
89.0
 21
-90.0
  0
LINE
  5
38
330
20
100
AcDbEntity
  8
100
  6
CONTINUOUS
100
AcDbLine
 10
85.0
 20
-91.0
 11
89.0
 21
-91.0
  0
LINE
  5
39
330
20
100
AcDbEntity
  8
100
  6
CONTINUOUS
100
AcDbLine
 10
124.0
 20
-90.0
 11
129.0
 21
-90.0
  0
LINE
  5
3A
330
20
100
AcDbEntity
  8
100
  6
CONTINUOUS
100
AcDbLine
 10
124.0
 20
-91.0
 11
128.0
 21
-91.0
  0
LINE
  5
3B
330
20
100
AcDbEntity
  8
100
  6
CONTINUOUS
100
AcDbLine
 10
87.0
 20
-96.0
 11
89.0
 21
-96.0
  0
LINE
  5
3C
330
20
100
AcDbEntity
  8
100
  6
CONTINUOUS
100
AcDbLine
 10
87.0
 20
-122.0
 11
89.0
 21
-122.0
  0
LINE
  5
3D
330
20
100
AcDbEntity
  8
100
  6
CONTINUOUS
100
AcDbLine
 10
126.0
 20
-122.0
 11
124.0
 21
-122.0
  0
LINE
  5
3E
330
20
100
AcDbEntity
  8
100
  6
CONTINUOUS
100
AcDbLine
 10
126.0
 20
-122.0
 11
126.0
 21
-96.0
  0
LINE
  5
3F
330
20
100
AcDbEntity
  8
100
  6
CONTINUOUS
100
AcDbLine
 10
126.0
 20
-96.0
 11
124.0
 21
-96.0
  0
LINE
  5
40
330
20
100
AcDbEntity
  8
100
  6
CONTINUOUS
100
AcDbLine
 10
89.0
 20
-123.5
 11
124.0
 21
-123.5
  0
LINE
  5
41
330
20
100
AcDbEntity
  8
100
  6
CONTINUOUS
100
AcDbLine
 10
89.0
 20
-134.5
 11
124.0
 21
-134.5
  0
LINE
  5
42
330
20
100
AcDbEntity
  8
100
  6
CONTINUOUS
100
AcDbLine
 10
-45.0
 20
-119.0
 11
-45.0
 21
-116.0
  0
LINE
  5
43
330
20
100
AcDbEntity
  8
100
  6
CONTINUOUS
100
AcDbLine
 10
-45.0
 20
-155.9041575982343
 11
-45.0
 21
-94.5
  0
LINE
  5
44
330
20
100
AcDbEntity
  8
100
  6
CONTINUOUS
100
AcDbLine
 10
-29.0
 20
-155.5
 11
-29.0
 21
-90.0
  0
LINE
  5
45
330
20
100
AcDbEntity
  8
100
  6
CONTINUOUS
100
AcDbLine
 10
29.0
 20
-134.5
 11
29.0
 21
-123.5
  0
LINE
  5
46
330
20
100
AcDbEntity
  8
100
  6
CONTINUOUS
100
AcDbLine
 10
-45.0
 20
-83.5
 11
5.683375209644602
 21
-83.5
  0
LINE
  5
47
330
20
100
AcDbEntity
  8
100
  6
CONTINUOUS
100
AcDbLine
 10
-44.37059837324712
 20
-61.5
 11
44.37059837324712
 21
-61.5
  0
ARC
  5
48
330
20
100
AcDbEntity
  8
100
  6
CONTINUOUS
100
AcDbCircle
 10
9.0
 20
-88.5
 40
5.999999999999999
100
AcDbArc
 50
80.40593177313959
 51
123.5573097619207
  0
LINE
  5
49
330
20
100
AcDbEntity
  8
100
  6
CONTINUOUS
100
AcDbLine
 10
45.0
 20
-123.5
 11
45.0
 21
-62.09584240176571
  0
LINE
  5
4A
330
20
100
AcDbEntity
  8
100
  6
CONTINUOUS
100
AcDbLine
 10
-44.37059837324712
 20
-156.5
 11
44.37059837324712
 21
-156.5
  0
LINE
  5
4B
330
20
100
AcDbEntity
  8
100
  6
CONTINUOUS
100
AcDbLine
 10
29.0
 20
-155.5
 11
29.0
 21
-90.0
  0
ARC
  5
4C
330
20
100
AcDbEntity
  8
100
  6
CONTINUOUS
100
AcDbCircle
 10
9.0
 20
-88.5
 40
6.000000000000017
100
AcDbArc
 50
345.5224878140701
 51
80.40593177313957
  0
LINE
  5
4D
330
20
100
AcDbEntity
  8
100
  6
CONTINUOUS
100
AcDbLine
 10
45.0
 20
-123.5
 11
29.0
 21
-123.5
  0
LINE
  5
4E
330
20
100
AcDbEntity
  8
100
  6
CONTINUOUS
100
AcDbLine
 10
45.0
 20
-134.5
 11
29.0
 21
-134.5
  0
LINE
  5
4F
330
20
100
AcDbEntity
  8
100
  6
CONTINUOUS
100
AcDbLine
 10
-45.0
 20
-94.5
 11
-29.0
 21
-94.5
  0
CIRCLE
  5
50
330
20
100
AcDbEntity
  8
10
  6
CONTINUOUS
100
AcDbCircle
 10
20.0
 20
-148.5
 40
3.15
  0
ARC
  5
51
330
20
100
AcDbEntity
  8
10
  6
CONTINUOUS
100
AcDbCircle
 10
20.0
 20
-148.5
 40
1.75
100
AcDbArc
 50
351.7867892982619
 51
0.0
  0
ARC
  5
52
330
20
100
AcDbEntity
  8
10
  6
CONTINUOUS
100
AcDbCircle
 10
20.0
 20
-148.5
 40
1.75
100
AcDbArc
 50
261.7867892982619
 51
278.2132107017381
  0
ARC
  5
53
330
20
100
AcDbEntity
  8
10
  6
CONTINUOUS
100
AcDbCircle
 10
20.0
 20
-148.5
 40
1.75
100
AcDbArc
 50
171.7867892982619
 51
188.2132107017381
  0
ARC
  5
54
330
20
100
AcDbEntity
  8
10
  6
CONTINUOUS
100
AcDbCircle
 10
20.0
 20
-148.5
 40
1.75
100
AcDbArc
 50
81.78678929826191
 51
98.21321070173811
  0
ARC
  5
55
330
20
100
AcDbEntity
  8
10
  6
CONTINUOUS
100
AcDbCircle
 10
20.0
 20
-148.5
 40
1.75
100
AcDbArc
 50
0.0
 51
8.213210701738101
  0
LINE
  5
56
330
20
100
AcDbEntity
  8
10
  6
CONTINUOUS
100
AcDbLine
 10
18.2679491924311
 20
-148.75
 11
19.15000000000001
 21
-148.75
  0
LINE
  5
57
330
20
100
AcDbEntity
  8
10
  6
CONTINUOUS
100
AcDbLine
 10
20.84999999999999
 20
-148.75
 11
21.7320508075689
 21
-148.75
  0
LINE
  5
58
330
20
100
AcDbEntity
  8
10
  6
CONTINUOUS
100
AcDbLine
 10
18.2679491924311
 20
-148.25
 11
19.15000000000001
 21
-148.25
  0
LINE
  5
59
330
20
100
AcDbEntity
  8
10
  6
CONTINUOUS
100
AcDbLine
 10
20.84999999999999
 20
-148.25
 11
21.7320508075689
 21
-148.25
  0
LINE
  5
5A
330
20
100
AcDbEntity
  8
10
  6
CONTINUOUS
100
AcDbLine
 10
20.25
 20
-146.7679491924311
 11
20.25
 21
-147.65
  0
LINE
  5
5B
330
20
100
AcDbEntity
  8
10
  6
CONTINUOUS
100
AcDbLine
 10
20.25
 20
-149.35
 11
20.25
 21
-150.2320508075689
  0
LINE
  5
5C
330
20
100
AcDbEntity
  8
10
  6
CONTINUOUS
100
AcDbLine
 10
19.75
 20
-146.7679491924311
 11
19.75
 21
-147.65
  0
LINE
  5
5D
330
20
100
AcDbEntity
  8
10
  6
CONTINUOUS
100
AcDbLine
 10
19.75
 20
-149.35
 11
19.75
 21
-150.2320508075689
  0
ARC
  5
5E
330
20
100
AcDbEntity
  8
10
  6
CONTINUOUS
100
AcDbCircle
 10
20.84999999999999
 20
-149.35
 40
0.6
100
AcDbArc
 50
90.0
 51
180.0
  0
ARC
  5
5F
330
20
100
AcDbEntity
  8
10
  6
CONTINUOUS
100
AcDbCircle
 10
19.15000000000001
 20
-149.35
 40
0.6
100
AcDbArc
 50
0.0
 51
90.0
  0
ARC
  5
60
330
20
100
AcDbEntity
  8
10
  6
CONTINUOUS
100
AcDbCircle
 10
19.15000000000001
 20
-147.65
 40
0.6
100
AcDbArc
 50
270.0
 51
0.0
  0
ARC
  5
61
330
20
100
AcDbEntity
  8
10
  6
CONTINUOUS
100
AcDbCircle
 10
20.84999999999999
 20
-147.65
 40
0.6
100
AcDbArc
 50
180.0
 51
270.0
  0
CIRCLE
  5
62
330
20
100
AcDbEntity
  8
10
  6
CONTINUOUS
100
AcDbCircle
 10
-20.0
 20
-148.5
 40
3.15
  0
ARC
  5
63
330
20
100
AcDbEntity
  8
10
  6
CONTINUOUS
100
AcDbCircle
 10
-20.0
 20
-148.5
 40
1.75
100
AcDbArc
 50
351.7867892982619
 51
0.0
  0
ARC
  5
64
330
20
100
AcDbEntity
  8
10
  6
CONTINUOUS
100
AcDbCircle
 10
-20.0
 20
-148.5
 40
1.75
100
AcDbArc
 50
261.7867892982619
 51
278.2132107017381
  0
ARC
  5
65
330
20
100
AcDbEntity
  8
10
  6
CONTINUOUS
100
AcDbCircle
 10
-20.0
 20
-148.5
 40
1.75
100
AcDbArc
 50
171.7867892982619
 51
188.2132107017381
  0
ARC
  5
66
330
20
100
AcDbEntity
  8
10
  6
CONTINUOUS
100
AcDbCircle
 10
-20.0
 20
-148.5
 40
1.75
100
AcDbArc
 50
81.78678929826191
 51
98.21321070173811
  0
ARC
  5
67
330
20
100
AcDbEntity
  8
10
  6
CONTINUOUS
100
AcDbCircle
 10
-20.0
 20
-148.5
 40
1.75
100
AcDbArc
 50
0.0
 51
8.213210701738101
  0
LINE
  5
68
330
20
100
AcDbEntity
  8
10
  6
CONTINUOUS
100
AcDbLine
 10
-21.7320508075689
 20
-148.75
 11
-20.84999999999999
 21
-148.75
  0
LINE
  5
69
330
20
100
AcDbEntity
  8
10
  6
CONTINUOUS
100
AcDbLine
 10
-19.15000000000001
 20
-148.75
 11
-18.2679491924311
 21
-148.75
  0
LINE
  5
6A
330
20
100
AcDbEntity
  8
10
  6
CONTINUOUS
100
AcDbLine
 10
-21.7320508075689
 20
-148.25
 11
-20.84999999999999
 21
-148.25
  0
LINE
  5
6B
330
20
100
AcDbEntity
  8
10
  6
CONTINUOUS
100
AcDbLine
 10
-19.15000000000001
 20
-148.25
 11
-18.2679491924311
 21
-148.25
  0
LINE
  5
6C
330
20
100
AcDbEntity
  8
10
  6
CONTINUOUS
100
AcDbLine
 10
-19.75
 20
-146.7679491924311
 11
-19.75
 21
-147.65
  0
LINE
  5
6D
330
20
100
AcDbEntity
  8
10
  6
CONTINUOUS
100
AcDbLine
 10
-19.75
 20
-149.35
 11
-19.75
 21
-150.2320508075689
  0
LINE
  5
6E
330
20
100
AcDbEntity
  8
10
  6
CONTINUOUS
100
AcDbLine
 10
-20.25
 20
-146.7679491924311
 11
-20.25
 21
-147.65
  0
LINE
  5
6F
330
20
100
AcDbEntity
  8
10
  6
CONTINUOUS
100
AcDbLine
 10
-20.25
 20
-149.35
 11
-20.25
 21
-150.2320508075689
  0
ARC
  5
70
330
20
100
AcDbEntity
  8
10
  6
CONTINUOUS
100
AcDbCircle
 10
-19.15000000000001
 20
-149.35
 40
0.6
100
AcDbArc
 50
90.0
 51
180.0
  0
ARC
  5
71
330
20
100
AcDbEntity
  8
10
  6
CONTINUOUS
100
AcDbCircle
 10
-20.84999999999999
 20
-149.35
 40
0.6
100
AcDbArc
 50
0.0
 51
90.0
  0
ARC
  5
72
330
20
100
AcDbEntity
  8
10
  6
CONTINUOUS
100
AcDbCircle
 10
-20.84999999999999
 20
-147.65
 40
0.6
100
AcDbArc
 50
270.0
 51
0.0
  0
ARC
  5
73
330
20
100
AcDbEntity
  8
10
  6
CONTINUOUS
100
AcDbCircle
 10
-19.15000000000001
 20
-147.65
 40
0.6
100
AcDbArc
 50
180.0
 51
270.0
  0
LINE
  5
74
330
20
100
AcDbEntity
  8
100
  6
CONTINUOUS
100
AcDbLine
 10
-29.0
 20
-127.5
 11
29.0
 21
-127.5
  0
LINE
  5
75
330
20
100
AcDbEntity
  8
100
  6
CONTINUOUS
100
AcDbLine
 10
-29.0
 20
-131.5619506835938
 11
29.0
 21
-131.5619506835938
  0
LINE
  5
76
330
20
100
AcDbEntity
  8
100
  6
CONTINUOUS
100
AcDbLine
 10
-45.0
 20
-17.5
 11
45.0
 21
-17.5
  0
LINE
  5
77
330
20
100
AcDbEntity
  8
100
  6
CONTINUOUS
100
AcDbLine
 10
-45.0
 20
17.5
 11
45.0
 21
17.5
  0
LINE
  5
78
330
20
100
AcDbEntity
  8
100
  6
CONTINUOUS
100
AcDbLine
 10
45.0
 20
-17.5
 11
45.0
 21
17.5
  0
LINE
  5
79
330
20
100
AcDbEntity
  8
100
  6
CONTINUOUS
100
AcDbLine
 10
-45.0
 20
-17.5
 11
-45.0
 21
17.5
  0
LINE
  5
7A
330
20
100
AcDbEntity
  8
100
  6
CONTINUOUS
100
AcDbLine
 10
-29.0
 20
-22.5
 11
29.0
 21
-22.5
  0
LINE
  5
7B
330
20
100
AcDbEntity
  8
100
  6
CONTINUOUS
100
AcDbLine
 10
-29.0
 20
22.5
 11
29.0
 21
22.5
  0
LINE
  5
7C
330
20
100
AcDbEntity
  8
100
  6
CONTINUOUS
100
AcDbLine
 10
29.0
 20
-22.5
 11
29.0
 21
-17.5
  0
LINE
  5
7D
330
20
100
AcDbEntity
  8
100
  6
CONTINUOUS
100
AcDbLine
 10
29.0
 20
17.5
 11
29.0
 21
22.5
  0
LINE
  5
7E
330
20
100
AcDbEntity
  8
100
  6
CONTINUOUS
100
AcDbLine
 10
-29.0
 20
-22.5
 11
-29.0
 21
-17.5
  0
LINE
  5
7F
330
20
100
AcDbEntity
  8
100
  6
CONTINUOUS
100
AcDbLine
 10
-29.0
 20
17.5
 11
-29.0
 21
22.5
  0
CIRCLE
  5
80
330
20
100
AcDbEntity
  8
100
  6
CONTINUOUS
100
AcDbCircle
 10
0.0
 20
0.0
 40
12.0
  0
CIRCLE
  5
81
330
20
100
AcDbEntity
  8
100
  6
CONTINUOUS
100
AcDbCircle
 10
0.0
 20
0.0
 40
10.0
  0
ARC
  5
82
330
20
100
AcDbEntity
  8
100
  6
CONTINUOUS
100
AcDbCircle
 10
-76.0565625
 20
-4.925
 40
1.8965625
100
AcDbArc
 50
303.855026128294
 51
56.14497387170596
  0
ARC
  5
83
330
20
100
AcDbEntity
  8
100
  6
CONTINUOUS
100
AcDbCircle
 10
-73.9434375
 20
-4.925
 40
1.8965625
100
AcDbArc
 50
123.8550261282941
 51
236.144973871706
  0
ARC
  5
84
330
20
100
AcDbEntity
  8
100
  6
CONTINUOUS
100
AcDbCircle
 10
-73.9434375
 20
-8.074999999999999
 40
1.8965625
100
AcDbArc
 50
123.8550261282941
 51
236.144973871706
  0
LINE
  5
85
330
20
100
AcDbEntity
  8
100
  6
CONTINUOUS
100
AcDbLine
 10
-45.0
 20
0.5
 11
-46.0
 21
0.5
  0
LINE
  5
86
330
20
100
AcDbEntity
  8
100
  6
CONTINUOUS
100
AcDbLine
 10
-45.0
 20
-13.5
 11
-46.0
 21
-13.5
  0
LINE
  5
87
330
20
100
AcDbEntity
  8
100
  6
CONTINUOUS
100
AcDbLine
 10
-46.0
 20
-13.5
 11
-46.0
 21
0.5
  0
LINE
  5
88
330
20
100
AcDbEntity
  8
100
  6
CONTINUOUS
100
AcDbLine
 10
-46.0
 20
-11.0
 11
-51.0
 21
-11.0
  0
LINE
  5
89
330
20
100
AcDbEntity
  8
100
  6
CONTINUOUS
100
AcDbLine
 10
-51.0
 20
-2.0
 11
-46.0
 21
-2.0
  0
LINE
  5
8A
330
20
100
AcDbEntity
  8
100
  6
CONTINUOUS
100
AcDbLine
 10
-51.0
 20
-11.0
 11
-51.0
 21
-2.0
  0
LINE
  5
8B
330
20
100
AcDbEntity
  8
100
  6
CONTINUOUS
100
AcDbLine
 10
-51.0
 20
-3.35
 11
-75.0
 21
-3.35
  0
LINE
  5
8C
330
20
100
AcDbEntity
  8
100
  6
CONTINUOUS
100
AcDbLine
 10
-51.0
 20
-9.65
 11
-75.0
 21
-9.65
  0
LINE
  5
8D
330
20
100
AcDbEntity
  8
100
  6
CENTER
100
AcDbLine
 10
-40.56100463867188
 20
-6.5
 11
-80.56100463867188
 21
-6.5
  0
LINE
  5
8E
330
20
100
AcDbEntity
  8
100
  6
CENTER
100
AcDbLine
 10
-51.56100463867188
 20
0.0
 11
53.43899536132813
 21
0.0
  0
LINE
  5
8F
330
20
100
AcDbEntity
  8
100
  6
CENTER
100
AcDbLine
 10
0.0
 20
-27.5
 11
0.0
 21
27.5
  0
LINE
  5
90
330
20
100
AcDbEntity
  8
100
  6
CENTER
100
AcDbLine
 10
0.0
 20
-162.5774383544922
 11
0.0
 21
-57.57743835449219
  0
LINE
  5
91
330
20
100
AcDbEntity
  8
100
  6
DASHED
100
AcDbLine
 10
12.0
 20
-83.30384757729335
 11
12.0
 21
-61.5
  0
LINE
  5
92
330
20
100
AcDbEntity
  8
100
  6
DASHED
100
AcDbLine
 10
10.0
 20
-82.58392021690037
 11
10.0
 21
-61.5
  0
LINE
  5
93
330
20
100
AcDbEntity
  8
100
  6
DASHED
100
AcDbLine
 10
-10.0
 20
-83.5
 11
-10.0
 21
-61.5
  0
LINE
  5
94
330
20
100
AcDbEntity
  8
100
  6
DASHED
100
AcDbLine
 10
-12.0
 20
-83.5
 11
-12.0
 21
-61.5
  0
LINE
  5
95
330
20
100
AcDbEntity
  8
100
  6
CONTINUOUS
100
AcDbLine
 10
-29.0
 20
-155.5
 11
29.0
 21
-155.5
  0
LINE
  5
96
330
20
100
AcDbEntity
  8
100
  6
CONTINUOUS
100
AcDbLine
 10
-29.0
 20
-90.0
 11
29.0
 21
-90.0
  0
LINE
  5
97
330
20
100
AcDbEntity
  8
100
  6
CONTINUOUS
100
AcDbLine
 10
88.0
 20
-131.5
 11
84.0
 21
-127.5
  0
LINE
  5
98
330
20
100
AcDbEntity
  8
100
  6
CONTINUOUS
100
AcDbLine
 10
129.0
 20
-127.5
 11
125.0
 21
-131.5
  0
LINE
  5
99
330
20
100
AcDbEntity
  8
100
  6
CONTINUOUS
100
AcDbLine
 10
88.0
 20
-155.5
 11
89.0
 21
-155.5
  0
LINE
  5
9A
330
20
100
AcDbEntity
  8
100
  6
CONTINUOUS
100
AcDbLine
 10
124.0
 20
-155.5
 11
125.0
 21
-155.5
  0
LINE
  5
9B
330
20
100
AcDbEntity
  8
100
  6
CONTINUOUS
100
AcDbLine
 10
89.0
 20
-156.5
 11
124.0
 21
-156.5
  0
LINE
  5
9C
330
20
100
AcDbEntity
  8
100
  6
CONTINUOUS
100
AcDbLine
 10
89.0
 20
-61.5
 11
124.0
 21
-61.5
  0
ARC
  5
9D
330
20
100
AcDbEntity
  8
100
  6
CONTINUOUS
100
AcDbCircle
 10
0.0
 20
-109.0
 40
65.0
100
AcDbArc
 50
46.18693853959685
 51
46.95092019976365
  0
ARC
  5
9E
330
20
100
AcDbEntity
  8
100
  6
CONTINUOUS
100
AcDbCircle
 10
0.0
 20
-109.0
 40
65.0
100
AcDbArc
 50
133.0490798002363
 51
133.8130614604032
  0
ARC
  5
9F
330
20
100
AcDbEntity
  8
100
  6
CONTINUOUS
100
AcDbCircle
 10
0.0
 20
-109.0
 40
65.0
100
AcDbArc
 50
226.1869385395968
 51
226.9509201997637
  0
ARC
  5
A0
330
20
100
AcDbEntity
  8
100
  6
CONTINUOUS
100
AcDbCircle
 10
0.0
 20
-109.0
 40
65.0
100
AcDbArc
 50
313.0490798002364
 51
313.8130614604032
  0
LINE
  5
A1
330
20
100
AcDbEntity
  8
100
  6
CONTINUOUS
100
AcDbLine
 10
-46.0
 20
-116.0
 11
-46.0
 21
-102.0
  0
LINE
  5
A2
330
20
100
AcDbEntity
  8
100
  6
CENTER
100
AcDbLine
 10
-40.56100463867188
 20
-109.0
 11
-80.56100463867188
 21
-109.0
  0
ARC
  5
A3
330
20
100
AcDbEntity
  8
100
  6
CONTINUOUS
100
AcDbCircle
 10
-76.0565625
 20
-107.425
 40
1.8965625
100
AcDbArc
 50
303.855026128294
 51
56.14497387170601
  0
ARC
  5
A4
330
20
100
AcDbEntity
  8
100
  6
CONTINUOUS
100
AcDbCircle
 10
-73.9434375
 20
-107.425
 40
1.8965625
100
AcDbArc
 50
123.855026128294
 51
236.144973871706
  0
ARC
  5
A5
330
20
100
AcDbEntity
  8
100
  6
CONTINUOUS
100
AcDbCircle
 10
-73.9434375
 20
-110.575
 40
1.8965625
100
AcDbArc
 50
123.855026128294
 51
236.144973871706
  0
LINE
  5
A6
330
20
100
AcDbEntity
  8
100
  6
CONTINUOUS
100
AcDbLine
 10
-51.0
 20
-112.15
 11
-75.0
 21
-112.15
  0
LINE
  5
A7
330
20
100
AcDbEntity
  8
100
  6
CONTINUOUS
100
AcDbLine
 10
-51.0
 20
-105.85
 11
-75.0
 21
-105.85
  0
LINE
  5
A8
330
20
100
AcDbEntity
  8
100
  6
CONTINUOUS
100
AcDbLine
 10
-51.0
 20
-104.5
 11
-46.0
 21
-104.5
  0
LINE
  5
A9
330
20
100
AcDbEntity
  8
100
  6
CONTINUOUS
100
AcDbLine
 10
-46.0
 20
-113.5
 11
-51.0
 21
-113.5
  0
LINE
  5
AA
330
20
100
AcDbEntity
  8
100
  6
CONTINUOUS
100
AcDbLine
 10
-51.0
 20
-113.5
 11
-51.0
 21
-104.5
  0
LINE
  5
AB
330
20
100
AcDbEntity
  8
100
  6
CONTINUOUS
100
AcDbLine
 10
-45.0
 20
-116.0
 11
-46.0
 21
-116.0
  0
LINE
  5
AC
330
20
100
AcDbEntity
  8
100
  6
CONTINUOUS
100
AcDbLine
 10
-45.0
 20
-102.0
 11
-46.0
 21
-102.0
  0
LINE
  5
AD
330
20
100
AcDbEntity
  8
10
  6
CONTINUOUS
100
AcDbLine
 10
125.0
 20
-145.35
 11
125.0
 21
-151.65
  0
LINE
  5
AE
330
20
100
AcDbEntity
  8
10
  6
CONTINUOUS
100
AcDbLine
 10
126.3
 20
-151.5362647374163
 11
125.0
 21
-151.65
  0
LINE
  5
AF
330
20
100
AcDbEntity
  8
10
  6
CONTINUOUS
100
AcDbLine
 10
126.3
 20
-145.4637352625837
 11
126.3
 21
-151.5362647374163
  0
LINE
  5
B0
330
20
100
AcDbEntity
  8
10
  6
CONTINUOUS
100
AcDbLine
 10
126.3
 20
-145.4637352625837
 11
125.0
 21
-145.35
  0
ARC
  5
B1
330
20
100
AcDbEntity
  8
10
  6
CONTINUOUS
100
AcDbCircle
 10
118.9175803702686
 20
-148.5
 40
7.98241962973139
100
AcDbArc
 50
337.6434605857298
 51
22.35653941426983
  0
LINE
  5
B2
330
20
100
AcDbEntity
  8
100
  6
CONTINUOUS
100
AcDbLine
 10
9.0
 20
-19.0
 11
9.0
 21
-17.5
  0
LINE
  5
B3
330
20
100
AcDbEntity
  8
100
  6
CONTINUOUS
100
AcDbLine
 10
9.0
 20
-19.0
 11
29.0
 21
-19.0
  0
LINE
  5
B4
330
20
100
AcDbEntity
  8
100
  6
CONTINUOUS
100
AcDbLine
 10
9.0
 20
19.0
 11
29.0
 21
19.0
  0
LINE
  5
B5
330
20
100
AcDbEntity
  8
100
  6
CONTINUOUS
100
AcDbLine
 10
9.0
 20
19.0
 11
9.0
 21
17.5
  0
LINE
  5
B6
330
20
100
AcDbEntity
  8
100
  6
CONTINUOUS
100
AcDbLine
 10
128.0
 20
-127.0857864376269
 11
124.0
 21
-131.0857864376269
  0
LINE
  5
B7
330
20
100
AcDbEntity
  8
100
  6
CONTINUOUS
100
AcDbLine
 10
89.0
 20
-131.0857864376269
 11
85.0
 21
-127.0857864376269
  0
LINE
  5
B8
330
20
100
AcDbEntity
  8
100
  6
CONTINUOUS
100
AcDbLine
 10
125.5
 20
-91.0
 11
125.5
 21
-90.0
  0
LINE
  5
B9
330
20
100
AcDbEntity
  8
100
  6
CONTINUOUS
100
AcDbLine
 10
87.5
 20
-91.0
 11
87.5
 21
-90.0
  0
ENDSEC
  0
SECTION
  2
OBJECTS
  0
DICTIONARY
  5
C
100
AcDbDictionary
281
     1
  3
ACAD_GROUP
350
D
  3
ACAD_MLINESTYLE
350
E
  3
ACDBVARIABLEDICTIONARY
350
BA
  3
ACAD_PLOTSTYLENAME
350
BB
  3
ACAD_LAYOUT
350
BC
  3
ACAD_PLOTSETTINGS
350
BD
  0
DICTIONARY
  5
D
102
{ACAD_REACTORS
330
C
102
}
330
C
100
AcDbDictionary
281
     1
  0
DICTIONARY
  5
E
102
{ACAD_REACTORS
330
C
102
}
330
C
100
AcDbDictionary
281
     1
  3
STANDARD
350
13
  0
DICTIONARY
  5
BA
102
{ACAD_REACTORS
330
C
102
}
330
C
100
AcDbDictionary
281
     1
  3
SORTENTS
350
BE
  0
ACDBDICTIONARYWDFLT
  5
BB
102
{ACAD_REACTORS
330
C
102
}
330
C
100
AcDbDictionary
281
     1
  3
Normal
350
BF
100
AcDbDictionaryWithDefault
340
BF
  0
DICTIONARY
  5
BC
102
{ACAD_REACTORS
330
C
102
}
330
C
100
AcDbDictionary
281
     1
  3
Model
350
C0
  0
DICTIONARY
  5
BD
102
{ACAD_REACTORS
330
C
102
}
330
C
100
AcDbDictionary
281
     1
  0
MLINESTYLE
  5
13
102
{ACAD_REACTORS
330
E
102
}
330
E
100
AcDbMlineStyle
  2
STANDARD
 70
     0
  3

 62
   256
 51
90.0
 52
90.0
 71
     2
 49
0.5
 62
   256
  6
BYLAYER
 49
-0.5
 62
   256
  6
BYLAYER
  0
DICTIONARYVAR
  5
BE
102
{ACAD_REACTORS
330
BA
102
}
330
BA
100
DictionaryVariables
280
     0
  1
96
  0
ACDBPLACEHOLDER
  5
BF
102
{ACAD_REACTORS
330
BB
102
}
330
BB
  0
LAYOUT
  5
C0
102
{ACAD_REACTORS
330
BC
102
}
330
BC
100
AcDbPlotSettings
  1

  2

  4

  6

 40
0.0
 41
0.0
 42
0.0
 43
0.0
 44
0.0
 45
0.0
 46
0.0
 47
0.0
 48
0.0
 49
0.0
140
0.0
141
0.0
142
1.0
143
1.0
 70
  1712
 72
     0
 73
     0
 74
     0
  7

 75
     0
147
1.0
148
0.0
149
0.0
100
AcDbLayout
  1
Model
 70
     1
 71
     0
 10
0.0
 20
0.0
 11
297.0
 21
210.0
 12
0.0
 22
0.0
 32
0.0
 14
0.0
 24
0.0
 34
0.0
 15
0.0
 25
0.0
 35
0.0
146
0.0
 13
0.0
 23
0.0
 33
0.0
 16
1.0
 26
0.0
 36
0.0
 17
0.0
 27
1.0
 37
0.0
 76
     0
330
20
  0
ENDSEC
  0
EOF
