  0
SECTION
  2
HEADER
  9
$ACADVER
  1
AC1015
  9
$ACADMAINTVER
 70
     0
  9
$DWGCODEPAGE
  3
ANSI_932
  9
$INSBASE
 10
0.0
 20
0.0
 30
0.0
  9
$EXTMIN
 10
289.4389953613281
 20
-245.0
  9
$EXTMAX
 10
534.0
 20
-11.0
  9
$LIMMIN
 10
289.4389953613281
 20
-245.0
  9
$LIMMAX
 10
534.0
 20
-11.0
  9
$ORTHOMODE
 70
     0
  9
$REGENMODE
 70
     1
  9
$FILLMODE
 70
     1
  9
$QTEXTMODE
 70
     0
  9
$MIRRTEXT
 70
     1
  9
$LTSCALE
 40
1.0
  9
$OSMODE
 70
     0
  9
$ATTMODE
 70
     1
  9
$TEXTSIZE
 40
3.0
  9
$TRACEWID
 40
0.5
  9
$TEXTSTYLE
  7
STANDARD
  9
$CLAYER
  8
0
  9
$CELTYPE
  6
BYLAYER
  9
$CECOLOR
 62
   256
  9
$CELTSCALE
 40
1.0
  9
$DISPSILH
 70
     0
  9
$DIMSCALE
 40
1.0
  9
$DIMASZ
 40
3.0
  9
$DIMEXO
 40
1.0
  9
$DIMDLI
 40
5.0
  9
$DIMRND
 40
0.0
  9
$DIMDLE
 40
5.0
  9
$DIMEXE
 40
2.0
  9
$DIMTP
 40
0.0
  9
$DIMTM
 40
0.0
  9
$DIMTXT
 40
3.0
  9
$DIMCEN
 40
2.0
  9
$DIMTSZ
 40
0.0
  9
$DIMTOL
 70
     0
  9
$DIMLIM
 70
     0
  9
$DIMTIH
 70
     0
  9
$DIMTOH
 70
     0
  9
$DIMSE1
 70
     0
  9
$DIMSE2
 70
     0
  9
$DIMTAD
 70
     1
  9
$DIMZIN
 70
     8
  9
$DIMBLK
  1

  9
$DIMASO
 70
     1
  9
$DIMSHO
 70
     1
  9
$DIMPOST
  1

  9
$DIMAPOST
  1

  9
$DIMALT
 70
     0
  9
$DIMALTD
 70
     0
  9
$DIMALTF
 40
25.4
  9
$DIMLFAC
 40
1.0
  9
$DIMTOFL
 70
     1
  9
$DIMTVP
 40
1.0
  9
$DIMTIX
 70
     0
  9
$DIMSOXD
 70
     0
  9
$DIMSAH
 70
     0
  9
$DIMBLK1
  1

  9
$DIMBLK2
  1

  9
$DIMSTYLE
  2
ISO-25
  9
$DIMCLRD
 70
     0
  9
$DIMCLRE
 70
     0
  9
$DIMCLRT
 70
     0
  9
$DIMTFAC
 40
1.0
  9
$DIMGAP
 40
0.5
  9
$DIMJUST
 70
     0
  9
$DIMSD1
 70
     0
  9
$DIMSD2
 70
     0
  9
$DIMTOLJ
 70
     0
  9
$DIMTZIN
 70
     8
  9
$DIMALTZ
 70
     0
  9
$DIMALTTZ
 70
     0
  9
$DIMUPT
 70
     0
  9
$DIMDEC
 70
     2
  9
$DIMTDEC
 70
     2
  9
$DIMALTU
 70
     2
  9
$DIMALTTD
 70
     3
  9
$DIMTXSTY
  7
STANDARD
  9
$DIMAUNIT
 70
     0
  9
$DIMADEC
 70
     0
  9
$DIMALTRND
 40
0.0
  9
$DIMAZIN
 70
     0
  9
$DIMDSEP
 70
    46
  9
$DIMATFIT
 70
     3
  9
$DIMFRAC
 70
     0
  9
$DIMLDRBLK
  1

  9
$DIMLUNIT
 70
     2
  9
$DIMLWD
 70
    -2
  9
$DIMLWE
 70
    -2
  9
$DIMTMOVE
 70
     0
  9
$LUNITS
 70
     2
  9
$LUPREC
 70
     4
  9
$SKETCHINC
 40
1.0
  9
$FILLETRAD
 40
0.0
  9
$AUNITS
 70
     0
  9
$AUPREC
 70
     0
  9
$MENU
  1
.
  9
$ELEVATION
 40
0.0
  9
$PELEVATION
 40
0.0
  9
$THICKNESS
 40
0.0
  9
$LIMCHECK
 70
     0
  9
$CHAMFERA
 40
0.0
  9
$CHAMFERB
 40
0.0
  9
$CHAMFERC
 40
0.0
  9
$CHAMFERD
 40
0.0
  9
$SKPOLY
 70
     0
  9
$TDCREATE
 40
2454089.730451389
  9
$TDUCREATE
 40
2454089.730451389
  9
$TDUPDATE
 40
2454089.730451389
  9
$TDUUPDATE
 40
2454089.730451389
  9
$TDINDWG
 40
0.0
  9
$TDUSRTIMER
 40
0.0
  9
$USRTIMER
 70
     1
  9
$ANGBASE
 50
0.0
  9
$ANGDIR
 70
     0
  9
$PDMODE
 70
     0
  9
$PDSIZE
 40
0.0
  9
$PLINEWID
 40
0.0
  9
$SPLFRAME
 70
     0
  9
$SPLINETYPE
 70
     6
  9
$SPLINESEGS
 70
     8
  9
$HANDSEED
  5
CE
  9
$SURFTAB1
 70
     6
  9
$SURFTAB2
 70
     6
  9
$SURFTYPE
 70
     6
  9
$SURFU
 70
     6
  9
$SURFV
 70
     6
  9
$UCSBASE
  2

  9
$UCSNAME
  2

  9
$UCSORG
 10
0.0
 20
0.0
 30
0.0
  9
$UCSXDIR
 10
1.0
 20
0.0
 30
0.0
  9
$UCSYDIR
 10
0.0
 20
1.0
 30
0.0
  9
$UCSORTHOREF
  2

  9
$UCSORTHOVIEW
 70
     0
  9
$UCSORGTOP
 10
0.0
 20
0.0
 30
0.0
  9
$UCSORGBOTTOM
 10
0.0
 20
0.0
 30
0.0
  9
$UCSORGLEFT
 10
0.0
 20
0.0
 30
0.0
  9
$UCSORGRIGHT
 10
0.0
 20
0.0
 30
0.0
  9
$UCSORGFRONT
 10
0.0
 20
0.0
 30
0.0
  9
$UCSORGBACK
 10
0.0
 20
0.0
 30
0.0
  9
$PUCSBASE
  2

  9
$PUCSNAME
  2

  9
$PUCSORG
 10
0.0
 20
0.0
 30
0.0
  9
$PUCSXDIR
 10
1.0
 20
0.0
 30
0.0
  9
$PUCSYDIR
 10
0.0
 20
1.0
 30
0.0
  9
$PUCSORTHOREF
  2

  9
$PUCSORTHOVIEW
 70
     0
  9
$PUCSORGTOP
 10
0.0
 20
0.0
 30
0.0
  9
$PUCSORGBOTTOM
 10
0.0
 20
0.0
 30
0.0
  9
$PUCSORGLEFT
 10
0.0
 20
0.0
 30
0.0
  9
$PUCSORGRIGHT
 10
0.0
 20
0.0
 30
0.0
  9
$PUCSORGFRONT
 10
0.0
 20
0.0
 30
0.0
  9
$PUCSORGBACK
 10
0.0
 20
0.0
 30
0.0
  9
$USERI1
 70
     0
  9
$USERI2
 70
     0
  9
$USERI3
 70
     0
  9
$USERI4
 70
     0
  9
$USERI5
 70
     0
  9
$USERR1
 40
0.0
  9
$USERR2
 40
0.0
  9
$USERR3
 40
0.0
  9
$USERR4
 40
0.0
  9
$USERR5
 40
0.0
  9
$WORLDVIEW
 70
     1
  9
$SHADEDGE
 70
     3
  9
$SHADEDIF
 70
    70
  9
$MAXACTVP
 70
    16
  9
$PINSBASE
 10
0.0
 20
0.0
 30
0.0
  9
$PLIMCHECK
 70
     0
  9
$PEXTMIN
 10
1.000000E+20
 20
1.000000E+20
 30
1.000000E+20
  9
$PEXTMAX
 10
-1.000000E+20
 20
-1.000000E+20
 30
-1.000000E+20
  9
$PLIMMIN
 10
289.4389953613281
 20
-245.0
  9
$PLIMMAX
 10
534.0
 20
-11.0
  9
$UNITMODE
 70
     0
  9
$VISRETAIN
 70
     0
  9
$PLINEGEN
 70
     0
  9
$PSLTSCALE
 70
     0
  9
$TREEDEPTH
 70
  3020
  9
$CMLSTYLE
  2
STANDARD
  9
$CMLJUST
 70
     0
  9
$CMLSCALE
 40
1.0
  9
$PROXYGRAPHICS
 70
     1
  9
$MEASUREMENT
 70
     0
  9
$CELWEIGHT
370
    -3
  9
$ENDCAPS
280
     0
  9
$JOINSTYLE
280
     0
  9
$LWDISPLAY
290
     1
  9
$INSUNITS
 70
     0
  9
$HYPERLINKBASE
  1

  9
$STYLESHEET
  1

  9
$XEDIT
290
     1
  9
$CEPSNTYPE
380
     0
  9
$PSTYLEMODE
290
     1
  9
$FINGERPRINTGUID
  2
{6F25CFC2-5053-11D3-9BE9-00805F4AB38E}
  9
$VERSIONGUID
  2
{6F25CFC5-5053-11D3-9BE9-00805F4AB38E}
  9
$EXTNAMES
290
     1
  9
$PSVPSCALE
 40
0.0
  9
$OLESTARTUP
290
     0
  0
ENDSEC
  0
SECTION
  2
CLASSES
  0
CLASS
  1
LWPOLYLINE
  2
AcDbPolyline
  3
AutoCAD 2000
 90
    32768
280
     0
281
     1
  0
CLASS
  1
DICTIONARYVAR
  2
AcDbDictionaryVar
  3
AutoCAD 2000
 90
        0
280
     0
281
     1
  0
CLASS
  1
ACDBDICTIONARYWDFLT
  2
AcDbDictionaryWithDefault
  3
AutoCAD 2000
 90
        0
280
     0
281
     1
  0
CLASS
  1
ACDBPLACEHOLDER
  2
AcDbPlaceHolder
  3
AutoCAD 2000
 90
        0
280
     0
281
     1
  0
CLASS
  1
LAYOUT
  2
AcDbLayout
  3
AutoCAD 2000
 90
        0
280
     0
281
     1
  0
CLASS
  1
HATCH
  2
AcDbHatch
  3
AutoCAD 2000
 90
        0
280
     0
281
     1
  0
ENDSEC
  0
SECTION
  2
TABLES
  0
TABLE
  2
VPORT
  5
8
100
AcDbSymbolTable
 70
     1
  0
VPORT
  5
C4
330
0
100
AcDbSymbolTableRecord
100
AcDbViewportTableRecord
  2
*ACTIVE
 70
     0
 10
0.0
 20
0.0
 11
1.0
 21
1.0
 12
411.7194976806641
 22
-128.0
 13
0.0
 23
0.0
 14
0.0
 24
0.0
 15
0.0
 25
0.0
 16
0.0
 26
0.0
 36
1.0
 17
0.0
 27
0.0
 37
0.0
 40
234.0
 41
1.5
 42
50.0
 43
0.0
 44
0.0
 50
0.0
 51
0.0
 71
     0
 72
   100
 73
     1
 74
     1
 75
     0
 76
     0
 77
     0
 78
     0
281
     0
 65
     1
110
0.0
120
0.0
130
0.0
111
1.0
121
0.0
131
0.0
112
0.0
122
1.0
132
0.0
 79
     0
146
0.0
  0
ENDTAB
  0
TABLE
  2
LTYPE
  5
5
330
0
100
AcDbSymbolTable
 70
    20
  0
LTYPE
  5
C5
330
5
100
AcDbSymbolTableRecord
100
AcDbLinetypeTableRecord
  2
BYBLOCK
 70
     0
  3

 72
    65
 73
     0
 40
0.0
  0
LTYPE
  5
C6
330
5
100
AcDbSymbolTableRecord
100
AcDbLinetypeTableRecord
  2
BYLAYER
 70
     0
  3

 72
    65
 73
     0
 40
0.0
  0
LTYPE
  5
C7
330
5
100
AcDbSymbolTableRecord
100
AcDbLinetypeTableRecord
  2
CONTINUOUS
 70
    64
  3
solid line
 72
    65
 73
     0
 40
0.0
  0
LTYPE
  5
C8
330
0
100
AcDbSymbolTableRecord
100
AcDbLinetypeTableRecord
  2
DASHED
 70
    64
  3
-- -- -- -- -- -- -- -- -- -- 
 72
    65
 73
     2
 40
3.0
 49
2.0
 74
     0
 49
-1.0
 74
     0
  0
LTYPE
  5
C9
330
0
100
AcDbSymbolTableRecord
100
AcDbLinetypeTableRecord
  2
CENTER
 70
    64
  3
--- - --- - --- - --- - --- - 
 72
    65
 73
     4
 40
6.0
 49
3.0
 74
     0
 49
-1.0
 74
     0
 49
1.0
 74
     0
 49
-1.0
 74
     0
  0
ENDTAB
  0
TABLE
  2
LAYER
  5
2
330
0
100
AcDbSymbolTable
 70
    20
  0
LAYER
  5
CA
330
2
100
AcDbSymbolTableRecord
100
AcDbLayerTableRecord
  2
0
 70
    64
 62
     7
  6
CONTINUOUS
370
    -3
390
C0
  0
LAYER
  5
25
330
2
100
AcDbSymbolTableRecord
100
AcDbLayerTableRecord
  2
10
 70
    64
 62
     7
  6
CONTINUOUS
370
    -3
390
C0
  0
LAYER
  5
4F
330
2
100
AcDbSymbolTableRecord
100
AcDbLayerTableRecord
  2
100
 70
    64
 62
     7
  6
CONTINUOUS
370
    -3
390
C0
  0
ENDTAB
  0
TABLE
  2
STYLE
  5
3
330
0
100
AcDbSymbolTable
 70
     4
  0
STYLE
  5
CB
330
3
100
AcDbSymbolTableRecord
100
AcDbTextStyleTableRecord
  2
STANDARD
 70
    64
 40
0.0
 41
1.052631578947368
 50
0.0
 71
     0
 42
3.0
  3
monotxt
  4

  0
ENDTAB
  0
TABLE
  2
VIEW
  5
6
330
0
100
AcDbSymbolTable
 70
     0
  0
ENDTAB
  0
TABLE
  2
UCS
  5
7
330
0
100
AcDbSymbolTable
 70
     0
  0
ENDTAB
  0
TABLE
  2
APPID
  5
9
330
0
100
AcDbSymbolTable
 70
     1
  0
APPID
  5
CC
330
9
100
AcDbSymbolTableRecord
100
AcDbRegAppTableRecord
  2
ACAD
 70
     0
  0
ENDTAB
  0
TABLE
  2
DIMSTYLE
  5
A
330
0
100
AcDbSymbolTable
 70
     8
100
AcDbDimStyleTable
 71
     0
  0
DIMSTYLE
105
CD
330
A
100
AcDbSymbolTableRecord
100
AcDbDimStyleTableRecord
  2
ISO-25
 70
     0
  3

  4

  5

  6

  7

 40
1.0
 41
3.0
 42
1.0
 43
5.0
 44
2.0
 45
0.0
 46
5.0
 47
0.0
 48
0.0
140
3.0
141
2.0
142
0.0
143
25.4
144
1.0
145
1.0
146
1.0
147
0.5
 71
     0
 72
     0
 73
     0
 74
     0
 75
     0
 76
     0
 77
     1
 78
     8
170
     0
171
     0
172
     1
173
     0
174
     0
175
     0
176
     0
177
     0
178
     0
270
     0
271
     2
272
     2
273
     2
274
     3
340
CB
275
     0
277
     2
280
     0
281
     0
282
     0
283
     0
284
     8
285
     0
286
     0
287
     3
288
     0
  0
ENDTAB
  0
TABLE
  2
BLOCK_RECORD
  5
1
330
0
100
AcDbSymbolTable
 70
     2
  0
BLOCK_RECORD
  5
20
330
1
100
AcDbSymbolTableRecord
100
AcDbBlockTableRecord
  2
*MODEL_SPACE
340
C1
  0
BLOCK_RECORD
  5
22
330
1
100
AcDbSymbolTableRecord
100
AcDbBlockTableRecord
  2
*PAPER_SPACE
340
0
  0
ENDTAB
  0
ENDSEC
  0
SECTION
  2
BLOCKS
  0
BLOCK
  5
21
330
20
100
AcDbEntity
  8
0
100
AcDbBlockBegin
  2
*MODEL_SPACE
 70
     0
 10
0.0
 20
0.0
 30
0.0
  3
*MODEL_SPACE
  1

  0
ENDBLK
  5
C2
330
20
100
AcDbEntity
  8
0
100
AcDbBlockEnd
  0
BLOCK
  5
23
330
22
100
AcDbEntity
 67
     1
  8
0
100
AcDbBlockBegin
  2
*PAPER_SPACE
 70
     0
 10
0.0
 20
0.0
 30
0.0
  3
*PAPER_SPACE
  1

  0
ENDBLK
  5
C3
330
22
100
AcDbEntity
 67
     1
  8
0
100
AcDbBlockEnd
  0
ENDSEC
  0
SECTION
  2
ENTITIES
  0
LINE
  5
24
330
20
100
AcDbEntity
  8
10
  6
CONTINUOUS
100
AcDbLine
 10
477.0
 20
-223.85
 11
477.0
 21
-230.15
  0
LINE
  5
26
330
20
100
AcDbEntity
  8
10
  6
CONTINUOUS
100
AcDbLine
 10
475.7000000000001
 20
-230.0362647374163
 11
477.0
 21
-230.15
  0
LINE
  5
27
330
20
100
AcDbEntity
  8
10
  6
CONTINUOUS
100
AcDbLine
 10
475.7000000000001
 20
-223.9637352625837
 11
475.7000000000001
 21
-230.0362647374163
  0
LINE
  5
28
330
20
100
AcDbEntity
  8
10
  6
CONTINUOUS
100
AcDbLine
 10
475.7000000000001
 20
-223.9637352625837
 11
477.0
 21
-223.85
  0
ARC
  5
29
330
20
100
AcDbEntity
  8
10
  6
CONTINUOUS
100
AcDbCircle
 10
483.0824196297313
 20
-227.0
 40
7.98241962973139
100
AcDbArc
 50
157.6434605857296
 51
202.3565394142707
  0
CIRCLE
  5
2A
330
20
100
AcDbEntity
  8
10
  6
CONTINUOUS
100
AcDbCircle
 10
400.0
 20
-227.0
 40
3.15
  0
ARC
  5
2B
330
20
100
AcDbEntity
  8
10
  6
CONTINUOUS
100
AcDbCircle
 10
400.0
 20
-227.0
 40
1.75
100
AcDbArc
 50
351.7867892982616
 51
0.0
  0
ARC
  5
2C
330
20
100
AcDbEntity
  8
10
  6
CONTINUOUS
100
AcDbCircle
 10
400.0
 20
-227.0
 40
1.75
100
AcDbArc
 50
261.7867892982619
 51
278.2132107017381
  0
ARC
  5
2D
330
20
100
AcDbEntity
  8
10
  6
CONTINUOUS
100
AcDbCircle
 10
400.0
 20
-227.0
 40
1.75
100
AcDbArc
 50
171.7867892982617
 51
188.2132107017384
  0
ARC
  5
2E
330
20
100
AcDbEntity
  8
10
  6
CONTINUOUS
100
AcDbCircle
 10
400.0
 20
-227.0
 40
1.75
100
AcDbArc
 50
81.78678929826191
 51
98.21321070173811
  0
ARC
  5
2F
330
20
100
AcDbEntity
  8
10
  6
CONTINUOUS
100
AcDbCircle
 10
400.0
 20
-227.0
 40
1.75
100
AcDbArc
 50
0.0
 51
8.213210701738365
  0
LINE
  5
30
330
20
100
AcDbEntity
  8
10
  6
CONTINUOUS
100
AcDbLine
 10
398.2679491924312
 20
-227.25
 11
399.15
 21
-227.25
  0
LINE
  5
31
330
20
100
AcDbEntity
  8
10
  6
CONTINUOUS
100
AcDbLine
 10
400.85
 20
-227.25
 11
401.7320508075688
 21
-227.25
  0
LINE
  5
32
330
20
100
AcDbEntity
  8
10
  6
CONTINUOUS
100
AcDbLine
 10
398.2679491924312
 20
-226.75
 11
399.15
 21
-226.75
  0
LINE
  5
33
330
20
100
AcDbEntity
  8
10
  6
CONTINUOUS
100
AcDbLine
 10
400.85
 20
-226.75
 11
401.7320508075688
 21
-226.75
  0
LINE
  5
34
330
20
100
AcDbEntity
  8
10
  6
CONTINUOUS
100
AcDbLine
 10
400.25
 20
-225.2679491924311
 11
400.25
 21
-226.15
  0
LINE
  5
35
330
20
100
AcDbEntity
  8
10
  6
CONTINUOUS
100
AcDbLine
 10
400.25
 20
-227.85
 11
400.25
 21
-228.7320508075689
  0
LINE
  5
36
330
20
100
AcDbEntity
  8
10
  6
CONTINUOUS
100
AcDbLine
 10
399.75
 20
-225.2679491924311
 11
399.75
 21
-226.15
  0
LINE
  5
37
330
20
100
AcDbEntity
  8
10
  6
CONTINUOUS
100
AcDbLine
 10
399.75
 20
-227.85
 11
399.75
 21
-228.7320508075689
  0
ARC
  5
38
330
20
100
AcDbEntity
  8
10
  6
CONTINUOUS
100
AcDbCircle
 10
400.85
 20
-227.85
 40
0.6
100
AcDbArc
 50
90.0
 51
180.0
  0
ARC
  5
39
330
20
100
AcDbEntity
  8
10
  6
CONTINUOUS
100
AcDbCircle
 10
399.15
 20
-227.85
 40
0.6
100
AcDbArc
 50
0.0
 51
90.0
  0
ARC
  5
3A
330
20
100
AcDbEntity
  8
10
  6
CONTINUOUS
100
AcDbCircle
 10
399.15
 20
-226.15
 40
0.6
100
AcDbArc
 50
270.0
 51
0.0
  0
ARC
  5
3B
330
20
100
AcDbEntity
  8
10
  6
CONTINUOUS
100
AcDbCircle
 10
400.85
 20
-226.15
 40
0.6
100
AcDbArc
 50
180.0
 51
270.0
  0
CIRCLE
  5
3C
330
20
100
AcDbEntity
  8
10
  6
CONTINUOUS
100
AcDbCircle
 10
360.0
 20
-227.0
 40
3.15
  0
ARC
  5
3D
330
20
100
AcDbEntity
  8
10
  6
CONTINUOUS
100
AcDbCircle
 10
360.0
 20
-227.0
 40
1.75
100
AcDbArc
 50
351.7867892982616
 51
0.0
  0
ARC
  5
3E
330
20
100
AcDbEntity
  8
10
  6
CONTINUOUS
100
AcDbCircle
 10
360.0
 20
-227.0
 40
1.75
100
AcDbArc
 50
261.7867892982619
 51
278.2132107017381
  0
ARC
  5
3F
330
20
100
AcDbEntity
  8
10
  6
CONTINUOUS
100
AcDbCircle
 10
360.0
 20
-227.0
 40
1.75
100
AcDbArc
 50
171.7867892982617
 51
188.2132107017384
  0
ARC
  5
40
330
20
100
AcDbEntity
  8
10
  6
CONTINUOUS
100
AcDbCircle
 10
360.0
 20
-227.0
 40
1.75
100
AcDbArc
 50
81.78678929826191
 51
98.21321070173811
  0
ARC
  5
41
330
20
100
AcDbEntity
  8
10
  6
CONTINUOUS
100
AcDbCircle
 10
360.0
 20
-227.0
 40
1.75
100
AcDbArc
 50
0.0
 51
8.213210701738365
  0
LINE
  5
42
330
20
100
AcDbEntity
  8
10
  6
CONTINUOUS
100
AcDbLine
 10
358.2679491924312
 20
-227.25
 11
359.15
 21
-227.25
  0
LINE
  5
43
330
20
100
AcDbEntity
  8
10
  6
CONTINUOUS
100
AcDbLine
 10
360.85
 20
-227.25
 11
361.7320508075688
 21
-227.25
  0
LINE
  5
44
330
20
100
AcDbEntity
  8
10
  6
CONTINUOUS
100
AcDbLine
 10
358.2679491924312
 20
-226.75
 11
359.15
 21
-226.75
  0
LINE
  5
45
330
20
100
AcDbEntity
  8
10
  6
CONTINUOUS
100
AcDbLine
 10
360.85
 20
-226.75
 11
361.7320508075688
 21
-226.75
  0
LINE
  5
46
330
20
100
AcDbEntity
  8
10
  6
CONTINUOUS
100
AcDbLine
 10
360.25
 20
-225.2679491924311
 11
360.25
 21
-226.15
  0
LINE
  5
47
330
20
100
AcDbEntity
  8
10
  6
CONTINUOUS
100
AcDbLine
 10
360.25
 20
-227.85
 11
360.25
 21
-228.7320508075689
  0
LINE
  5
48
330
20
100
AcDbEntity
  8
10
  6
CONTINUOUS
100
AcDbLine
 10
359.75
 20
-225.2679491924311
 11
359.75
 21
-226.15
  0
LINE
  5
49
330
20
100
AcDbEntity
  8
10
  6
CONTINUOUS
100
AcDbLine
 10
359.75
 20
-227.85
 11
359.75
 21
-228.7320508075689
  0
ARC
  5
4A
330
20
100
AcDbEntity
  8
10
  6
CONTINUOUS
100
AcDbCircle
 10
360.85
 20
-227.85
 40
0.6
100
AcDbArc
 50
90.0
 51
180.0
  0
ARC
  5
4B
330
20
100
AcDbEntity
  8
10
  6
CONTINUOUS
100
AcDbCircle
 10
359.15
 20
-227.85
 40
0.6
100
AcDbArc
 50
0.0
 51
90.0
  0
ARC
  5
4C
330
20
100
AcDbEntity
  8
10
  6
CONTINUOUS
100
AcDbCircle
 10
359.15
 20
-226.15
 40
0.6
100
AcDbArc
 50
270.0
 51
0.0
  0
ARC
  5
4D
330
20
100
AcDbEntity
  8
10
  6
CONTINUOUS
100
AcDbCircle
 10
360.85
 20
-226.15
 40
0.6
100
AcDbArc
 50
180.0
 51
270.0
  0
ARC
  5
4E
330
20
100
AcDbEntity
  8
100
  6
CONTINUOUS
100
AcDbCircle
 10
389.0
 20
-149.5
 40
6.0
100
AcDbArc
 50
0.0
 51
123.5573097619205
  0
LINE
  5
50
330
20
100
AcDbEntity
  8
100
  6
CONTINUOUS
100
AcDbLine
 10
325.0
 20
-144.5
 11
385.6833752096446
 21
-144.5
  0
CIRCLE
  5
51
330
20
100
AcDbEntity
  8
100
  6
CONTINUOUS
100
AcDbCircle
 10
380.0
 20
-46.0
 40
12.0
  0
CIRCLE
  5
52
330
20
100
AcDbEntity
  8
100
  6
CONTINUOUS
100
AcDbCircle
 10
380.0
 20
-46.0
 40
10.0
  0
LINE
  5
53
330
20
100
AcDbEntity
  8
100
  6
CONTINUOUS
100
AcDbLine
 10
529.0
 20
-115.0
 11
529.0
 21
-235.0
  0
LINE
  5
54
330
20
100
AcDbEntity
  8
100
  6
CONTINUOUS
100
AcDbLine
 10
479.0
 20
-115.0
 11
479.0
 21
-235.0
  0
LINE
  5
55
330
20
100
AcDbEntity
  8
100
  6
CONTINUOUS
100
AcDbLine
 10
529.0
 20
-115.0
 11
479.0
 21
-115.0
  0
LINE
  5
56
330
20
100
AcDbEntity
  8
100
  6
CONTINUOUS
100
AcDbLine
 10
529.0
 20
-235.0
 11
479.0
 21
-235.0
  0
LINE
  5
57
330
20
100
AcDbEntity
  8
100
  6
CONTINUOUS
100
AcDbLine
 10
529.0
 20
-205.5
 11
479.0
 21
-205.5
  0
LINE
  5
58
330
20
100
AcDbEntity
  8
100
  6
CONTINUOUS
100
AcDbLine
 10
529.0
 20
-194.5
 11
479.0
 21
-194.5
  0
LINE
  5
59
330
20
100
AcDbEntity
  8
100
  6
CENTER
100
AcDbLine
 10
504.0
 20
-110.0
 11
504.0
 21
-240.0
  0
LINE
  5
5A
330
20
100
AcDbEntity
  8
100
  6
CONTINUOUS
100
AcDbLine
 10
325.0
 20
-21.0
 11
435.0
 21
-21.0
  0
LINE
  5
5B
330
20
100
AcDbEntity
  8
100
  6
CONTINUOUS
100
AcDbLine
 10
325.0
 20
-71.0
 11
435.0
 21
-71.0
  0
LINE
  5
5C
330
20
100
AcDbEntity
  8
100
  6
CONTINUOUS
100
AcDbLine
 10
435.0
 20
-71.0
 11
435.0
 21
-21.0
  0
LINE
  5
5D
330
20
100
AcDbEntity
  8
100
  6
CONTINUOUS
100
AcDbLine
 10
325.0
 20
-71.0
 11
325.0
 21
-21.0
  0
LINE
  5
5E
330
20
100
AcDbEntity
  8
100
  6
CENTER
100
AcDbLine
 10
320.0
 20
-46.0
 11
440.0
 21
-46.0
  0
LINE
  5
5F
330
20
100
AcDbEntity
  8
100
  6
CENTER
100
AcDbLine
 10
380.0
 20
-11.0
 11
380.0
 21
-81.0
  0
LINE
  5
60
330
20
100
AcDbEntity
  8
100
  6
DASHED
100
AcDbLine
 10
368.0
 20
-144.5
 11
368.0
 21
-115.0
  0
LINE
  5
61
330
20
100
AcDbEntity
  8
100
  6
DASHED
100
AcDbLine
 10
370.0
 20
-144.5
 11
370.0
 21
-115.0
  0
LINE
  5
62
330
20
100
AcDbEntity
  8
100
  6
DASHED
100
AcDbLine
 10
390.0
 20
-143.5839202169004
 11
390.0
 21
-115.0
  0
LINE
  5
63
330
20
100
AcDbEntity
  8
100
  6
DASHED
100
AcDbLine
 10
392.0
 20
-144.3038475772934
 11
392.0
 21
-115.0
  0
ARC
  5
64
330
20
100
AcDbEntity
  8
100
  6
CONTINUOUS
100
AcDbCircle
 10
380.0
 20
-175.0
 40
80.0
100
AcDbArc
 50
131.4096221092709
 51
133.4325365577898
  0
LINE
  5
65
330
20
100
AcDbEntity
  8
100
  6
CONTINUOUS
100
AcDbLine
 10
325.0
 20
-116.9052498068888
 11
325.0
 21
-144.5
  0
ARC
  5
66
330
20
100
AcDbEntity
  8
100
  6
CONTINUOUS
100
AcDbCircle
 10
380.0
 20
-175.0
 40
80.0
100
AcDbArc
 50
226.5674634422102
 51
228.5903778907291
  0
ARC
  5
67
330
20
100
AcDbEntity
  8
100
  6
CONTINUOUS
100
AcDbCircle
 10
380.0
 20
-175.0
 40
80.0
100
AcDbArc
 50
311.4096221092709
 51
313.4325365577898
  0
LINE
  5
68
330
20
100
AcDbEntity
  8
100
  6
CONTINUOUS
100
AcDbLine
 10
327.0849737787082
 20
-235.0
 11
432.9150262212918
 21
-235.0
  0
LINE
  5
69
330
20
100
AcDbEntity
  8
100
  6
CONTINUOUS
100
AcDbLine
 10
435.0
 20
-205.5
 11
435.0
 21
-233.0947501931113
  0
ARC
  5
6A
330
20
100
AcDbEntity
  8
100
  6
CONTINUOUS
100
AcDbCircle
 10
380.0
 20
-175.0
 40
80.0
100
AcDbArc
 50
46.56746344221023
 51
48.59037789072917
  0
LINE
  5
6B
330
20
100
AcDbEntity
  8
100
  6
CONTINUOUS
100
AcDbLine
 10
327.0849737787082
 20
-115.0
 11
432.9150262212918
 21
-115.0
  0
LINE
  5
6C
330
20
100
AcDbEntity
  8
100
  6
CONTINUOUS
100
AcDbLine
 10
325.0
 20
-193.0
 11
325.0
 21
-233.0947501931113
  0
LINE
  5
6D
330
20
100
AcDbEntity
  8
100
  6
CONTINUOUS
100
AcDbLine
 10
325.0
 20
-182.0
 11
325.0
 21
-193.0
  0
LINE
  5
6E
330
20
100
AcDbEntity
  8
100
  6
CONTINUOUS
100
AcDbLine
 10
435.0
 20
-116.9052498068888
 11
435.0
 21
-194.5
  0
LINE
  5
6F
330
20
100
AcDbEntity
  8
100
  6
CONTINUOUS
100
AcDbLine
 10
325.0
 20
-155.5
 11
325.0
 21
-168.0
  0
LINE
  5
70
330
20
100
AcDbEntity
  8
100
  6
CONTINUOUS
100
AcDbLine
 10
325.0
 20
-168.0
 11
325.0
 21
-182.0
  0
LINE
  5
71
330
20
100
AcDbEntity
  8
100
  6
CONTINUOUS
100
AcDbLine
 10
319.0
 20
-59.5
 11
319.0
 21
-50.5
  0
LINE
  5
72
330
20
100
AcDbEntity
  8
100
  6
CONTINUOUS
100
AcDbLine
 10
324.0
 20
-62.0
 11
324.0
 21
-48.0
  0
LINE
  5
73
330
20
100
AcDbEntity
  8
100
  6
CONTINUOUS
100
AcDbLine
 10
324.0
 20
-59.5
 11
319.0
 21
-59.5
  0
ARC
  5
74
330
20
100
AcDbEntity
  8
100
  6
CONTINUOUS
100
AcDbCircle
 10
293.9434375
 20
-53.425
 40
1.8965625
100
AcDbArc
 50
303.8550261282936
 51
56.14497387170624
  0
ARC
  5
75
330
20
100
AcDbEntity
  8
100
  6
CONTINUOUS
100
AcDbCircle
 10
296.0565625
 20
-53.425
 40
1.8965625
100
AcDbArc
 50
123.8550261282938
 51
236.1449738717064
  0
ARC
  5
76
330
20
100
AcDbEntity
  8
100
  6
CONTINUOUS
100
AcDbCircle
 10
296.0565625
 20
-56.575
 40
1.8965625
100
AcDbArc
 50
123.8550261282936
 51
236.1449738717062
  0
LINE
  5
77
330
20
100
AcDbEntity
  8
100
  6
CONTINUOUS
100
AcDbLine
 10
325.0
 20
-48.0
 11
324.0
 21
-48.0
  0
LINE
  5
78
330
20
100
AcDbEntity
  8
100
  6
CONTINUOUS
100
AcDbLine
 10
325.0
 20
-62.0
 11
324.0
 21
-62.0
  0
LINE
  5
79
330
20
100
AcDbEntity
  8
100
  6
CONTINUOUS
100
AcDbLine
 10
319.0
 20
-51.85
 11
295.0
 21
-51.85
  0
LINE
  5
7A
330
20
100
AcDbEntity
  8
100
  6
CONTINUOUS
100
AcDbLine
 10
319.0
 20
-58.15
 11
295.0
 21
-58.15
  0
LINE
  5
7B
330
20
100
AcDbEntity
  8
100
  6
CONTINUOUS
100
AcDbLine
 10
319.0
 20
-50.5
 11
324.0
 21
-50.5
  0
LINE
  5
7C
330
20
100
AcDbEntity
  8
100
  6
CENTER
100
AcDbLine
 10
329.4389953613281
 20
-55.0
 11
289.4389953613281
 21
-55.0
  0
LINE
  5
7D
330
20
100
AcDbEntity
  8
100
  6
CONTINUOUS
100
AcDbLine
 10
351.0
 20
-152.5
 11
351.0
 21
-234.0
  0
LINE
  5
7E
330
20
100
AcDbEntity
  8
100
  6
CONTINUOUS
100
AcDbLine
 10
409.0
 20
-152.5
 11
409.0
 21
-234.0
  0
LINE
  5
7F
330
20
100
AcDbEntity
  8
100
  6
CONTINUOUS
100
AcDbLine
 10
409.0
 20
-234.0
 11
351.0
 21
-234.0
  0
LINE
  5
80
330
20
100
AcDbEntity
  8
100
  6
CONTINUOUS
100
AcDbLine
 10
409.0
 20
-152.5
 11
351.0
 21
-152.5
  0
LINE
  5
81
330
20
100
AcDbEntity
  8
100
  6
CONTINUOUS
100
AcDbLine
 10
409.0
 20
-197.0
 11
351.0
 21
-197.0
  0
LINE
  5
82
330
20
100
AcDbEntity
  8
100
  6
CONTINUOUS
100
AcDbLine
 10
479.0
 20
-200.4142135623731
 11
479.0
 21
-234.0
  0
LINE
  5
83
330
20
100
AcDbEntity
  8
100
  6
CONTINUOUS
100
AcDbLine
 10
479.0
 20
-234.0
 11
477.0
 21
-234.0
  0
LINE
  5
84
330
20
100
AcDbEntity
  8
100
  6
CONTINUOUS
100
AcDbLine
 10
474.0
 20
-152.5
 11
474.0
 21
-197.0000000000001
  0
LINE
  5
85
330
20
100
AcDbEntity
  8
100
  6
CONTINUOUS
100
AcDbLine
 10
477.0
 20
-200.0
 11
474.0
 21
-197.0000000000001
  0
LINE
  5
86
330
20
100
AcDbEntity
  8
100
  6
CONTINUOUS
100
AcDbLine
 10
529.0
 20
-234.0
 11
531.0
 21
-234.0
  0
LINE
  5
87
330
20
100
AcDbEntity
  8
100
  6
CONTINUOUS
100
AcDbLine
 10
531.0
 20
-200.0
 11
534.0
 21
-197.0000000000001
  0
LINE
  5
88
330
20
100
AcDbEntity
  8
100
  6
CONTINUOUS
100
AcDbLine
 10
534.0
 20
-152.5
 11
534.0
 21
-197.0000000000001
  0
LINE
  5
89
330
20
100
AcDbEntity
  8
100
  6
CONTINUOUS
100
AcDbLine
 10
529.0
 20
-200.4142135623731
 11
529.0
 21
-234.0
  0
LINE
  5
8A
330
20
100
AcDbEntity
  8
100
  6
CONTINUOUS
100
AcDbLine
 10
409.0
 20
-201.0
 11
351.0
 21
-201.0
  0
LINE
  5
8B
330
20
100
AcDbEntity
  8
100
  6
CONTINUOUS
100
AcDbLine
 10
389.0
 20
-19.5
 11
409.0
 21
-19.5
  0
LINE
  5
8C
330
20
100
AcDbEntity
  8
100
  6
CONTINUOUS
100
AcDbLine
 10
389.0
 20
-72.5
 11
409.0
 21
-72.5
  0
LINE
  5
8D
330
20
100
AcDbEntity
  8
100
  6
CONTINUOUS
100
AcDbLine
 10
351.0
 20
-16.0
 11
409.0
 21
-16.0
  0
LINE
  5
8E
330
20
100
AcDbEntity
  8
100
  6
CONTINUOUS
100
AcDbLine
 10
351.0
 20
-76.0
 11
409.0
 21
-76.0
  0
LINE
  5
8F
330
20
100
AcDbEntity
  8
100
  6
CONTINUOUS
100
AcDbLine
 10
409.0
 20
-76.0
 11
409.0
 21
-71.0
  0
LINE
  5
90
330
20
100
AcDbEntity
  8
100
  6
CONTINUOUS
100
AcDbLine
 10
409.0
 20
-21.0
 11
409.0
 21
-16.0
  0
LINE
  5
91
330
20
100
AcDbEntity
  8
100
  6
DASHED
100
AcDbLine
 10
351.0
 20
-21.0
 11
389.0
 21
-21.0
  0
LINE
  5
92
330
20
100
AcDbEntity
  8
100
  6
CONTINUOUS
100
AcDbLine
 10
389.0
 20
-21.0
 11
409.0
 21
-21.0
  0
LINE
  5
93
330
20
100
AcDbEntity
  8
100
  6
DASHED
100
AcDbLine
 10
351.0
 20
-71.0
 11
389.0
 21
-71.0
  0
LINE
  5
94
330
20
100
AcDbEntity
  8
100
  6
CONTINUOUS
100
AcDbLine
 10
389.0
 20
-71.0
 11
409.0
 21
-71.0
  0
LINE
  5
95
330
20
100
AcDbEntity
  8
100
  6
CONTINUOUS
100
AcDbLine
 10
531.0
 20
-200.0
 11
531.0
 21
-234.0
  0
LINE
  5
96
330
20
100
AcDbEntity
  8
100
  6
CONTINUOUS
100
AcDbLine
 10
477.0
 20
-200.0
 11
477.0
 21
-234.0
  0
LINE
  5
97
330
20
100
AcDbEntity
  8
100
  6
CONTINUOUS
100
AcDbLine
 10
532.0
 20
-154.5
 11
532.0
 21
-196.1715728752538
  0
LINE
  5
98
330
20
100
AcDbEntity
  8
100
  6
CONTINUOUS
100
AcDbLine
 10
476.0
 20
-154.5
 11
476.0
 21
-196.1715728752538
  0
LINE
  5
99
330
20
100
AcDbEntity
  8
100
  6
CONTINUOUS
100
AcDbLine
 10
479.0
 20
-199.1715728752538
 11
476.0
 21
-196.1715728752538
  0
LINE
  5
9A
330
20
100
AcDbEntity
  8
100
  6
CONTINUOUS
100
AcDbLine
 10
529.0
 20
-199.1715728752538
 11
532.0
 21
-196.1715728752538
  0
LINE
  5
9B
330
20
100
AcDbEntity
  8
100
  6
CONTINUOUS
100
AcDbLine
 10
325.0
 20
-155.5
 11
351.0
 21
-155.5
  0
ARC
  5
9C
330
20
100
AcDbEntity
  8
100
  6
CONTINUOUS
100
AcDbCircle
 10
389.0
 20
-149.5
 40
6.0
100
AcDbArc
 50
330.0
 51
0.0
  0
LINE
  5
9D
330
20
100
AcDbEntity
  8
100
  6
CONTINUOUS
100
AcDbLine
 10
409.0
 20
-194.5
 11
435.0
 21
-194.5
  0
LINE
  5
9E
330
20
100
AcDbEntity
  8
100
  6
CONTINUOUS
100
AcDbLine
 10
409.0
 20
-205.5
 11
435.0
 21
-205.5
  0
LINE
  5
9F
330
20
100
AcDbEntity
  8
100
  6
CONTINUOUS
100
AcDbLine
 10
534.0
 20
-152.5
 11
529.0
 21
-152.5
  0
LINE
  5
A0
330
20
100
AcDbEntity
  8
100
  6
CONTINUOUS
100
AcDbLine
 10
532.0
 20
-154.5
 11
529.0
 21
-154.5
  0
LINE
  5
A1
330
20
100
AcDbEntity
  8
100
  6
CONTINUOUS
100
AcDbLine
 10
479.0
 20
-152.5
 11
474.0
 21
-152.5
  0
LINE
  5
A2
330
20
100
AcDbEntity
  8
100
  6
CONTINUOUS
100
AcDbLine
 10
479.0
 20
-154.5
 11
476.0
 21
-154.5
  0
LINE
  5
A3
330
20
100
AcDbEntity
  8
100
  6
CONTINUOUS
100
AcDbLine
 10
351.0
 20
-76.0
 11
351.0
 21
-71.0
  0
LINE
  5
A4
330
20
100
AcDbEntity
  8
100
  6
CONTINUOUS
100
AcDbLine
 10
389.0
 20
-72.5
 11
389.0
 21
-71.0
  0
LINE
  5
A5
330
20
100
AcDbEntity
  8
100
  6
CONTINUOUS
100
AcDbLine
 10
389.0
 20
-21.0
 11
389.0
 21
-19.5
  0
LINE
  5
A6
330
20
100
AcDbEntity
  8
100
  6
CONTINUOUS
100
AcDbLine
 10
351.0
 20
-21.0
 11
351.0
 21
-16.0
  0
LINE
  5
A7
330
20
100
AcDbEntity
  8
100
  6
CENTER
100
AcDbLine
 10
380.0
 20
-245.0
 11
380.0
 21
-110.0
  0
LINE
  5
A8
330
20
100
AcDbEntity
  8
100
  6
CONTINUOUS
100
AcDbLine
 10
530.5
 20
-152.5
 11
530.5
 21
-154.5
  0
LINE
  5
A9
330
20
100
AcDbEntity
  8
100
  6
CONTINUOUS
100
AcDbLine
 10
477.5
 20
-152.5
 11
477.5
 21
-154.5
  0
LINE
  5
AA
330
20
100
AcDbEntity
  8
10
  6
CONTINUOUS
100
AcDbLine
 10
531.0
 20
-223.85
 11
531.0
 21
-230.15
  0
LINE
  5
AB
330
20
100
AcDbEntity
  8
10
  6
CONTINUOUS
100
AcDbLine
 10
532.3
 20
-230.0362647374163
 11
531.0
 21
-230.15
  0
LINE
  5
AC
330
20
100
AcDbEntity
  8
10
  6
CONTINUOUS
100
AcDbLine
 10
532.3
 20
-223.9637352625837
 11
532.3
 21
-230.0362647374163
  0
LINE
  5
AD
330
20
100
AcDbEntity
  8
10
  6
CONTINUOUS
100
AcDbLine
 10
532.3
 20
-223.9637352625837
 11
531.0
 21
-223.85
  0
ARC
  5
AE
330
20
100
AcDbEntity
  8
10
  6
CONTINUOUS
100
AcDbCircle
 10
524.9175803702688
 20
-227.0
 40
7.98241962973139
100
AcDbArc
 50
337.6434605857293
 51
22.35653941427037
  0
LINE
  5
AF
330
20
100
AcDbEntity
  8
100
  6
CONTINUOUS
100
AcDbLine
 10
319.0
 20
-179.5
 11
319.0
 21
-170.5
  0
LINE
  5
B0
330
20
100
AcDbEntity
  8
100
  6
CONTINUOUS
100
AcDbLine
 10
324.0
 20
-182.0
 11
324.0
 21
-168.0
  0
LINE
  5
B1
330
20
100
AcDbEntity
  8
100
  6
CONTINUOUS
100
AcDbLine
 10
324.0
 20
-179.5
 11
319.0
 21
-179.5
  0
ARC
  5
B2
330
20
100
AcDbEntity
  8
100
  6
CONTINUOUS
100
AcDbCircle
 10
293.9434375
 20
-173.425
 40
1.8965625
100
AcDbArc
 50
303.8550261282939
 51
56.1449738717066
  0
ARC
  5
B3
330
20
100
AcDbEntity
  8
100
  6
CONTINUOUS
100
AcDbCircle
 10
296.0565625
 20
-173.425
 40
1.8965625
100
AcDbArc
 50
123.8550261282934
 51
236.1449738717061
  0
ARC
  5
B4
330
20
100
AcDbEntity
  8
100
  6
CONTINUOUS
100
AcDbCircle
 10
296.0565625
 20
-176.575
 40
1.8965625
100
AcDbArc
 50
123.8550261282939
 51
236.1449738717066
  0
LINE
  5
B5
330
20
100
AcDbEntity
  8
100
  6
CONTINUOUS
100
AcDbLine
 10
325.0
 20
-168.0
 11
324.0
 21
-168.0
  0
LINE
  5
B6
330
20
100
AcDbEntity
  8
100
  6
CONTINUOUS
100
AcDbLine
 10
325.0
 20
-182.0
 11
324.0
 21
-182.0
  0
LINE
  5
B7
330
20
100
AcDbEntity
  8
100
  6
CONTINUOUS
100
AcDbLine
 10
319.0
 20
-171.85
 11
295.0
 21
-171.85
  0
LINE
  5
B8
330
20
100
AcDbEntity
  8
100
  6
CONTINUOUS
100
AcDbLine
 10
319.0
 20
-178.15
 11
295.0
 21
-178.15
  0
LINE
  5
B9
330
20
100
AcDbEntity
  8
100
  6
CONTINUOUS
100
AcDbLine
 10
319.0
 20
-170.5
 11
324.0
 21
-170.5
  0
LINE
  5
BA
330
20
100
AcDbEntity
  8
100
  6
CENTER
100
AcDbLine
 10
329.4389953613281
 20
-175.0
 11
289.4389953613281
 21
-175.0
  0
ENDSEC
  0
SECTION
  2
OBJECTS
  0
DICTIONARY
  5
C
100
AcDbDictionary
281
     1
  3
ACAD_GROUP
350
D
  3
ACAD_MLINESTYLE
350
E
  3
ACDBVARIABLEDICTIONARY
350
BB
  3
ACAD_PLOTSTYLENAME
350
BC
  3
ACAD_LAYOUT
350
BD
  3
ACAD_PLOTSETTINGS
350
BE
  0
DICTIONARY
  5
D
102
{ACAD_REACTORS
330
C
102
}
330
C
100
AcDbDictionary
281
     1
  0
DICTIONARY
  5
E
102
{ACAD_REACTORS
330
C
102
}
330
C
100
AcDbDictionary
281
     1
  3
STANDARD
350
13
  0
DICTIONARY
  5
BB
102
{ACAD_REACTORS
330
C
102
}
330
C
100
AcDbDictionary
281
     1
  3
SORTENTS
350
BF
  0
ACDBDICTIONARYWDFLT
  5
BC
102
{ACAD_REACTORS
330
C
102
}
330
C
100
AcDbDictionary
281
     1
  3
Normal
350
C0
100
AcDbDictionaryWithDefault
340
C0
  0
DICTIONARY
  5
BD
102
{ACAD_REACTORS
330
C
102
}
330
C
100
AcDbDictionary
281
     1
  3
Model
350
C1
  0
DICTIONARY
  5
BE
102
{ACAD_REACTORS
330
C
102
}
330
C
100
AcDbDictionary
281
     1
  0
MLINESTYLE
  5
13
102
{ACAD_REACTORS
330
E
102
}
330
E
100
AcDbMlineStyle
  2
STANDARD
 70
     0
  3

 62
   256
 51
90.0
 52
90.0
 71
     2
 49
0.5
 62
   256
  6
BYLAYER
 49
-0.5
 62
   256
  6
BYLAYER
  0
DICTIONARYVAR
  5
BF
102
{ACAD_REACTORS
330
BB
102
}
330
BB
100
DictionaryVariables
280
     0
  1
96
  0
ACDBPLACEHOLDER
  5
C0
102
{ACAD_REACTORS
330
BC
102
}
330
BC
  0
LAYOUT
  5
C1
102
{ACAD_REACTORS
330
BD
102
}
330
BD
100
AcDbPlotSettings
  1

  2

  4

  6

 40
0.0
 41
0.0
 42
0.0
 43
0.0
 44
0.0
 45
0.0
 46
0.0
 47
0.0
 48
0.0
 49
0.0
140
0.0
141
0.0
142
1.0
143
1.0
 70
  1712
 72
     0
 73
     0
 74
     0
  7

 75
     0
147
1.0
148
0.0
149
0.0
100
AcDbLayout
  1
Model
 70
     1
 71
     0
 10
0.0
 20
0.0
 11
297.0
 21
210.0
 12
0.0
 22
0.0
 32
0.0
 14
0.0
 24
0.0
 34
0.0
 15
0.0
 25
0.0
 35
0.0
146
0.0
 13
0.0
 23
0.0
 33
0.0
 16
1.0
 26
0.0
 36
0.0
 17
0.0
 27
1.0
 37
0.0
 76
     0
330
20
  0
ENDSEC
  0
EOF
