  0
SECTION
  2
HEADER
  9
$ACADVER
  1
AC1015
  9
$ACADMAINTVER
 70
     0
  9
$DWGCODEPAGE
  3
ANSI_932
  9
$INSBASE
 10
0.0
 20
0.0
 30
0.0
  9
$EXTMIN
 10
-116.0
 20
-45.0
  9
$EXTMAX
 10
121.0
 20
116.0
  9
$LIMMIN
 10
-116.0
 20
-45.0
  9
$LIMMAX
 10
121.0
 20
116.0
  9
$ORTHOMODE
 70
     0
  9
$REGENMODE
 70
     1
  9
$FILLMODE
 70
     1
  9
$QTEXTMODE
 70
     0
  9
$MIRRTEXT
 70
     1
  9
$LTSCALE
 40
1.0
  9
$OSMODE
 70
     0
  9
$ATTMODE
 70
     1
  9
$TEXTSIZE
 40
3.0
  9
$TRACEWID
 40
0.5
  9
$TEXTSTYLE
  7
STANDARD
  9
$CLAYER
  8
0
  9
$CELTYPE
  6
BYLAYER
  9
$CECOLOR
 62
   256
  9
$CELTSCALE
 40
1.0
  9
$DISPSILH
 70
     0
  9
$DIMSCALE
 40
1.0
  9
$DIMASZ
 40
3.0
  9
$DIMEXO
 40
1.0
  9
$DIMDLI
 40
5.0
  9
$DIMRND
 40
0.0
  9
$DIMDLE
 40
5.0
  9
$DIMEXE
 40
2.0
  9
$DIMTP
 40
0.0
  9
$DIMTM
 40
0.0
  9
$DIMTXT
 40
3.0
  9
$DIMCEN
 40
2.0
  9
$DIMTSZ
 40
0.0
  9
$DIMTOL
 70
     0
  9
$DIMLIM
 70
     0
  9
$DIMTIH
 70
     0
  9
$DIMTOH
 70
     0
  9
$DIMSE1
 70
     0
  9
$DIMSE2
 70
     0
  9
$DIMTAD
 70
     1
  9
$DIMZIN
 70
     8
  9
$DIMBLK
  1

  9
$DIMASO
 70
     1
  9
$DIMSHO
 70
     1
  9
$DIMPOST
  1

  9
$DIMAPOST
  1

  9
$DIMALT
 70
     0
  9
$DIMALTD
 70
     4
  9
$DIMALTF
 40
25.4
  9
$DIMLFAC
 40
1.0
  9
$DIMTOFL
 70
     1
  9
$DIMTVP
 40
1.0
  9
$DIMTIX
 70
     0
  9
$DIMSOXD
 70
     0
  9
$DIMSAH
 70
     0
  9
$DIMBLK1
  1

  9
$DIMBLK2
  1

  9
$DIMSTYLE
  2
ISO-25
  9
$DIMCLRD
 70
     0
  9
$DIMCLRE
 70
     0
  9
$DIMCLRT
 70
     0
  9
$DIMTFAC
 40
1.0
  9
$DIMGAP
 40
0.5
  9
$DIMJUST
 70
     0
  9
$DIMSD1
 70
     0
  9
$DIMSD2
 70
     0
  9
$DIMTOLJ
 70
     1
  9
$DIMTZIN
 70
     1
  9
$DIMALTZ
 70
     0
  9
$DIMALTTZ
 70
     0
  9
$DIMUPT
 70
     0
  9
$DIMDEC
 70
     3
  9
$DIMTDEC
 70
     3
  9
$DIMALTU
 70
     8
  9
$DIMALTTD
 70
     4
  9
$DIMTXSTY
  7
STANDARD
  9
$DIMAUNIT
 70
     0
  9
$DIMADEC
 70
     0
  9
$DIMALTRND
 40
0.0
  9
$DIMAZIN
 70
     0
  9
$DIMDSEP
 70
    46
  9
$DIMATFIT
 70
     3
  9
$DIMFRAC
 70
     0
  9
$DIMLDRBLK
  1

  9
$DIMLUNIT
 70
     2
  9
$DIMLWD
 70
    -2
  9
$DIMLWE
 70
    -2
  9
$DIMTMOVE
 70
     0
  9
$LUNITS
 70
     2
  9
$LUPREC
 70
     4
  9
$SKETCHINC
 40
1.0
  9
$FILLETRAD
 40
0.0
  9
$AUNITS
 70
     0
  9
$AUPREC
 70
     0
  9
$MENU
  1
.
  9
$ELEVATION
 40
0.0
  9
$PELEVATION
 40
0.0
  9
$THICKNESS
 40
0.0
  9
$LIMCHECK
 70
     0
  9
$CHAMFERA
 40
0.0
  9
$CHAMFERB
 40
0.0
  9
$CHAMFERC
 40
0.0
  9
$CHAMFERD
 40
0.0
  9
$SKPOLY
 70
     0
  9
$TDCREATE
 40
2455310.64962963
  9
$TDUCREATE
 40
2455310.64962963
  9
$TDUPDATE
 40
2455310.64962963
  9
$TDUUPDATE
 40
2455310.64962963
  9
$TDINDWG
 40
0.0
  9
$TDUSRTIMER
 40
0.0
  9
$USRTIMER
 70
     1
  9
$ANGBASE
 50
0.0
  9
$ANGDIR
 70
     0
  9
$PDMODE
 70
     0
  9
$PDSIZE
 40
0.0
  9
$PLINEWID
 40
0.0
  9
$SPLFRAME
 70
     0
  9
$SPLINETYPE
 70
     6
  9
$SPLINESEGS
 70
     8
  9
$HANDSEED
  5
86
  9
$SURFTAB1
 70
     6
  9
$SURFTAB2
 70
     6
  9
$SURFTYPE
 70
     6
  9
$SURFU
 70
     6
  9
$SURFV
 70
     6
  9
$UCSBASE
  2

  9
$UCSNAME
  2

  9
$UCSORG
 10
0.0
 20
0.0
 30
0.0
  9
$UCSXDIR
 10
1.0
 20
0.0
 30
0.0
  9
$UCSYDIR
 10
0.0
 20
1.0
 30
0.0
  9
$UCSORTHOREF
  2

  9
$UCSORTHOVIEW
 70
     0
  9
$UCSORGTOP
 10
0.0
 20
0.0
 30
0.0
  9
$UCSORGBOTTOM
 10
0.0
 20
0.0
 30
0.0
  9
$UCSORGLEFT
 10
0.0
 20
0.0
 30
0.0
  9
$UCSORGRIGHT
 10
0.0
 20
0.0
 30
0.0
  9
$UCSORGFRONT
 10
0.0
 20
0.0
 30
0.0
  9
$UCSORGBACK
 10
0.0
 20
0.0
 30
0.0
  9
$PUCSBASE
  2

  9
$PUCSNAME
  2

  9
$PUCSORG
 10
0.0
 20
0.0
 30
0.0
  9
$PUCSXDIR
 10
1.0
 20
0.0
 30
0.0
  9
$PUCSYDIR
 10
0.0
 20
1.0
 30
0.0
  9
$PUCSORTHOREF
  2

  9
$PUCSORTHOVIEW
 70
     0
  9
$PUCSORGTOP
 10
0.0
 20
0.0
 30
0.0
  9
$PUCSORGBOTTOM
 10
0.0
 20
0.0
 30
0.0
  9
$PUCSORGLEFT
 10
0.0
 20
0.0
 30
0.0
  9
$PUCSORGRIGHT
 10
0.0
 20
0.0
 30
0.0
  9
$PUCSORGFRONT
 10
0.0
 20
0.0
 30
0.0
  9
$PUCSORGBACK
 10
0.0
 20
0.0
 30
0.0
  9
$USERI1
 70
     0
  9
$USERI2
 70
     0
  9
$USERI3
 70
     0
  9
$USERI4
 70
     0
  9
$USERI5
 70
     0
  9
$USERR1
 40
0.0
  9
$USERR2
 40
0.0
  9
$USERR3
 40
0.0
  9
$USERR4
 40
0.0
  9
$USERR5
 40
0.0
  9
$WORLDVIEW
 70
     1
  9
$SHADEDGE
 70
     3
  9
$SHADEDIF
 70
    70
  9
$MAXACTVP
 70
    16
  9
$PINSBASE
 10
0.0
 20
0.0
 30
0.0
  9
$PLIMCHECK
 70
     0
  9
$PEXTMIN
 10
1.000000000000000E+020
 20
1.000000000000000E+020
 30
1.000000000000000E+020
  9
$PEXTMAX
 10
-1.000000000000000E+020
 20
-1.000000000000000E+020
 30
-1.000000000000000E+020
  9
$PLIMMIN
 10
-116.0
 20
-45.0
  9
$PLIMMAX
 10
121.0
 20
116.0
  9
$UNITMODE
 70
     0
  9
$VISRETAIN
 70
     0
  9
$PLINEGEN
 70
     0
  9
$PSLTSCALE
 70
     0
  9
$TREEDEPTH
 70
  3020
  9
$CMLSTYLE
  2
STANDARD
  9
$CMLJUST
 70
     0
  9
$CMLSCALE
 40
1.0
  9
$PROXYGRAPHICS
 70
     1
  9
$MEASUREMENT
 70
     0
  9
$CELWEIGHT
370
    -3
  9
$ENDCAPS
280
     0
  9
$JOINSTYLE
280
     0
  9
$LWDISPLAY
290
     1
  9
$INSUNITS
 70
     0
  9
$HYPERLINKBASE
  1

  9
$STYLESHEET
  1

  9
$XEDIT
290
     1
  9
$CEPSNTYPE
380
     0
  9
$PSTYLEMODE
290
     1
  9
$FINGERPRINTGUID
  2
{6F25CFC2-5053-11D3-9BE9-00805F4AB38E}
  9
$VERSIONGUID
  2
{6F25CFC5-5053-11D3-9BE9-00805F4AB38E}
  9
$EXTNAMES
290
     1
  9
$PSVPSCALE
 40
0.0
  9
$OLESTARTUP
290
     0
  0
ENDSEC
  0
SECTION
  2
CLASSES
  0
CLASS
  1
LWPOLYLINE
  2
AcDbPolyline
  3
AutoCAD 2000
 90
    32768
280
     0
281
     1
  0
CLASS
  1
DICTIONARYVAR
  2
AcDbDictionaryVar
  3
AutoCAD 2000
 90
        0
280
     0
281
     1
  0
CLASS
  1
ACDBDICTIONARYWDFLT
  2
AcDbDictionaryWithDefault
  3
AutoCAD 2000
 90
        0
280
     0
281
     1
  0
CLASS
  1
ACDBPLACEHOLDER
  2
AcDbPlaceHolder
  3
AutoCAD 2000
 90
        0
280
     0
281
     1
  0
CLASS
  1
LAYOUT
  2
AcDbLayout
  3
AutoCAD 2000
 90
        0
280
     0
281
     1
  0
CLASS
  1
HATCH
  2
AcDbHatch
  3
AutoCAD 2000
 90
        0
280
     0
281
     1
  0
ENDSEC
  0
SECTION
  2
TABLES
  0
TABLE
  2
VPORT
  5
8
100
AcDbSymbolTable
 70
     1
  0
VPORT
  5
7C
330
0
100
AcDbSymbolTableRecord
100
AcDbViewportTableRecord
  2
*ACTIVE
 70
     0
 10
0.0
 20
0.0
 11
1.0
 21
1.0
 12
2.5
 22
35.5
 13
0.0
 23
0.0
 14
0.0
 24
0.0
 15
0.0
 25
0.0
 16
0.0
 26
0.0
 36
1.0
 17
0.0
 27
0.0
 37
0.0
 40
161.0
 41
1.5
 42
50.0
 43
0.0
 44
0.0
 50
0.0
 51
0.0
 71
     0
 72
   100
 73
     1
 74
     1
 75
     0
 76
     0
 77
     0
 78
     0
281
     0
 65
     1
110
0.0
120
0.0
130
0.0
111
1.0
121
0.0
131
0.0
112
0.0
122
1.0
132
0.0
 79
     0
146
0.0
  0
ENDTAB
  0
TABLE
  2
LTYPE
  5
5
330
0
100
AcDbSymbolTable
 70
    20
  0
LTYPE
  5
7D
330
5
100
AcDbSymbolTableRecord
100
AcDbLinetypeTableRecord
  2
BYBLOCK
 70
     0
  3

 72
    65
 73
     0
 40
0.0
  0
LTYPE
  5
7E
330
5
100
AcDbSymbolTableRecord
100
AcDbLinetypeTableRecord
  2
BYLAYER
 70
     0
  3

 72
    65
 73
     0
 40
0.0
  0
LTYPE
  5
7F
330
5
100
AcDbSymbolTableRecord
100
AcDbLinetypeTableRecord
  2
CONTINUOUS
 70
    64
  3
solid line
 72
    65
 73
     0
 40
0.0
  0
LTYPE
  5
80
330
0
100
AcDbSymbolTableRecord
100
AcDbLinetypeTableRecord
  2
DASHED
 70
    64
  3
-- -- -- -- -- -- -- -- -- -- 
 72
    65
 73
     2
 40
3.0
 49
2.0
 74
     0
 49
-1.0
 74
     0
  0
LTYPE
  5
81
330
0
100
AcDbSymbolTableRecord
100
AcDbLinetypeTableRecord
  2
CENTER
 70
    64
  3
--- - --- - --- - --- - --- - 
 72
    65
 73
     4
 40
6.0
 49
3.0
 74
     0
 49
-1.0
 74
     0
 49
1.0
 74
     0
 49
-1.0
 74
     0
  0
ENDTAB
  0
TABLE
  2
LAYER
  5
2
330
0
100
AcDbSymbolTable
 70
    20
  0
LAYER
  5
82
330
2
100
AcDbSymbolTableRecord
100
AcDbLayerTableRecord
  2
0
 70
    64
 62
     7
  6
CONTINUOUS
370
    -3
390
78
  0
ENDTAB
  0
TABLE
  2
STYLE
  5
3
330
0
100
AcDbSymbolTable
 70
     4
  0
STYLE
  5
83
330
3
100
AcDbSymbolTableRecord
100
AcDbTextStyleTableRecord
  2
STANDARD
 70
    64
 40
0.0
 41
1.052631578947368
 50
0.0
 71
     0
 42
3.0
  3
monotxt
  4

  0
ENDTAB
  0
TABLE
  2
VIEW
  5
6
330
0
100
AcDbSymbolTable
 70
     0
  0
ENDTAB
  0
TABLE
  2
UCS
  5
7
330
0
100
AcDbSymbolTable
 70
     0
  0
ENDTAB
  0
TABLE
  2
APPID
  5
9
330
0
100
AcDbSymbolTable
 70
     1
  0
APPID
  5
84
330
9
100
AcDbSymbolTableRecord
100
AcDbRegAppTableRecord
  2
ACAD
 70
     0
  0
ENDTAB
  0
TABLE
  2
DIMSTYLE
  5
A
330
0
100
AcDbSymbolTable
 70
     8
100
AcDbDimStyleTable
 71
     0
  0
DIMSTYLE
105
85
330
A
100
AcDbSymbolTableRecord
100
AcDbDimStyleTableRecord
  2
ISO-25
 70
     0
  3

  4

  5

  6

  7

 40
1.0
 41
3.0
 42
1.0
 43
5.0
 44
2.0
 45
0.0
 46
5.0
 47
0.0
 48
0.0
140
3.0
141
2.0
142
0.0
143
25.4
144
1.0
145
1.0
146
1.0
147
0.5
 71
     0
 72
     0
 73
     0
 74
     0
 75
     0
 76
     0
 77
     1
 78
     8
170
     0
171
     0
172
     1
173
     0
174
     0
175
     0
176
     0
177
     0
178
     0
270
     2
271
     3
272
     3
273
     8
274
     4
340
83
275
     0
280
     0
281
     0
282
     0
283
     1
284
     1
285
     0
286
     0
287
     3
288
     0
  0
ENDTAB
  0
TABLE
  2
BLOCK_RECORD
  5
1
330
0
100
AcDbSymbolTable
 70
     2
  0
BLOCK_RECORD
  5
20
330
1
100
AcDbSymbolTableRecord
100
AcDbBlockTableRecord
  2
*MODEL_SPACE
340
79
  0
BLOCK_RECORD
  5
22
330
1
100
AcDbSymbolTableRecord
100
AcDbBlockTableRecord
  2
*PAPER_SPACE
340
0
  0
ENDTAB
  0
ENDSEC
  0
SECTION
  2
BLOCKS
  0
BLOCK
  5
21
330
20
100
AcDbEntity
  8
0
100
AcDbBlockBegin
  2
*MODEL_SPACE
 70
     0
 10
0.0
 20
0.0
 30
0.0
  3
*MODEL_SPACE
  1

  0
ENDBLK
  5
7A
330
20
100
AcDbEntity
  8
0
100
AcDbBlockEnd
  0
BLOCK
  5
23
330
22
100
AcDbEntity
 67
     1
  8
0
100
AcDbBlockBegin
  2
*PAPER_SPACE
 70
     0
 10
0.0
 20
0.0
 30
0.0
  3
*PAPER_SPACE
  1

  0
ENDBLK
  5
7B
330
22
100
AcDbEntity
 67
     1
  8
0
100
AcDbBlockEnd
  0
ENDSEC
  0
SECTION
  2
ENTITIES
  0
LINE
  5
24
330
20
100
AcDbEntity
  8
0
  6
CONTINUOUS
 62
     1
100
AcDbLine
 10
-8.0
 20
11.2
 11
30.0
 21
11.2
  0
CIRCLE
  5
25
330
20
100
AcDbEntity
  8
0
  6
CONTINUOUS
 62
     1
100
AcDbCircle
 10
0.0
 20
1.332267629550188E-015
 40
10.5
  0
LINE
  5
26
330
20
100
AcDbEntity
  8
0
  6
CONTINUOUS
 62
     1
100
AcDbLine
 10
-30.0
 20
-11.2
 11
8.0
 21
-11.2
  0
LINE
  5
27
330
20
100
AcDbEntity
  8
0
  6
CENTER
 62
     1
100
AcDbLine
 10
-35.0
 20
1.776356839400251E-015
 11
55.0
 21
1.221245327087672E-015
  0
LINE
  5
28
330
20
100
AcDbEntity
  8
0
  6
CENTER
 62
     1
100
AcDbLine
 10
0.0
 20
-45.0
 11
0.0
 21
45.0
  0
LINE
  5
29
330
20
100
AcDbEntity
  8
0
  6
CONTINUOUS
 62
     1
100
AcDbLine
 10
-30.0
 20
38.0
 11
30.0
 21
38.0
  0
LINE
  5
2A
330
20
100
AcDbEntity
  8
0
  6
CONTINUOUS
 62
     1
100
AcDbLine
 10
-30.0
 20
-38.0
 11
30.0
 21
-38.0
  0
LINE
  5
2B
330
20
100
AcDbEntity
  8
0
  6
CONTINUOUS
 62
     1
100
AcDbLine
 10
30.0
 20
-38.0
 11
30.0
 21
11.2
  0
LINE
  5
2C
330
20
100
AcDbEntity
  8
0
  6
CONTINUOUS
 62
     1
100
AcDbLine
 10
30.0
 20
23.2
 11
30.0
 21
38.0
  0
LINE
  5
2D
330
20
100
AcDbEntity
  8
0
  6
CONTINUOUS
 62
     1
100
AcDbLine
 10
-30.0
 20
-38.0
 11
-30.0
 21
-23.2
  0
LINE
  5
2E
330
20
100
AcDbEntity
  8
0
  6
CONTINUOUS
 62
     1
100
AcDbLine
 10
-30.0
 20
-11.2
 11
-30.0
 21
38.0
  0
LINE
  5
2F
330
20
100
AcDbEntity
  8
0
  6
CONTINUOUS
 62
     1
100
AcDbLine
 10
-84.0
 20
38.0
 11
-84.0
 21
-38.0
  0
LINE
  5
30
330
20
100
AcDbEntity
  8
0
  6
CONTINUOUS
 62
     1
100
AcDbLine
 10
-116.0
 20
38.0
 11
-116.0
 21
-38.0
  0
CIRCLE
  5
31
330
20
100
AcDbEntity
  8
0
  6
CONTINUOUS
 62
     1
100
AcDbCircle
 10
-100.0
 20
7.0
 40
13.1
  0
LINE
  5
32
330
20
100
AcDbEntity
  8
0
  6
CENTER
 62
     1
100
AcDbLine
 10
-100.0
 20
-45.0
 11
-100.0
 21
45.0
  0
LINE
  5
33
330
20
100
AcDbEntity
  8
0
  6
CONTINUOUS
 62
     1
100
AcDbLine
 10
-84.0
 20
-38.0
 11
-116.0
 21
-38.0
  0
LINE
  5
34
330
20
100
AcDbEntity
  8
0
  6
CONTINUOUS
 62
     1
100
AcDbLine
 10
-84.0
 20
38.0
 11
-116.0
 21
38.0
  0
LINE
  5
35
330
20
100
AcDbEntity
  8
0
  6
CONTINUOUS
 62
     1
100
AcDbLine
 10
84.0
 20
38.0
 11
84.0
 21
-38.0
  0
LINE
  5
36
330
20
100
AcDbEntity
  8
0
  6
CONTINUOUS
 62
     1
100
AcDbLine
 10
116.0
 20
38.0
 11
116.0
 21
-38.0
  0
LINE
  5
37
330
20
100
AcDbEntity
  8
0
  6
CONTINUOUS
 62
     1
100
AcDbLine
 10
84.0
 20
11.2
 11
116.0
 21
11.2
  0
LINE
  5
38
330
20
100
AcDbEntity
  8
0
  6
CENTER
 62
     1
100
AcDbLine
 10
79.0
 20
0.0
 11
121.0
 21
0.0
  0
LINE
  5
39
330
20
100
AcDbEntity
  8
0
  6
CENTER
 62
     1
100
AcDbLine
 10
100.0
 20
-45.0
 11
100.0
 21
45.0
  0
LINE
  5
3A
330
20
100
AcDbEntity
  8
0
  6
CONTINUOUS
 62
     1
100
AcDbLine
 10
84.0
 20
38.0
 11
116.0
 21
38.0
  0
LINE
  5
3B
330
20
100
AcDbEntity
  8
0
  6
CONTINUOUS
 62
     1
100
AcDbLine
 10
84.0
 20
-38.0
 11
116.0
 21
-38.0
  0
LINE
  5
3C
330
20
100
AcDbEntity
  8
0
  6
DASHED
 62
     1
100
AcDbLine
 10
6.0
 20
-37.95
 11
6.0
 21
-23.2
  0
LINE
  5
3D
330
20
100
AcDbEntity
  8
0
  6
DASHED
 62
     1
100
AcDbLine
 10
6.0
 20
23.2
 11
6.0
 21
37.95
  0
LINE
  5
3E
330
20
100
AcDbEntity
  8
0
  6
DASHED
 62
     1
100
AcDbLine
 10
-6.0
 20
-37.95
 11
-6.0
 21
-23.2
  0
LINE
  5
3F
330
20
100
AcDbEntity
  8
0
  6
DASHED
 62
     1
100
AcDbLine
 10
-6.0
 20
23.2
 11
-6.0
 21
37.95
  0
LINE
  5
40
330
20
100
AcDbEntity
  8
0
  6
DASHED
 62
     1
100
AcDbLine
 10
5.049999999999997
 20
-37.0
 11
5.049999999999997
 21
-23.2
  0
LINE
  5
41
330
20
100
AcDbEntity
  8
0
  6
DASHED
 62
     1
100
AcDbLine
 10
5.050000000000001
 20
23.2
 11
5.049999999999997
 21
37.0
  0
LINE
  5
42
330
20
100
AcDbEntity
  8
0
  6
DASHED
 62
     1
100
AcDbLine
 10
-5.050000000000001
 20
-37.0
 11
-5.050000000000001
 21
-23.2
  0
LINE
  5
43
330
20
100
AcDbEntity
  8
0
  6
DASHED
 62
     1
100
AcDbLine
 10
-5.05
 20
23.2
 11
-5.050000000000001
 21
37.0
  0
LINE
  5
44
330
20
100
AcDbEntity
  8
0
  6
DASHED
 62
     1
100
AcDbLine
 10
5.049999999999997
 20
37.0
 11
6.049999999999997
 21
38.0
  0
LINE
  5
45
330
20
100
AcDbEntity
  8
0
  6
DASHED
 62
     1
100
AcDbLine
 10
-5.050000000000001
 20
37.0
 11
-6.050000000000001
 21
38.0
  0
LINE
  5
46
330
20
100
AcDbEntity
  8
0
  6
DASHED
 62
     1
100
AcDbLine
 10
5.049999999999997
 20
-37.0
 11
6.049999999999997
 21
-38.0
  0
LINE
  5
47
330
20
100
AcDbEntity
  8
0
  6
DASHED
 62
     1
100
AcDbLine
 10
-5.050000000000001
 20
-37.0
 11
-6.050000000000001
 21
-38.0
  0
LINE
  5
48
330
20
100
AcDbEntity
  8
0
  6
DASHED
 62
     1
100
AcDbLine
 10
5.049999999999997
 20
37.0
 11
-5.050000000000001
 21
37.0
  0
LINE
  5
49
330
20
100
AcDbEntity
  8
0
  6
DASHED
 62
     1
100
AcDbLine
 10
5.049999999999997
 20
-37.0
 11
-5.050000000000001
 21
-37.0
  0
LINE
  5
4A
330
20
100
AcDbEntity
  8
0
  6
CONTINUOUS
 62
     1
100
AcDbLine
 10
-30.0
 20
79.0
 11
30.0
 21
79.0
  0
LINE
  5
4B
330
20
100
AcDbEntity
  8
0
  6
CONTINUOUS
 62
     1
100
AcDbLine
 10
-30.0
 20
111.0
 11
30.0
 21
111.0
  0
LINE
  5
4C
330
20
100
AcDbEntity
  8
0
  6
CONTINUOUS
 62
     1
100
AcDbLine
 10
30.0
 20
111.0
 11
30.0
 21
79.0
  0
LINE
  5
4D
330
20
100
AcDbEntity
  8
0
  6
CONTINUOUS
 62
     1
100
AcDbLine
 10
-30.0
 20
111.0
 11
-30.0
 21
79.0
  0
LINE
  5
4E
330
20
100
AcDbEntity
  8
0
  6
CENTER
 62
     1
100
AcDbLine
 10
-36.0
 20
95.0
 11
36.0
 21
95.0
  0
LINE
  5
4F
330
20
100
AcDbEntity
  8
0
  6
CENTER
 62
     1
100
AcDbLine
 10
0.0
 20
74.0
 11
0.0
 21
116.0
  0
CIRCLE
  5
50
330
20
100
AcDbEntity
  8
0
  6
CONTINUOUS
 62
     1
100
AcDbCircle
 10
0.0
 20
95.0
 40
5.05
  0
CIRCLE
  5
51
330
20
100
AcDbEntity
  8
0
  6
CONTINUOUS
 62
     1
100
AcDbCircle
 10
-100.0
 20
7.0
 40
15.09999999999999
  0
CIRCLE
  5
52
330
20
100
AcDbEntity
  8
0
  6
CONTINUOUS
 62
     1
100
AcDbCircle
 10
0.0
 20
95.0
 40
6.0
  0
CIRCLE
  5
53
330
20
100
AcDbEntity
  8
0
  6
CONTINUOUS
 62
     1
100
AcDbCircle
 10
100.0
 20
0.0
 40
2.5
  0
LINE
  5
54
330
20
100
AcDbEntity
  8
0
  6
CONTINUOUS
 62
     1
100
AcDbLine
 10
-8.0
 20
23.2
 11
30.0
 21
23.2
  0
LINE
  5
55
330
20
100
AcDbEntity
  8
0
  6
CONTINUOUS
 62
     1
100
AcDbLine
 10
-30.0
 20
-23.2
 11
8.0
 21
-23.2
  0
ARC
  5
56
330
20
100
AcDbEntity
  8
0
  6
CONTINUOUS
 62
     1
100
AcDbCircle
 10
-8.0
 20
17.2
 40
6.0
100
AcDbArc
 50
90.0
 51
270.0
  0
ARC
  5
57
330
20
100
AcDbEntity
  8
0
  6
CONTINUOUS
 62
     1
100
AcDbCircle
 10
8.0
 20
-17.2
 40
6.0
100
AcDbArc
 50
270.0
 51
90.0
  0
LINE
  5
58
330
20
100
AcDbEntity
  8
0
  6
CONTINUOUS
 62
     1
100
AcDbLine
 10
84.0
 20
23.2
 11
116.0
 21
23.2
  0
LINE
  5
59
330
20
100
AcDbEntity
  8
0
  6
CONTINUOUS
 62
     1
100
AcDbLine
 10
-84.0
 20
-23.2
 11
-116.0
 21
-23.2
  0
LINE
  5
5A
330
20
100
AcDbEntity
  8
0
  6
CONTINUOUS
 62
     1
100
AcDbLine
 10
-84.0
 20
-11.2
 11
-116.0
 21
-11.2
  0
ARC
  5
5B
330
20
100
AcDbEntity
  8
0
  6
CONTINUOUS
 62
     1
100
AcDbCircle
 10
0.0
 20
1.332267629550188E-015
 40
12.5
100
AcDbArc
 50
296.3628330790251
 51
63.63716692097492
  0
ARC
  5
5C
330
20
100
AcDbEntity
  8
0
  6
CONTINUOUS
 62
     1
100
AcDbCircle
 10
0.0
 20
1.332267629550188E-015
 40
12.5
100
AcDbArc
 50
116.3628330790251
 51
243.637166920975
  0
CIRCLE
  5
5D
330
20
100
AcDbEntity
  8
0
  6
CONTINUOUS
 62
     1
100
AcDbCircle
 10
100.0
 20
0.0
 40
2.5
  0
LINE
  5
5E
330
20
100
AcDbEntity
  8
0
  6
CONTINUOUS
 62
     1
100
AcDbLine
 10
105.5
 20
-2.968585521759479
 11
105.5
 21
2.968585521759479
  0
ARC
  5
5F
330
20
100
AcDbEntity
  8
0
  6
CONTINUOUS
 62
     1
100
AcDbCircle
 10
100.0
 20
0.0
 40
6.25
100
AcDbArc
 50
208.357636576328
 51
331.642363423672
  0
ARC
  5
60
330
20
100
AcDbEntity
  8
0
  6
CONTINUOUS
 62
     1
100
AcDbCircle
 10
100.0
 20
0.0
 40
6.25
100
AcDbArc
 50
28.35763657632798
 51
151.642363423672
  0
LINE
  5
61
330
20
100
AcDbEntity
  8
0
  6
CONTINUOUS
 62
     1
100
AcDbLine
 10
94.5
 20
-2.968585521759479
 11
94.5
 21
2.968585521759479
  0
LINE
  5
62
330
20
100
AcDbEntity
  8
0
  6
CONTINUOUS
 62
     1
100
AcDbLine
 10
36.0
 20
-5.250000000000004
 11
36.0
 21
5.25
  0
LINE
  5
63
330
20
100
AcDbEntity
  8
0
  6
CONTINUOUS
 62
     1
100
AcDbLine
 10
31.0
 20
-6.250000000000004
 11
35.0
 21
-6.250000000000004
  0
LINE
  5
64
330
20
100
AcDbEntity
  8
0
  6
CONTINUOUS
 62
     1
100
AcDbLine
 10
30.0
 20
-4.849999999999994
 11
31.0
 21
-4.85
  0
LINE
  5
65
330
20
100
AcDbEntity
  8
0
  6
CONTINUOUS
 62
     1
100
AcDbLine
 10
31.0
 20
-6.250000000000004
 11
31.0
 21
6.25
  0
ARC
  5
66
330
20
100
AcDbEntity
  8
0
  6
CONTINUOUS
 62
     1
100
AcDbCircle
 10
35.0
 20
-5.250000000000004
 40
1.0
100
AcDbArc
 50
270.0
 51
0.0
  0
LINE
  5
67
330
20
100
AcDbEntity
  8
0
  6
CONTINUOUS
 62
     1
100
AcDbLine
 10
36.0
 20
-2.350000000000001
 11
50.0
 21
-2.350000000000001
  0
ARC
  5
68
330
20
100
AcDbEntity
  8
0
  6
CONTINUOUS
 62
     1
100
AcDbCircle
 10
49.8096875
 20
-1.175000000000001
 40
1.1903125
100
AcDbArc
 50
279.2001913325264
 51
80.79980866747357
  0
LINE
  5
69
330
20
100
AcDbEntity
  8
0
  6
CONTINUOUS
 62
     1
100
AcDbLine
 10
31.0
 20
-2.968585521759479
 11
36.0
 21
-2.968585521759479
  0
LINE
  5
6A
330
20
100
AcDbEntity
  8
0
  6
CONTINUOUS
 62
     1
100
AcDbLine
 10
31.0
 20
2.968585521759479
 11
36.0
 21
-2.968585521759479
  0
LINE
  5
6B
330
20
100
AcDbEntity
  8
0
  6
CONTINUOUS
 62
     1
100
AcDbLine
 10
31.0
 20
-2.968585521759479
 11
36.0
 21
2.968585521759479
  0
LINE
  5
6C
330
20
100
AcDbEntity
  8
0
  6
CONTINUOUS
 62
     1
100
AcDbLine
 10
31.0
 20
6.25
 11
35.0
 21
6.25
  0
LINE
  5
6D
330
20
100
AcDbEntity
  8
0
  6
CONTINUOUS
 62
     1
100
AcDbLine
 10
30.0
 20
4.850000000000001
 11
31.0
 21
4.85
  0
ARC
  5
6E
330
20
100
AcDbEntity
  8
0
  6
CONTINUOUS
 62
     1
100
AcDbCircle
 10
35.0
 20
5.25
 40
1.0
100
AcDbArc
 50
0.0
 51
90.0
  0
LINE
  5
6F
330
20
100
AcDbEntity
  8
0
  6
CONTINUOUS
 62
     1
100
AcDbLine
 10
36.0
 20
2.350000000000001
 11
50.0
 21
2.350000000000001
  0
ARC
  5
70
330
20
100
AcDbEntity
  8
0
  6
CONTINUOUS
 62
     1
100
AcDbCircle
 10
50.1903125
 20
1.175000000000001
 40
1.1903125
100
AcDbArc
 50
99.20019133252643
 51
260.7998086674736
  0
ARC
  5
71
330
20
100
AcDbEntity
  8
0
  6
CONTINUOUS
 62
     1
100
AcDbCircle
 10
49.8096875
 20
1.175000000000001
 40
1.190312500000001
100
AcDbArc
 50
279.2001913325264
 51
80.79980866747357
  0
LINE
  5
72
330
20
100
AcDbEntity
  8
0
  6
CONTINUOUS
 62
     1
100
AcDbLine
 10
31.0
 20
2.968585521759479
 11
36.0
 21
2.968585521759479
  0
ENDSEC
  0
SECTION
  2
OBJECTS
  0
DICTIONARY
  5
C
100
AcDbDictionary
281
     1
  3
ACAD_GROUP
350
D
  3
ACAD_MLINESTYLE
350
E
  3
ACDBVARIABLEDICTIONARY
350
73
  3
ACAD_PLOTSTYLENAME
350
74
  3
ACAD_LAYOUT
350
75
  3
ACAD_PLOTSETTINGS
350
76
  0
DICTIONARY
  5
D
102
{ACAD_REACTORS
330
C
102
}
330
C
100
AcDbDictionary
281
     1
  0
DICTIONARY
  5
E
102
{ACAD_REACTORS
330
C
102
}
330
C
100
AcDbDictionary
281
     1
  3
STANDARD
350
13
  0
DICTIONARY
  5
73
102
{ACAD_REACTORS
330
C
102
}
330
C
100
AcDbDictionary
281
     1
  3
SORTENTS
350
77
  0
ACDBDICTIONARYWDFLT
  5
74
102
{ACAD_REACTORS
330
C
102
}
330
C
100
AcDbDictionary
281
     1
  3
Normal
350
78
100
AcDbDictionaryWithDefault
340
78
  0
DICTIONARY
  5
75
102
{ACAD_REACTORS
330
C
102
}
330
C
100
AcDbDictionary
281
     1
  3
Model
350
79
  0
DICTIONARY
  5
76
102
{ACAD_REACTORS
330
C
102
}
330
C
100
AcDbDictionary
281
     1
  0
MLINESTYLE
  5
13
102
{ACAD_REACTORS
330
E
102
}
330
E
100
AcDbMlineStyle
  2
STANDARD
 70
     0
  3

 62
   256
 51
90.0
 52
90.0
 71
     2
 49
0.5
 62
   256
  6
BYLAYER
 49
-0.5
 62
   256
  6
BYLAYER
  0
DICTIONARYVAR
  5
77
102
{ACAD_REACTORS
330
73
102
}
330
73
100
DictionaryVariables
280
     0
  1
96
  0
ACDBPLACEHOLDER
  5
78
102
{ACAD_REACTORS
330
74
102
}
330
74
  0
LAYOUT
  5
79
102
{ACAD_REACTORS
330
75
102
}
330
75
100
AcDbPlotSettings
  1

  2

  4

  6

 40
0.0
 41
0.0
 42
0.0
 43
0.0
 44
0.0
 45
0.0
 46
0.0
 47
0.0
 48
0.0
 49
0.0
140
0.0
141
0.0
142
1.0
143
1.0
 70
  1712
 72
     0
 73
     0
 74
     0
  7

 75
     0
147
1.0
148
0.0
149
0.0
100
AcDbLayout
  1
Model
 70
     1
 71
     0
 10
0.0
 20
0.0
 11
297.0
 21
210.0
 12
0.0
 22
0.0
 32
0.0
 14
0.0
 24
0.0
 34
0.0
 15
0.0
 25
0.0
 35
0.0
146
0.0
 13
0.0
 23
0.0
 33
0.0
 16
1.0
 26
0.0
 36
0.0
 17
0.0
 27
1.0
 37
0.0
 76
     0
330
20
  0
ENDSEC
  0
EOF
