  0
SECTION
  2
HEADER
  9
$ACADVER
  1
AC1015
  9
$ACADMAINTVER
 70
     0
  9
$DWGCODEPAGE
  3
ANSI_932
  9
$INSBASE
 10
0.0
 20
0.0
 30
0.0
  9
$EXTMIN
 10
-187.9
 20
-428.8959655480918
  9
$EXTMAX
 10
175.0
 20
175.0
  9
$LIMMIN
 10
-187.9
 20
-428.8959655480918
  9
$LIMMAX
 10
175.0
 20
175.0
  9
$ORTHOMODE
 70
     0
  9
$REGENMODE
 70
     1
  9
$FILLMODE
 70
     1
  9
$QTEXTMODE
 70
     0
  9
$MIRRTEXT
 70
     1
  9
$LTSCALE
 40
1.0
  9
$OSMODE
 70
     0
  9
$ATTMODE
 70
     1
  9
$TEXTSIZE
 40
3.0
  9
$TRACEWID
 40
0.5
  9
$TEXTSTYLE
  7
STANDARD
  9
$CLAYER
  8
0
  9
$CELTYPE
  6
BYLAYER
  9
$CECOLOR
 62
   256
  9
$CELTSCALE
 40
1.0
  9
$DISPSILH
 70
     0
  9
$DIMSCALE
 40
1.0
  9
$DIMASZ
 40
2.240000009536743
  9
$DIMEXO
 40
1.0
  9
$DIMDLI
 40
5.0
  9
$DIMRND
 40
0.0
  9
$DIMDLE
 40
5.0
  9
$DIMEXE
 40
2.0
  9
$DIMTP
 40
0.0
  9
$DIMTM
 40
0.0
  9
$DIMTXT
 40
3.0
  9
$DIMCEN
 40
2.0
  9
$DIMTSZ
 40
0.0
  9
$DIMTOL
 70
     0
  9
$DIMLIM
 70
     0
  9
$DIMTIH
 70
     0
  9
$DIMTOH
 70
     0
  9
$DIMSE1
 70
     0
  9
$DIMSE2
 70
     0
  9
$DIMTAD
 70
     1
  9
$DIMZIN
 70
     8
  9
$DIMBLK
  1

  9
$DIMASO
 70
     1
  9
$DIMSHO
 70
     1
  9
$DIMPOST
  1

  9
$DIMAPOST
  1

  9
$DIMALT
 70
     0
  9
$DIMALTD
 70
     0
  9
$DIMALTF
 40
25.4
  9
$DIMLFAC
 40
1.0
  9
$DIMTOFL
 70
     1
  9
$DIMTVP
 40
1.0
  9
$DIMTIX
 70
     0
  9
$DIMSOXD
 70
     0
  9
$DIMSAH
 70
     0
  9
$DIMBLK1
  1

  9
$DIMBLK2
  1

  9
$DIMSTYLE
  2
ISO-25
  9
$DIMCLRD
 70
     0
  9
$DIMCLRE
 70
     0
  9
$DIMCLRT
 70
     0
  9
$DIMTFAC
 40
1.0
  9
$DIMGAP
 40
1.0
  9
$DIMJUST
 70
     0
  9
$DIMSD1
 70
     0
  9
$DIMSD2
 70
     0
  9
$DIMTOLJ
 70
     0
  9
$DIMTZIN
 70
     8
  9
$DIMALTZ
 70
     0
  9
$DIMALTTZ
 70
     0
  9
$DIMUPT
 70
     0
  9
$DIMDEC
 70
     2
  9
$DIMTDEC
 70
     2
  9
$DIMALTU
 70
     2
  9
$DIMALTTD
 70
     3
  9
$DIMTXSTY
  7
STANDARD
  9
$DIMAUNIT
 70
     0
  9
$DIMADEC
 70
     0
  9
$DIMALTRND
 40
0.0
  9
$DIMAZIN
 70
     0
  9
$DIMDSEP
 70
    46
  9
$DIMATFIT
 70
     3
  9
$DIMFRAC
 70
     0
  9
$DIMLDRBLK
  1

  9
$DIMLUNIT
 70
     2
  9
$DIMLWD
 70
    -2
  9
$DIMLWE
 70
    -2
  9
$DIMTMOVE
 70
     0
  9
$LUNITS
 70
     2
  9
$LUPREC
 70
     4
  9
$SKETCHINC
 40
1.0
  9
$FILLETRAD
 40
0.0
  9
$AUNITS
 70
     0
  9
$AUPREC
 70
     0
  9
$MENU
  1
.
  9
$ELEVATION
 40
0.0
  9
$PELEVATION
 40
0.0
  9
$THICKNESS
 40
0.0
  9
$LIMCHECK
 70
     0
  9
$CHAMFERA
 40
0.0
  9
$CHAMFERB
 40
0.0
  9
$CHAMFERC
 40
0.0
  9
$CHAMFERD
 40
0.0
  9
$SKPOLY
 70
     0
  9
$TDCREATE
 40
2454118.372175926
  9
$TDUCREATE
 40
2454118.372175926
  9
$TDUPDATE
 40
2454118.372175926
  9
$TDUUPDATE
 40
2454118.372175926
  9
$TDINDWG
 40
0.0
  9
$TDUSRTIMER
 40
0.0
  9
$USRTIMER
 70
     1
  9
$ANGBASE
 50
0.0
  9
$ANGDIR
 70
     0
  9
$PDMODE
 70
     0
  9
$PDSIZE
 40
0.0
  9
$PLINEWID
 40
0.0
  9
$SPLFRAME
 70
     0
  9
$SPLINETYPE
 70
     6
  9
$SPLINESEGS
 70
     8
  9
$HANDSEED
  5
FA
  9
$SURFTAB1
 70
     6
  9
$SURFTAB2
 70
     6
  9
$SURFTYPE
 70
     6
  9
$SURFU
 70
     6
  9
$SURFV
 70
     6
  9
$UCSBASE
  2

  9
$UCSNAME
  2

  9
$UCSORG
 10
0.0
 20
0.0
 30
0.0
  9
$UCSXDIR
 10
1.0
 20
0.0
 30
0.0
  9
$UCSYDIR
 10
0.0
 20
1.0
 30
0.0
  9
$UCSORTHOREF
  2

  9
$UCSORTHOVIEW
 70
     0
  9
$UCSORGTOP
 10
0.0
 20
0.0
 30
0.0
  9
$UCSORGBOTTOM
 10
0.0
 20
0.0
 30
0.0
  9
$UCSORGLEFT
 10
0.0
 20
0.0
 30
0.0
  9
$UCSORGRIGHT
 10
0.0
 20
0.0
 30
0.0
  9
$UCSORGFRONT
 10
0.0
 20
0.0
 30
0.0
  9
$UCSORGBACK
 10
0.0
 20
0.0
 30
0.0
  9
$PUCSBASE
  2

  9
$PUCSNAME
  2

  9
$PUCSORG
 10
0.0
 20
0.0
 30
0.0
  9
$PUCSXDIR
 10
1.0
 20
0.0
 30
0.0
  9
$PUCSYDIR
 10
0.0
 20
1.0
 30
0.0
  9
$PUCSORTHOREF
  2

  9
$PUCSORTHOVIEW
 70
     0
  9
$PUCSORGTOP
 10
0.0
 20
0.0
 30
0.0
  9
$PUCSORGBOTTOM
 10
0.0
 20
0.0
 30
0.0
  9
$PUCSORGLEFT
 10
0.0
 20
0.0
 30
0.0
  9
$PUCSORGRIGHT
 10
0.0
 20
0.0
 30
0.0
  9
$PUCSORGFRONT
 10
0.0
 20
0.0
 30
0.0
  9
$PUCSORGBACK
 10
0.0
 20
0.0
 30
0.0
  9
$USERI1
 70
     0
  9
$USERI2
 70
     0
  9
$USERI3
 70
     0
  9
$USERI4
 70
     0
  9
$USERI5
 70
     0
  9
$USERR1
 40
0.0
  9
$USERR2
 40
0.0
  9
$USERR3
 40
0.0
  9
$USERR4
 40
0.0
  9
$USERR5
 40
0.0
  9
$WORLDVIEW
 70
     1
  9
$SHADEDGE
 70
     3
  9
$SHADEDIF
 70
    70
  9
$MAXACTVP
 70
    16
  9
$PINSBASE
 10
0.0
 20
0.0
 30
0.0
  9
$PLIMCHECK
 70
     0
  9
$PEXTMIN
 10
1.000000E+20
 20
1.000000E+20
 30
1.000000E+20
  9
$PEXTMAX
 10
-1.000000E+20
 20
-1.000000E+20
 30
-1.000000E+20
  9
$PLIMMIN
 10
-187.9
 20
-428.8959655480918
  9
$PLIMMAX
 10
175.0
 20
175.0
  9
$UNITMODE
 70
     0
  9
$VISRETAIN
 70
     0
  9
$PLINEGEN
 70
     0
  9
$PSLTSCALE
 70
     0
  9
$TREEDEPTH
 70
  3020
  9
$CMLSTYLE
  2
STANDARD
  9
$CMLJUST
 70
     0
  9
$CMLSCALE
 40
1.0
  9
$PROXYGRAPHICS
 70
     1
  9
$MEASUREMENT
 70
     0
  9
$CELWEIGHT
370
    -3
  9
$ENDCAPS
280
     0
  9
$JOINSTYLE
280
     0
  9
$LWDISPLAY
290
     1
  9
$INSUNITS
 70
     0
  9
$HYPERLINKBASE
  1

  9
$STYLESHEET
  1

  9
$XEDIT
290
     1
  9
$CEPSNTYPE
380
     0
  9
$PSTYLEMODE
290
     1
  9
$FINGERPRINTGUID
  2
{6F25CFC2-5053-11D3-9BE9-00805F4AB38E}
  9
$VERSIONGUID
  2
{6F25CFC5-5053-11D3-9BE9-00805F4AB38E}
  9
$EXTNAMES
290
     1
  9
$PSVPSCALE
 40
0.0
  9
$OLESTARTUP
290
     0
  0
ENDSEC
  0
SECTION
  2
CLASSES
  0
CLASS
  1
LWPOLYLINE
  2
AcDbPolyline
  3
AutoCAD 2000
 90
    32768
280
     0
281
     1
  0
CLASS
  1
DICTIONARYVAR
  2
AcDbDictionaryVar
  3
AutoCAD 2000
 90
        0
280
     0
281
     1
  0
CLASS
  1
ACDBDICTIONARYWDFLT
  2
AcDbDictionaryWithDefault
  3
AutoCAD 2000
 90
        0
280
     0
281
     1
  0
CLASS
  1
ACDBPLACEHOLDER
  2
AcDbPlaceHolder
  3
AutoCAD 2000
 90
        0
280
     0
281
     1
  0
CLASS
  1
LAYOUT
  2
AcDbLayout
  3
AutoCAD 2000
 90
        0
280
     0
281
     1
  0
CLASS
  1
HATCH
  2
AcDbHatch
  3
AutoCAD 2000
 90
        0
280
     0
281
     1
  0
ENDSEC
  0
SECTION
  2
TABLES
  0
TABLE
  2
VPORT
  5
8
100
AcDbSymbolTable
 70
     1
  0
VPORT
  5
F0
330
0
100
AcDbSymbolTableRecord
100
AcDbViewportTableRecord
  2
*ACTIVE
 70
     0
 10
0.0
 20
0.0
 11
1.0
 21
1.0
 12
-6.450000000000003
 22
-126.9479827740459
 13
0.0
 23
0.0
 14
0.0
 24
0.0
 15
0.0
 25
0.0
 16
0.0
 26
0.0
 36
1.0
 17
0.0
 27
0.0
 37
0.0
 40
603.8959655480918
 41
1.5
 42
50.0
 43
0.0
 44
0.0
 50
0.0
 51
0.0
 71
     0
 72
   100
 73
     1
 74
     1
 75
     0
 76
     0
 77
     0
 78
     0
281
     0
 65
     1
110
0.0
120
0.0
130
0.0
111
1.0
121
0.0
131
0.0
112
0.0
122
1.0
132
0.0
 79
     0
146
0.0
  0
ENDTAB
  0
TABLE
  2
LTYPE
  5
5
330
0
100
AcDbSymbolTable
 70
    20
  0
LTYPE
  5
F1
330
5
100
AcDbSymbolTableRecord
100
AcDbLinetypeTableRecord
  2
BYBLOCK
 70
     0
  3

 72
    65
 73
     0
 40
0.0
  0
LTYPE
  5
F2
330
5
100
AcDbSymbolTableRecord
100
AcDbLinetypeTableRecord
  2
BYLAYER
 70
     0
  3

 72
    65
 73
     0
 40
0.0
  0
LTYPE
  5
F3
330
5
100
AcDbSymbolTableRecord
100
AcDbLinetypeTableRecord
  2
CONTINUOUS
 70
    64
  3
solid line
 72
    65
 73
     0
 40
0.0
  0
LTYPE
  5
F4
330
0
100
AcDbSymbolTableRecord
100
AcDbLinetypeTableRecord
  2
DASHED
 70
    64
  3
-- -- -- -- -- -- -- -- -- -- 
 72
    65
 73
     2
 40
3.0
 49
2.0
 74
     0
 49
-1.0
 74
     0
  0
LTYPE
  5
F5
330
0
100
AcDbSymbolTableRecord
100
AcDbLinetypeTableRecord
  2
CENTER
 70
    64
  3
--- - --- - --- - --- - --- - 
 72
    65
 73
     4
 40
6.0
 49
3.0
 74
     0
 49
-1.0
 74
     0
 49
1.0
 74
     0
 49
-1.0
 74
     0
  0
ENDTAB
  0
TABLE
  2
LAYER
  5
2
330
0
100
AcDbSymbolTable
 70
    20
  0
LAYER
  5
F6
330
2
100
AcDbSymbolTableRecord
100
AcDbLayerTableRecord
  2
0
 70
    64
 62
     7
  6
CONTINUOUS
370
    -3
390
EC
  0
LAYER
  5
25
330
2
100
AcDbSymbolTableRecord
100
AcDbLayerTableRecord
  2
100
 70
    64
 62
     7
  6
CONTINUOUS
370
    -3
390
EC
  0
ENDTAB
  0
TABLE
  2
STYLE
  5
3
330
0
100
AcDbSymbolTable
 70
     4
  0
STYLE
  5
F7
330
3
100
AcDbSymbolTableRecord
100
AcDbTextStyleTableRecord
  2
STANDARD
 70
    64
 40
0.0
 41
1.052631578947368
 50
0.0
 71
     0
 42
3.0
  3
monotxt
  4

  0
ENDTAB
  0
TABLE
  2
VIEW
  5
6
330
0
100
AcDbSymbolTable
 70
     0
  0
ENDTAB
  0
TABLE
  2
UCS
  5
7
330
0
100
AcDbSymbolTable
 70
     0
  0
ENDTAB
  0
TABLE
  2
APPID
  5
9
330
0
100
AcDbSymbolTable
 70
     1
  0
APPID
  5
F8
330
9
100
AcDbSymbolTableRecord
100
AcDbRegAppTableRecord
  2
ACAD
 70
     0
  0
ENDTAB
  0
TABLE
  2
DIMSTYLE
  5
A
330
0
100
AcDbSymbolTable
 70
     8
100
AcDbDimStyleTable
 71
     0
  0
DIMSTYLE
105
F9
330
A
100
AcDbSymbolTableRecord
100
AcDbDimStyleTableRecord
  2
ISO-25
 70
     0
  3

  4

  5

  6

  7

 40
1.0
 41
2.240000009536743
 42
1.0
 43
5.0
 44
2.0
 45
0.0
 46
5.0
 47
0.0
 48
0.0
140
3.0
141
2.0
142
0.0
143
25.4
144
1.0
145
1.0
146
1.0
147
1.0
 71
     0
 72
     0
 73
     0
 74
     0
 75
     0
 76
     0
 77
     1
 78
     8
170
     0
171
     0
172
     1
173
     0
174
     0
175
     0
176
     0
177
     0
178
     0
270
     0
271
     2
272
     2
273
     2
274
     3
340
F7
275
     0
277
     2
280
     0
281
     0
282
     0
283
     0
284
     8
285
     0
286
     0
287
     3
288
     0
  0
ENDTAB
  0
TABLE
  2
BLOCK_RECORD
  5
1
330
0
100
AcDbSymbolTable
 70
     2
  0
BLOCK_RECORD
  5
20
330
1
100
AcDbSymbolTableRecord
100
AcDbBlockTableRecord
  2
*MODEL_SPACE
340
ED
  0
BLOCK_RECORD
  5
22
330
1
100
AcDbSymbolTableRecord
100
AcDbBlockTableRecord
  2
*PAPER_SPACE
340
0
  0
ENDTAB
  0
ENDSEC
  0
SECTION
  2
BLOCKS
  0
BLOCK
  5
21
330
20
100
AcDbEntity
  8
0
100
AcDbBlockBegin
  2
*MODEL_SPACE
 70
     0
 10
0.0
 20
0.0
 30
0.0
  3
*MODEL_SPACE
  1

  0
ENDBLK
  5
EE
330
20
100
AcDbEntity
  8
0
100
AcDbBlockEnd
  0
BLOCK
  5
23
330
22
100
AcDbEntity
 67
     1
  8
0
100
AcDbBlockBegin
  2
*PAPER_SPACE
 70
     0
 10
0.0
 20
0.0
 30
0.0
  3
*PAPER_SPACE
  1

  0
ENDBLK
  5
EF
330
22
100
AcDbEntity
 67
     1
  8
0
100
AcDbBlockEnd
  0
ENDSEC
  0
SECTION
  2
ENTITIES
  0
CIRCLE
  5
24
330
20
100
AcDbEntity
  8
100
  6
CONTINUOUS
100
AcDbCircle
 10
0.0
 20
0.0
 40
38.0
  0
CIRCLE
  5
26
330
20
100
AcDbEntity
  8
100
  6
CONTINUOUS
100
AcDbCircle
 10
0.0
 20
0.0
 40
69.0
  0
CIRCLE
  5
27
330
20
100
AcDbEntity
  8
100
  6
CONTINUOUS
100
AcDbCircle
 10
0.0
 20
0.0
 40
106.0
  0
CIRCLE
  5
28
330
20
100
AcDbEntity
  8
100
  6
CONTINUOUS
100
AcDbCircle
 10
0.0
 20
0.0
 40
155.0
  0
CIRCLE
  5
29
330
20
100
AcDbEntity
  8
100
  6
CENTER
100
AcDbCircle
 10
0.0
 20
0.0
 40
130.0
  0
LINE
  5
2A
330
20
100
AcDbEntity
  8
100
  6
CENTER
100
AcDbLine
 10
-145.125156760698
 20
-28.8671884976144
 11
-106.8850221847461
 21
-21.26075280019511
  0
LINE
  5
2B
330
20
100
AcDbEntity
  8
100
  6
CENTER
100
AcDbLine
 10
109.3188818208431
 20
21.74487758228096
 11
148.3430494795973
 21
29.50726715630442
  0
LINE
  5
2C
330
20
100
AcDbEntity
  8
100
  6
CENTER
100
AcDbLine
 10
-123.8298154159655
 20
-82.74043739843803
 11
-92.12499780141437
 21
-61.55595554926748
  0
LINE
  5
2D
330
20
100
AcDbEntity
  8
100
  6
CENTER
100
AcDbLine
 10
92.87854133290438
 20
62.05945723975131
 11
125.2687866364967
 21
83.70192722857763
  0
LINE
  5
2E
330
20
100
AcDbEntity
  8
100
  6
CENTER
100
AcDbLine
 10
-83.99358192965346
 20
-125.7052787428353
 11
-62.06477203084643
 21
-92.88649547988459
  0
LINE
  5
2F
330
20
100
AcDbEntity
  8
100
  6
CENTER
100
AcDbLine
 10
61.37899252849725
 20
91.86015392475105
 11
84.28151383755179
 21
126.1361992954512
  0
LINE
  5
30
330
20
100
AcDbEntity
  8
100
  6
CENTER
100
AcDbLine
 10
-29.25898283956957
 20
-147.0948399288006
 11
-21.46830831490769
 21
-107.9284742206691
  0
LINE
  5
31
330
20
100
AcDbEntity
  8
100
  6
CENTER
100
AcDbLine
 10
21.60880774034978
 20
108.6348125308151
 11
29.14375776498774
 21
146.5155643608721
  0
LINE
  5
32
330
20
100
AcDbEntity
  8
100
  6
CENTER
100
AcDbLine
 10
29.0237078092248
 20
-145.912032477238
 11
21.70205485865314
 21
-109.1035974511894
  0
LINE
  5
33
330
20
100
AcDbEntity
  8
100
  6
CENTER
100
AcDbLine
 10
-21.40334614724279
 20
107.6018873496726
 11
-29.35074784469403
 21
147.5561737630573
  0
LINE
  5
34
330
20
100
AcDbEntity
  8
100
  6
CENTER
100
AcDbLine
 10
83.59065601590066
 20
-125.1022574983859
 11
62.11905567518289
 21
-92.96773669481732
  0
LINE
  5
35
330
20
100
AcDbEntity
  8
100
  6
CENTER
100
AcDbLine
 10
-61.66800534351103
 20
92.29269216918451
 11
-82.91022232361758
 21
124.0839165134027
  0
LINE
  5
36
330
20
100
AcDbEntity
  8
100
  6
CENTER
100
AcDbLine
 10
127.5501881612809
 20
-85.22631099195516
 11
93.53103252026386
 21
-62.49543791257577
  0
LINE
  5
37
330
20
100
AcDbEntity
  8
100
  6
CENTER
100
AcDbLine
 10
-92.07269280308816
 20
61.52100646672926
 11
-124.9767175660468
 21
83.50677291490584
  0
LINE
  5
38
330
20
100
AcDbEntity
  8
100
  6
CENTER
100
AcDbLine
 10
147.9386034250794
 20
-29.42681783412306
 11
109.9137097344192
 21
-21.86319621075403
  0
LINE
  5
39
330
20
100
AcDbEntity
  8
100
  6
CENTER
100
AcDbLine
 10
-107.4355539110927
 20
21.37026036920016
 11
-146.1022826351772
 21
29.06155091853482
  0
CIRCLE
  5
3A
330
20
100
AcDbEntity
  8
100
  6
CONTINUOUS
100
AcDbCircle
 10
127.50208645242
 20
-25.36174186209681
 40
11.0
  0
CIRCLE
  5
3B
330
20
100
AcDbEntity
  8
100
  6
CONTINUOUS
100
AcDbCircle
 10
108.0910495993309
 20
-72.22413029254844
 40
11.0
  0
CIRCLE
  5
3C
330
20
100
AcDbEntity
  8
100
  6
CONTINUOUS
100
AcDbCircle
 10
72.2241302925483
 20
-108.0910495993311
 40
11.0
  0
CIRCLE
  5
3D
330
20
100
AcDbEntity
  8
100
  6
CONTINUOUS
100
AcDbCircle
 10
25.36174186209654
 20
-127.5020864524201
 40
11.0
  0
CIRCLE
  5
3E
330
20
100
AcDbEntity
  8
100
  6
CONTINUOUS
100
AcDbCircle
 10
-25.36174186209667
 20
-127.5020864524199
 40
11.0
  0
CIRCLE
  5
3F
330
20
100
AcDbEntity
  8
100
  6
CONTINUOUS
100
AcDbCircle
 10
-72.22413029254841
 20
-108.091049599331
 40
11.0
  0
CIRCLE
  5
40
330
20
100
AcDbEntity
  8
100
  6
CONTINUOUS
100
AcDbCircle
 10
-108.0910495993309
 20
-72.22413029254832
 40
11.0
  0
CIRCLE
  5
41
330
20
100
AcDbEntity
  8
100
  6
CONTINUOUS
100
AcDbCircle
 10
-127.5020864524199
 20
-25.36174186209667
 40
11.0
  0
CIRCLE
  5
42
330
20
100
AcDbEntity
  8
100
  6
CONTINUOUS
100
AcDbCircle
 10
-127.50208645242
 20
25.36174186209652
 40
11.0
  0
CIRCLE
  5
43
330
20
100
AcDbEntity
  8
100
  6
CONTINUOUS
100
AcDbCircle
 10
-108.091049599331
 20
72.22413029254818
 40
11.0
  0
CIRCLE
  5
44
330
20
100
AcDbEntity
  8
100
  6
CONTINUOUS
100
AcDbCircle
 10
-72.22413029254858
 20
108.0910495993311
 40
11.0
  0
CIRCLE
  5
45
330
20
100
AcDbEntity
  8
100
  6
CONTINUOUS
100
AcDbCircle
 10
-25.36174186209679
 20
127.5020864524199
 40
11.0
  0
CIRCLE
  5
46
330
20
100
AcDbEntity
  8
100
  6
CONTINUOUS
100
AcDbCircle
 10
25.36174186209667
 20
127.5020864524198
 40
11.0
  0
CIRCLE
  5
47
330
20
100
AcDbEntity
  8
100
  6
CONTINUOUS
100
AcDbCircle
 10
72.22413029254841
 20
108.0910495993312
 40
11.0
  0
CIRCLE
  5
48
330
20
100
AcDbEntity
  8
100
  6
CONTINUOUS
100
AcDbCircle
 10
108.0910495993309
 20
72.2241302925483
 40
11.0
  0
CIRCLE
  5
49
330
20
100
AcDbEntity
  8
100
  6
CONTINUOUS
100
AcDbCircle
 10
127.5020864524199
 20
25.36174186209665
 40
11.0
  0
LINE
  5
4A
330
20
100
AcDbEntity
  8
100
  6
CONTINUOUS
100
AcDbLine
 10
-181.5
 20
-39.71912211437169
 11
-155.5
 21
-39.71912211437169
  0
LINE
  5
4B
330
20
100
AcDbEntity
  8
100
  6
CONTINUOUS
100
AcDbLine
 10
-168.5
 20
-54.61912211437169
 11
-157.86625
 21
-54.61912211437169
  0
LINE
  5
4C
330
20
100
AcDbEntity
  8
100
  6
CONTINUOUS
100
AcDbLine
 10
-159.02825
 20
-54.61912211437169
 11
-159.45325
 21
-68.21912211437169
  0
LINE
  5
4D
330
20
100
AcDbEntity
  8
100
  6
CONTINUOUS
100
AcDbLine
 10
-157.4611728279764
 20
-41.65665260961623
 11
-158.29125
 21
-68.21912211437169
  0
LINE
  5
4E
330
20
100
AcDbEntity
  8
100
  6
CONTINUOUS
100
AcDbLine
 10
-179.5388271720236
 20
-41.65665260961626
 11
-178.70875
 21
-68.21912211437169
  0
LINE
  5
4F
330
20
100
AcDbEntity
  8
100
  6
CONTINUOUS
100
AcDbLine
 10
-177.97175
 20
-54.61912211437169
 11
-177.54675
 21
-68.21912211437169
  0
LINE
  5
50
330
20
100
AcDbEntity
  8
100
  6
CONTINUOUS
100
AcDbLine
 10
-168.5
 20
-54.61912211437169
 11
-179.13375
 21
-54.61912211437169
  0
LINE
  5
51
330
20
100
AcDbEntity
  8
100
  6
CENTER
100
AcDbLine
 10
-168.5
 20
-86.25312967217992
 11
-168.5
 21
-30.46912211437169
  0
LINE
  5
52
330
20
100
AcDbEntity
  8
100
  6
CONTINUOUS
100
AcDbLine
 10
-163.5
 20
-78.21912211437169
 11
-163.5
 21
-68.21912211437169
  0
LINE
  5
53
330
20
100
AcDbEntity
  8
100
  6
CONTINUOUS
100
AcDbLine
 10
-173.5
 20
-78.21912211437169
 11
-173.5
 21
-68.21912211437169
  0
LINE
  5
54
330
20
100
AcDbEntity
  8
100
  6
CONTINUOUS
100
AcDbLine
 10
-178.70875
 20
-68.21912211437169
 11
-158.29125
 21
-68.21912211437169
  0
POLYLINE
  5
55
330
20
100
AcDbEntity
  8
100
  6
CONTINUOUS
100
AcDb2dPolyline
 66
     1
 10
0.0
 20
0.0
 70
     0
 40
0.0
 41
0.0
  0
VERTEX
  5
56
330
20
100
AcDbEntity
  8
100
100
AcDbVertex
100
AcDb2dVertex
 10
-173.5000000000001
 20
-78.21912211437169
  0
VERTEX
  5
57
330
20
100
AcDbEntity
  8
100
100
AcDbVertex
100
AcDb2dVertex
 10
-172.7486958985791
 20
-77.36563961896778
  0
VERTEX
  5
58
330
20
100
AcDbEntity
  8
100
100
AcDbVertex
100
AcDb2dVertex
 10
-172.1052234468685
 20
-76.76973058908936
  0
VERTEX
  5
59
330
20
100
AcDbEntity
  8
100
100
AcDbVertex
100
AcDb2dVertex
 10
-171.5195847275312
 20
-76.38462926703194
  0
VERTEX
  5
5A
330
20
100
AcDbEntity
  8
100
100
AcDbVertex
100
AcDb2dVertex
 10
-171.2514700533517
 20
-76.27439716700626
  0
VERTEX
  5
5B
330
20
100
AcDbEntity
  8
100
100
AcDbVertex
100
AcDb2dVertex
 10
-170.9999999999999
 20
-76.21912211437166
  0
VERTEX
  5
5C
330
20
100
AcDbEntity
  8
100
100
AcDbVertex
100
AcDb2dVertex
 10
-170.7299638151141
 20
-76.22080929500696
  0
VERTEX
  5
5D
330
20
100
AcDbEntity
  8
100
100
AcDbVertex
100
AcDb2dVertex
 10
-170.4570130251429
 20
-76.2874753678588
  0
VERTEX
  5
5E
330
20
100
AcDbEntity
  8
100
100
AcDbVertex
100
AcDb2dVertex
 10
-170.1790933551158
 20
-76.41957917557789
  0
VERTEX
  5
5F
330
20
100
AcDbEntity
  8
100
100
AcDbVertex
100
AcDb2dVertex
 10
-169.8927309125188
 20
-76.61874768398641
  0
VERTEX
  5
60
330
20
100
AcDbEntity
  8
100
100
AcDbVertex
100
AcDb2dVertex
 10
-169.2943469785575
 20
-77.20937552567774
  0
VERTEX
  5
61
330
20
100
AcDbEntity
  8
100
100
AcDbVertex
100
AcDb2dVertex
 10
-168.5
 20
-78.21912211437169
  0
VERTEX
  5
62
330
20
100
AcDbEntity
  8
100
100
AcDbVertex
100
AcDb2dVertex
 10
-167.7056530214425
 20
-79.22886870306564
  0
VERTEX
  5
63
330
20
100
AcDbEntity
  8
100
100
AcDbVertex
100
AcDb2dVertex
 10
-167.1072690874811
 20
-79.81949654475696
  0
VERTEX
  5
64
330
20
100
AcDbEntity
  8
100
100
AcDbVertex
100
AcDb2dVertex
 10
-166.8209066448841
 20
-80.01866505316549
  0
VERTEX
  5
65
330
20
100
AcDbEntity
  8
100
100
AcDbVertex
100
AcDb2dVertex
 10
-166.5429869748569
 20
-80.1507688608846
  0
VERTEX
  5
66
330
20
100
AcDbEntity
  8
100
100
AcDbVertex
100
AcDb2dVertex
 10
-166.2700361848856
 20
-80.21743493373647
  0
VERTEX
  5
67
330
20
100
AcDbEntity
  8
100
100
AcDbVertex
100
AcDb2dVertex
 10
-165.9999999999999
 20
-80.21912211437169
  0
VERTEX
  5
68
330
20
100
AcDbEntity
  8
100
100
AcDbVertex
100
AcDb2dVertex
 10
-165.7485299466481
 20
-80.16384706173707
  0
VERTEX
  5
69
330
20
100
AcDbEntity
  8
100
100
AcDbVertex
100
AcDb2dVertex
 10
-165.4804152724685
 20
-80.05361496171135
  0
VERTEX
  5
6A
330
20
100
AcDbEntity
  8
100
100
AcDbVertex
100
AcDb2dVertex
 10
-164.894776553131
 20
-79.66851363965375
  0
VERTEX
  5
6B
330
20
100
AcDbEntity
  8
100
100
AcDbVertex
100
AcDb2dVertex
 10
-164.2513041014201
 20
-79.07260460977497
  0
VERTEX
  5
6C
330
20
100
AcDbEntity
  8
100
100
AcDbVertex
100
AcDb2dVertex
 10
-163.5
 20
-78.21912211437169
  0
SEQEND
  5
6D
330
20
100
AcDbEntity
  8
100
  0
SPLINE
  5
6E
330
20
100
AcDbEntity
  8
100
  6
CONTINUOUS
100
AcDbSpline
210
0.0
220
0.0
230
1.0
 70
     8
 71
     3
 72
     9
 73
     5
 74
     0
 42
1.000000000000000E-007
 43
1.000000000000000E-007
 40
0.0
 40
0.0
 40
0.0
 40
0.0
 40
3.302058246347646
 40
6.604116492695482
 40
6.604116492695482
 40
6.604116492695482
 40
6.604116492695482
 10
-173.5
 20
-78.21912211437169
 30
0.0
 10
-173.0000000000003
 20
-78.88578878103837
 30
0.0
 10
-171.0
 20
-81.55245544770497
 30
0.0
 10
-169.0
 20
-78.88578878103834
 30
0.0
 10
-168.4999999999999
 20
-78.21912211437169
 30
0.0
  0
LINE
  5
6F
330
20
100
AcDbEntity
  8
100
  6
CONTINUOUS
100
AcDbLine
 10
-151.25
 20
35.59332296467197
 11
-151.25
 21
36.52776506694805
  0
LINE
  5
70
330
20
100
AcDbEntity
  8
100
  6
CONTINUOUS
100
AcDbLine
 10
-186.0
 20
-33.71912211437169
 11
-186.0
 21
33.72000000000001
  0
ARC
  5
71
330
20
100
AcDbEntity
  8
100
  6
CONTINUOUS
100
AcDbCircle
 10
-181.5378513241977
 20
-41.71912211437169
 40
1.999999999999998
100
AcDbArc
 50
1.789910608245662
 51
88.91557469397333
  0
ARC
  5
72
330
20
100
AcDbEntity
  8
100
  6
CONTINUOUS
100
AcDbCircle
 10
-155.4621486758022
 20
-41.71912211437169
 40
2.000000000000001
100
AcDbArc
 50
90.0
 51
178.2100893917536
  0
LINE
  5
73
330
20
100
AcDbEntity
  8
100
  6
CONTINUOUS
100
AcDbLine
 10
-186.0
 20
-33.72
 11
-186.0
 21
33.72000000000001
  0
LINE
  5
74
330
20
100
AcDbEntity
  8
100
  6
CONTINUOUS
100
AcDbLine
 10
-183.0
 20
-33.75
 11
-183.0
 21
33.74999999999999
  0
LINE
  5
75
330
20
100
AcDbEntity
  8
100
  6
CONTINUOUS
100
AcDbLine
 10
-182.9999999999998
 20
33.74999999999999
 11
-151.25
 21
36.52776506694805
  0
LINE
  5
76
330
20
100
AcDbEntity
  8
100
  6
CONTINUOUS
100
AcDbLine
 10
-186.0
 20
33.72000000000001
 11
-183.0
 21
33.72000000000001
  0
LINE
  5
77
330
20
100
AcDbEntity
  8
100
  6
CONTINUOUS
100
AcDbLine
 10
-186.0
 20
-33.72
 11
-183.0
 21
-33.72
  0
LINE
  5
78
330
20
100
AcDbEntity
  8
100
  6
CONTINUOUS
100
AcDbLine
 10
-181.5
 20
-39.71912211437169
 11
-181.5
 21
-33.81680295691825
  0
LINE
  5
79
330
20
100
AcDbEntity
  8
100
  6
CONTINUOUS
100
AcDbLine
 10
-187.3
 20
-27.1137352625837
 11
-186.0
 21
-27.0
  0
LINE
  5
7A
330
20
100
AcDbEntity
  8
100
  6
CONTINUOUS
100
AcDbLine
 10
-187.3
 20
-33.18626473741631
 11
-186.0
 21
-33.30000000000001
  0
ARC
  5
7B
330
20
100
AcDbEntity
  8
100
  6
CONTINUOUS
100
AcDbCircle
 10
-179.9175803702687
 20
-30.15000000000001
 40
7.982419629731323
100
AcDbArc
 50
157.6434605857297
 51
202.3565394142703
  0
ARC
  5
7C
330
20
100
AcDbEntity
  8
100
  6
CONTINUOUS
100
AcDbCircle
 10
-179.9175803702687
 20
30.14999999999996
 40
7.982419629731323
100
AcDbArc
 50
157.6434605857296
 51
202.3565394142701
  0
LINE
  5
7D
330
20
100
AcDbEntity
  8
100
  6
CONTINUOUS
100
AcDbLine
 10
-187.3
 20
27.11373526258369
 11
-186.0
 21
26.99999999999999
  0
LINE
  5
7E
330
20
100
AcDbEntity
  8
100
  6
CONTINUOUS
100
AcDbLine
 10
-187.3
 20
33.1862647374163
 11
-186.0
 21
33.3
  0
LINE
  5
7F
330
20
100
AcDbEntity
  8
100
  6
CONTINUOUS
100
AcDbLine
 10
-182.9999999999999
 20
-33.72
 11
-151.2499999999999
 21
-35.13399592143597
  0
LINE
  5
80
330
20
100
AcDbEntity
  8
100
  6
CONTINUOUS
100
AcDbLine
 10
-151.25
 20
-35.13399592143594
 11
-155.4621486758022
 21
-39.71912211437169
  0
LINE
  5
81
330
20
100
AcDbEntity
  8
100
  6
CONTINUOUS
100
AcDbLine
 10
-151.25
 20
-35.13399592143594
 11
-151.25
 21
-33.8886042793149
  0
LINE
  5
82
330
20
100
AcDbEntity
  8
100
  6
CONTINUOUS
100
AcDbLine
 10
-151.25
 20
33.88860427931491
 11
-151.25
 21
36.52776506694805
  0
LINE
  5
83
330
20
100
AcDbEntity
  8
100
  6
CONTINUOUS
100
AcDbLine
 10
-151.25
 20
-372.5652778625505
 11
-151.25
 21
-332.5652778625505
  0
LINE
  5
84
330
20
100
AcDbEntity
  8
100
  6
CENTER
100
AcDbLine
 10
-182.2476770903001
 20
-352.5652778625505
 11
-153.9498409453765
 21
-352.5652778625505
  0
LINE
  5
85
330
20
100
AcDbEntity
  8
100
  6
CENTER
100
AcDbLine
 10
-168.5
 20
-368.0245884520442
 11
-168.5
 21
-337.7843705528931
  0
LINE
  5
86
330
20
100
AcDbEntity
  8
100
  6
CONTINUOUS
100
AcDbLine
 10
-181.5
 20
-365.5652778625505
 11
-181.5
 21
-339.5652778625505
  0
LINE
  5
87
330
20
100
AcDbEntity
  8
100
  6
CONTINUOUS
100
AcDbLine
 10
-155.5
 20
-365.5652778625505
 11
-155.5
 21
-339.5652778625505
  0
LINE
  5
88
330
20
100
AcDbEntity
  8
100
  6
CONTINUOUS
100
AcDbLine
 10
-181.5
 20
-339.5652778625505
 11
-155.5
 21
-339.5652778625505
  0
LINE
  5
89
330
20
100
AcDbEntity
  8
100
  6
CONTINUOUS
100
AcDbLine
 10
-181.5
 20
-365.5652778625505
 11
-155.5
 21
-365.5652778625505
  0
CIRCLE
  5
8A
330
20
100
AcDbEntity
  8
100
  6
CONTINUOUS
100
AcDbCircle
 10
-168.5
 20
-352.5652778625505
 40
8.0
  0
LINE
  5
8B
330
20
100
AcDbEntity
  8
100
  6
CONTINUOUS
100
AcDbLine
 10
-186.0
 20
-372.1102778625505
 11
-186.0
 21
-333.0202778625504
  0
CIRCLE
  5
8C
330
20
100
AcDbEntity
  8
100
  6
CONTINUOUS
100
AcDbCircle
 10
-168.5
 20
-352.5652778625505
 40
5.0
  0
CIRCLE
  5
8D
330
20
100
AcDbEntity
  8
100
  6
CONTINUOUS
100
AcDbCircle
 10
-168.5
 20
-352.5652778625505
 40
10.20875
  0
LINE
  5
8E
330
20
100
AcDbEntity
  8
100
  6
CONTINUOUS
100
AcDbLine
 10
-183.0
 20
-332.5652778625505
 11
-151.25
 21
-332.5652778625505
  0
LINE
  5
8F
330
20
100
AcDbEntity
  8
100
  6
CONTINUOUS
100
AcDbLine
 10
-183.0
 20
-372.5652778625505
 11
-151.25
 21
-372.5652778625505
  0
LINE
  5
90
330
20
100
AcDbEntity
  8
100
  6
CONTINUOUS
100
AcDbLine
 10
-183.0
 20
-372.5652778625505
 11
-183.0
 21
-332.5652778625505
  0
LINE
  5
91
330
20
100
AcDbEntity
  8
100
  6
CONTINUOUS
100
AcDbLine
 10
-186.0
 20
-333.0202778625504
 11
-183.0
 21
-333.0202778625504
  0
LINE
  5
92
330
20
100
AcDbEntity
  8
100
  6
CONTINUOUS
100
AcDbLine
 10
-186.0
 20
-372.1102778625505
 11
-183.0
 21
-372.1102778625505
  0
LINE
  5
93
330
20
100
AcDbEntity
  8
100
  6
CONTINUOUS
100
AcDbLine
 10
-186.0
 20
-372.3652778625504
 11
-186.0
 21
-372.1102778625505
  0
LINE
  5
94
330
20
100
AcDbEntity
  8
100
  6
CONTINUOUS
100
AcDbLine
 10
-187.3
 20
-372.2515425999668
 11
-186.0
 21
-372.3652778625504
  0
LINE
  5
95
330
20
100
AcDbEntity
  8
100
  6
CONTINUOUS
100
AcDbLine
 10
-187.3
 20
-366.1790131251341
 11
-186.0
 21
-366.0652778625505
  0
ARC
  5
96
330
20
100
AcDbEntity
  8
100
  6
CONTINUOUS
100
AcDbCircle
 10
-179.9175803702686
 20
-369.2152778625505
 40
7.982419629731341
100
AcDbArc
 50
157.6434605857297
 51
202.3565394142703
  0
LINE
  5
97
330
20
100
AcDbEntity
  8
100
  6
CONTINUOUS
100
AcDbLine
 10
-187.3
 20
-338.9515425999667
 11
-186.0
 21
-339.0652778625505
  0
LINE
  5
98
330
20
100
AcDbEntity
  8
100
  6
CONTINUOUS
100
AcDbLine
 10
-187.3
 20
-332.8790131251342
 11
-186.0
 21
-332.7652778625504
  0
ARC
  5
99
330
20
100
AcDbEntity
  8
100
  6
CONTINUOUS
100
AcDbCircle
 10
-179.9175803702686
 20
-335.9152778625504
 40
7.982419629731341
100
AcDbArc
 50
157.6434605857305
 51
202.3565394142703
  0
LINE
  5
9A
330
20
100
AcDbEntity
  8
100
  6
CONTINUOUS
100
AcDbLine
 10
-186.0
 20
-333.0202778625504
 11
-186.0
 21
-332.7652778625504
  0
LINE
  5
9B
330
20
100
AcDbEntity
  8
100
  6
CONTINUOUS
100
AcDbLine
 10
-155.0
 20
-417.5652778625505
 11
-155.0
 21
-372.5652778625505
  0
LINE
  5
9C
330
20
100
AcDbEntity
  8
100
  6
CONTINUOUS
100
AcDbLine
 10
-155.0
 20
-332.5652778625505
 11
-155.0
 21
-277.5652778625505
  0
LINE
  5
9D
330
20
100
AcDbEntity
  8
100
  6
CONTINUOUS
100
AcDbLine
 10
155.0
 20
-417.5652778625505
 11
155.0
 21
-277.5652778625505
  0
LINE
  5
9E
330
20
100
AcDbEntity
  8
100
  6
CONTINUOUS
100
AcDbLine
 10
-155.0
 20
-277.5652778625505
 11
155.0
 21
-277.5652778625505
  0
LINE
  5
9F
330
20
100
AcDbEntity
  8
100
  6
CONTINUOUS
100
AcDbLine
 10
-155.0
 20
-417.5652778625505
 11
155.0
 21
-417.5652778625505
  0
LINE
  5
A0
330
20
100
AcDbEntity
  8
100
  6
DASHED
100
AcDbLine
 10
69.0
 20
-410.3652778625504
 11
106.0
 21
-410.3652778625504
  0
LINE
  5
A1
330
20
100
AcDbEntity
  8
100
  6
DASHED
100
AcDbLine
 10
106.0
 20
-417.5652778625505
 11
106.0
 21
-410.3652778625504
  0
LINE
  5
A2
330
20
100
AcDbEntity
  8
100
  6
DASHED
100
AcDbLine
 10
106.0
 20
-283.7652778625504
 11
106.0
 21
-277.5652778625505
  0
LINE
  5
A3
330
20
100
AcDbEntity
  8
100
  6
DASHED
100
AcDbLine
 10
69.0
 20
-416.3652778625504
 11
69.0
 21
-410.3652778625504
  0
LINE
  5
A4
330
20
100
AcDbEntity
  8
100
  6
DASHED
100
AcDbLine
 10
-69.0
 20
-416.3652778625504
 11
-69.0
 21
-410.3652778625504
  0
LINE
  5
A5
330
20
100
AcDbEntity
  8
100
  6
DASHED
100
AcDbLine
 10
-106.0
 20
-417.5652778625505
 11
-106.0
 21
-410.3652778625504
  0
LINE
  5
A6
330
20
100
AcDbEntity
  8
100
  6
DASHED
100
AcDbLine
 10
-106.0
 20
-283.7652778625504
 11
-106.0
 21
-277.5652778625505
  0
LINE
  5
A7
330
20
100
AcDbEntity
  8
100
  6
DASHED
100
AcDbLine
 10
-106.0
 20
-410.3652778625504
 11
-69.0
 21
-410.3652778625504
  0
LINE
  5
A8
330
20
100
AcDbEntity
  8
100
  6
DASHED
100
AcDbLine
 10
-69.0
 20
-416.3652778625504
 11
69.0
 21
-416.3652778625504
  0
LINE
  5
A9
330
20
100
AcDbEntity
  8
100
  6
DASHED
100
AcDbLine
 10
69.0
 20
-283.7652778625504
 11
69.0
 21
-277.5652778625505
  0
LINE
  5
AA
330
20
100
AcDbEntity
  8
100
  6
DASHED
100
AcDbLine
 10
-69.0
 20
-283.7652778625504
 11
-69.0
 21
-277.5652778625505
  0
LINE
  5
AB
330
20
100
AcDbEntity
  8
100
  6
CENTER
100
AcDbLine
 10
0.0
 20
-428.8959655480918
 11
0.0
 21
-266.4667964732263
  0
LINE
  5
AC
330
20
100
AcDbEntity
  8
100
  6
DASHED
100
AcDbLine
 10
-106.0
 20
-283.7652778625504
 11
-69.0
 21
-283.7652778625504
  0
LINE
  5
AD
330
20
100
AcDbEntity
  8
100
  6
DASHED
100
AcDbLine
 10
69.0
 20
-283.7652778625504
 11
106.0
 21
-283.7652778625504
  0
LINE
  5
AE
330
20
100
AcDbEntity
  8
100
  6
CENTER
100
AcDbLine
 10
-175.0
 20
0.0
 11
175.0
 21
0.0
  0
LINE
  5
AF
330
20
100
AcDbEntity
  8
100
  6
CENTER
100
AcDbLine
 10
0.0
 20
-175.0
 11
0.0
 21
175.0
  0
LINE
  5
B0
330
20
100
AcDbEntity
  8
100
  6
CONTINUOUS
100
AcDbLine
 10
-112.6675823247111
 20
-347.5651660414429
 11
-111.6521607493557
 21
-337.9916796188166
  0
LINE
  5
B1
330
20
100
AcDbEntity
  8
100
  6
CONTINUOUS
100
AcDbLine
 10
-112.6675823247111
 20
-347.5651660414429
 11
-111.6521607493558
 21
-357.1386524640693
  0
ARC
  5
B2
330
20
100
AcDbEntity
  8
100
  6
CONTINUOUS
100
AcDbCircle
 10
-135.4109485972238
 20
-135.4109485972239
 40
4.000000000000012
100
AcDbArc
 50
134.9999999999989
 51
315.0000000000006
  0
LINE
  5
B3
330
20
100
AcDbEntity
  8
100
  6
CONTINUOUS
100
AcDbLine
 10
-112.4244896352188
 20
-106.7676353857265
 11
-138.23937572197
 21
-132.5825214724776
  0
LINE
  5
B4
330
20
100
AcDbEntity
  8
100
  6
CONTINUOUS
100
AcDbLine
 10
-106.7676353857263
 20
-112.4244896352189
 11
-132.5825214724776
 21
-138.2393757219701
  0
LINE
  5
B5
330
20
100
AcDbEntity
  8
100
  6
CONTINUOUS
100
AcDbLine
 10
-111.6521607493557
 20
-117.3090149988483
 11
-107.1193971477409
 21
-120.6593185304766
  0
LINE
  5
B6
330
20
100
AcDbEntity
  8
100
  6
CONTINUOUS
100
AcDbLine
 10
-106.4686482266057
 20
-120.6107838503367
 11
-102.3021464592713
 21
-116.4442820830023
  0
ARC
  5
B7
330
20
100
AcDbEntity
  8
100
  6
CONTINUOUS
100
AcDbCircle
 10
-106.822201617199
 20
-120.2572304597435
 40
0.499999999999993
100
AcDbArc
 50
233.5307656099481
 51
315.0000000000035
  0
LINE
  5
B8
330
20
100
AcDbEntity
  8
100
  6
CONTINUOUS
100
AcDbLine
 10
-120.6107838503367
 20
-106.4686482266058
 11
-116.4442820830022
 21
-102.3021464592713
  0
ARC
  5
B9
330
20
100
AcDbEntity
  8
100
  6
CONTINUOUS
100
AcDbCircle
 10
-120.2572304597434
 20
-106.8222016171991
 40
0.5000000000000014
100
AcDbArc
 50
135.0
 51
216.4692343900519
  0
LINE
  5
BA
330
20
100
AcDbEntity
  8
100
  6
CONTINUOUS
100
AcDbLine
 10
-117.3090149988482
 20
-111.6521607493558
 11
-120.6593185304766
 21
-107.119397147741
  0
ARC
  5
BB
330
20
100
AcDbEntity
  8
100
  6
CONTINUOUS
100
AcDbCircle
 10
120.2572304597435
 20
-106.822201617199
 40
0.499999999999993
100
AcDbArc
 50
323.5307656099482
 51
45.00000000000345
  0
LINE
  5
BC
330
20
100
AcDbEntity
  8
100
  6
CONTINUOUS
100
AcDbLine
 10
117.3090149988483
 20
-111.6521607493557
 11
120.6593185304766
 21
-107.1193971477409
  0
LINE
  5
BD
330
20
100
AcDbEntity
  8
100
  6
CONTINUOUS
100
AcDbLine
 10
112.4244896352189
 20
-106.7676353857263
 11
138.2393757219701
 21
-132.5825214724776
  0
LINE
  5
BE
330
20
100
AcDbEntity
  8
100
  6
CONTINUOUS
100
AcDbLine
 10
120.6107838503367
 20
-106.4686482266057
 11
116.4442820830023
 21
-102.3021464592713
  0
ARC
  5
BF
330
20
100
AcDbEntity
  8
100
  6
CONTINUOUS
100
AcDbCircle
 10
135.4109485972239
 20
-135.4109485972238
 40
4.000000000000012
100
AcDbArc
 50
224.9999999999988
 51
45.00000000000058
  0
LINE
  5
C0
330
20
100
AcDbEntity
  8
100
  6
CONTINUOUS
100
AcDbLine
 10
106.7676353857265
 20
-112.4244896352188
 11
132.5825214724776
 21
-138.23937572197
  0
LINE
  5
C1
330
20
100
AcDbEntity
  8
100
  6
CONTINUOUS
100
AcDbLine
 10
111.6521607493558
 20
-117.3090149988482
 11
107.119397147741
 21
-120.6593185304766
  0
ARC
  5
C2
330
20
100
AcDbEntity
  8
100
  6
CONTINUOUS
100
AcDbCircle
 10
106.8222016171991
 20
-120.2572304597434
 40
0.5000000000000014
100
AcDbArc
 50
225.0
 51
306.4692343900518
  0
LINE
  5
C3
330
20
100
AcDbEntity
  8
100
  6
CONTINUOUS
100
AcDbLine
 10
106.4686482266058
 20
-120.6107838503367
 11
102.3021464592713
 21
-116.4442820830022
  0
ARC
  5
C4
330
20
100
AcDbEntity
  8
100
  6
CONTINUOUS
100
AcDbCircle
 10
106.822201617199
 20
120.2572304597435
 40
0.499999999999993
100
AcDbArc
 50
53.53076560994813
 51
135.0000000000035
  0
LINE
  5
C5
330
20
100
AcDbEntity
  8
100
  6
CONTINUOUS
100
AcDbLine
 10
111.6521607493557
 20
117.3090149988483
 11
107.1193971477409
 21
120.6593185304766
  0
LINE
  5
C6
330
20
100
AcDbEntity
  8
100
  6
CONTINUOUS
100
AcDbLine
 10
106.7676353857263
 20
112.4244896352189
 11
132.5825214724776
 21
138.2393757219701
  0
LINE
  5
C7
330
20
100
AcDbEntity
  8
100
  6
CONTINUOUS
100
AcDbLine
 10
106.4686482266057
 20
120.6107838503367
 11
102.3021464592713
 21
116.4442820830023
  0
ARC
  5
C8
330
20
100
AcDbEntity
  8
100
  6
CONTINUOUS
100
AcDbCircle
 10
135.4109485972238
 20
135.4109485972239
 40
4.000000000000012
100
AcDbArc
 50
314.9999999999989
 51
135.0000000000006
  0
LINE
  5
C9
330
20
100
AcDbEntity
  8
100
  6
CONTINUOUS
100
AcDbLine
 10
112.4244896352188
 20
106.7676353857265
 11
138.23937572197
 21
132.5825214724776
  0
LINE
  5
CA
330
20
100
AcDbEntity
  8
100
  6
CONTINUOUS
100
AcDbLine
 10
117.3090149988482
 20
111.6521607493558
 11
120.6593185304766
 21
107.119397147741
  0
ARC
  5
CB
330
20
100
AcDbEntity
  8
100
  6
CONTINUOUS
100
AcDbCircle
 10
120.2572304597434
 20
106.8222016171991
 40
0.5000000000000014
100
AcDbArc
 50
315.0
 51
36.46923439005187
  0
LINE
  5
CC
330
20
100
AcDbEntity
  8
100
  6
CONTINUOUS
100
AcDbLine
 10
120.6107838503367
 20
106.4686482266058
 11
116.4442820830022
 21
102.3021464592713
  0
ARC
  5
CD
330
20
100
AcDbEntity
  8
100
  6
CONTINUOUS
100
AcDbCircle
 10
-120.2572304597435
 20
106.822201617199
 40
0.499999999999993
100
AcDbArc
 50
143.5307656099481
 51
225.0000000000034
  0
LINE
  5
CE
330
20
100
AcDbEntity
  8
100
  6
CONTINUOUS
100
AcDbLine
 10
-117.3090149988483
 20
111.6521607493557
 11
-120.6593185304766
 21
107.1193971477409
  0
LINE
  5
CF
330
20
100
AcDbEntity
  8
100
  6
CONTINUOUS
100
AcDbLine
 10
-112.4244896352189
 20
106.7676353857263
 11
-138.2393757219701
 21
132.5825214724776
  0
LINE
  5
D0
330
20
100
AcDbEntity
  8
100
  6
CONTINUOUS
100
AcDbLine
 10
-120.6107838503367
 20
106.4686482266057
 11
-116.4442820830023
 21
102.3021464592713
  0
ARC
  5
D1
330
20
100
AcDbEntity
  8
100
  6
CONTINUOUS
100
AcDbCircle
 10
-135.4109485972239
 20
135.4109485972238
 40
4.000000000000012
100
AcDbArc
 50
44.99999999999885
 51
225.0000000000006
  0
LINE
  5
D2
330
20
100
AcDbEntity
  8
100
  6
CONTINUOUS
100
AcDbLine
 10
-106.7676353857265
 20
112.4244896352188
 11
-132.5825214724776
 21
138.23937572197
  0
LINE
  5
D3
330
20
100
AcDbEntity
  8
100
  6
CONTINUOUS
100
AcDbLine
 10
-111.6521607493558
 20
117.3090149988482
 11
-107.119397147741
 21
120.6593185304766
  0
ARC
  5
D4
330
20
100
AcDbEntity
  8
100
  6
CONTINUOUS
100
AcDbCircle
 10
-106.8222016171991
 20
120.2572304597434
 40
0.5000000000000014
100
AcDbArc
 50
45.0
 51
126.4692343900519
  0
LINE
  5
D5
330
20
100
AcDbEntity
  8
100
  6
CONTINUOUS
100
AcDbLine
 10
-106.4686482266058
 20
120.6107838503367
 11
-102.3021464592713
 21
116.4442820830022
  0
SPLINE
  5
D6
330
20
100
AcDbEntity
  8
100
  6
CONTINUOUS
100
AcDbSpline
210
0.0
220
0.0
230
1.0
 70
     8
 71
     3
 72
     8
 73
     4
 74
     0
 42
1.000000000000000E-007
 43
1.000000000000000E-007
 40
0.0
 40
0.0
 40
0.0
 40
0.0
 40
2.137219212831107
 40
2.137219212831107
 40
2.137219212831107
 40
2.137219212831107
 10
-109.6015510839148
 20
-337.5651660414429
 30
0.0
 10
-110.3254077861792
 20
-337.5651660414429
 30
0.0
 10
-111.0246573412421
 20
-337.7094889473653
 30
0.0
 10
-111.6848019675821
 20
-337.9782747845235
 30
0.0
  0
SPLINE
  5
D7
330
20
100
AcDbEntity
  8
100
  6
CONTINUOUS
100
AcDbSpline
210
0.0
220
0.0
230
1.0
 70
     8
 71
     3
 72
    31
 73
    27
 74
     0
 42
1.000000000000000E-007
 43
1.000000000000000E-007
 40
0.0
 40
0.0
 40
0.0
 40
0.0
 40
0.2668381603342883
 40
0.5329981241542348
 40
0.7988312262947204
 40
1.064715576179141
 40
1.331055435047927
 40
1.598280211555822
 40
1.866843076382717
 40
2.137219212650937
 40
3.62703888161757
 40
5.12001739683515
 40
6.668399539580936
 40
8.301365678913191
 40
10.03119069757166
 40
11.86023333878753
 40
13.78675883811276
 40
15.80940836595749
 40
17.83205789380217
 40
19.75858339312739
 40
21.58762603434327
 40
23.31745105300169
 40
24.95041719233403
 40
26.49879933507982
 40
27.9917778502974
 40
29.48159751926403
 40
29.48159751926403
 40
29.48159751926403
 40
29.48159751926403
 10
-111.6848019675821
 20
-357.1520572983624
 30
0.0
 10
-111.6022838892895
 20
-357.1856555280072
 30
0.0
 10
-111.436025703682
 20
-357.2489625206956
 30
0.0
 10
-111.1831422340799
 20
-357.3320218758464
 30
0.0
 10
-110.9269324691657
 20
-357.4029473630371
 30
0.0
 10
-110.6675663048143
 20
-357.4615062481896
 30
0.0
 10
-110.405213636904
 20
-357.5074657972252
 30
0.0
 10
-110.1400443613106
 20
-357.5405932760659
 30
0.0
 10
-109.8722283739128
 20
-357.5606559506329
 30
0.0
 10
-109.1865729696499
 20
-357.5778171630271
 30
0.0
 10
-108.1135264983633
 20
-357.4252550257651
 30
0.0
 10
-106.7383491693235
 20
-356.8358678478523
 30
0.0
 10
-105.4934466848651
 20
-355.9071724081809
 30
0.0
 10
-104.4081740916141
 20
-354.6793810993888
 30
0.0
 10
-103.5118864361961
 20
-353.1927063141137
 30
0.0
 10
-102.8339387652361
 20
-351.487360444993
 30
0.0
 10
-102.4036861253597
 20
-349.6035558846642
 30
0.0
 10
-102.2492456248634
 20
-347.5651660414429
 30
0.0
 10
-102.4036861253597
 20
-345.5267761982217
 30
0.0
 10
-102.8339387652361
 20
-343.642971637893
 30
0.0
 10
-103.511886436196
 20
-341.9376257687723
 30
0.0
 10
-104.4081740916141
 20
-340.4509509834972
 30
0.0
 10
-105.4934466848651
 20
-339.223159674705
 30
0.0
 10
-106.7383491693235
 20
-338.2944642350336
 30
0.0
 10
-108.1135264983633
 20
-337.7050770571208
 30
0.0
 10
-109.0975912496942
 20
-337.5651660414429
 30
0.0
 10
-109.6015510839148
 20
-337.5651660414429
 30
0.0
  0
ELLIPSE
  5
D8
330
20
100
AcDbEntity
  8
100
  6
CONTINUOUS
100
AcDbEllipse
 10
-123.74368671197
 20
-347.5651660414429
 11
0.0
 21
12.5
 40
0.6136000000000013
 41
9.978865334276195E-017
 42
6.283185307179586
  0
SPLINE
  5
D9
330
20
100
AcDbEntity
  8
100
  6
CONTINUOUS
100
AcDbSpline
210
0.0
220
0.0
230
1.0
 70
     8
 71
     3
 72
     8
 73
     4
 74
     0
 42
1.000000000000000E-007
 43
1.000000000000000E-007
 40
0.0
 40
0.0
 40
0.0
 40
0.0
 40
18.27370575530749
 40
18.27370575530749
 40
18.27370575530749
 40
18.27370575530749
 10
-110.0612941590062
 20
-337.5651660414428
 30
0.0
 10
-112.7424668123955
 20
-331.3000982989923
 30
0.0
 10
-117.8650393776502
 20
-327.0651660414429
 30
0.0
 10
-123.74368671197
 20
-327.0651660414429
 30
0.0
  0
SPLINE
  5
DA
330
20
100
AcDbEntity
  8
100
  6
CONTINUOUS
100
AcDbSpline
210
0.0
220
0.0
230
1.0
 70
     8
 71
     3
 72
    31
 73
    27
 74
     0
 42
1.000000000000000E-007
 43
1.000000000000000E-007
 40
0.0
 40
0.0
 40
0.0
 40
0.0
 40
3.194531501394745
 40
6.377137385521604
 40
9.648213904770159
 40
13.06598478529538
 40
16.65754303856712
 40
20.43180392003092
 40
24.39079557425573
 40
28.53866528209456
 40
32.68653498993339
 40
36.6455266441582
 40
40.419787525622
 40
44.01134577889373
 40
47.42911665941896
 40
50.70019317866751
 40
53.88279906279437
 40
57.07733056418911
 40
59.25468947674264
 40
61.40814340636647
 40
63.57609614709565
 40
65.78710560107488
 40
68.06064538438641
 40
70.40874128103027
 40
72.83790954895122
 40
75.35103632020731
 40
75.35103632020731
 40
75.35103632020731
 40
75.35103632020731
 10
-123.74368671197
 20
-327.0651660414429
 30
0.0
 10
-124.8254744657011
 20
-327.0651660414429
 30
0.0
 10
-126.9378435962979
 20
-327.3519836235826
 30
0.0
 10
-129.8897653423329
 20
-328.5602273383039
 30
0.0
 10
-132.562042319245
 20
-330.4640529896298
 30
0.0
 10
-134.8916617077712
 20
-332.9810251726533
 30
0.0
 10
-136.8156106886486
 20
-336.028708482468
 30
0.0
 10
-138.2708764426135
 20
-339.5246675141655
 30
0.0
 10
-139.1944461504028
 20
-343.3864668628395
 30
0.0
 10
-139.5259643206461
 20
-347.5651660414429
 30
0.0
 10
-139.1944461504028
 20
-351.7438652200463
 30
0.0
 10
-138.2708764426135
 20
-355.6056645687203
 30
0.0
 10
-136.8156106886486
 20
-359.1016236004178
 30
0.0
 10
-134.8916617077712
 20
-362.1493069102326
 30
0.0
 10
-132.562042319245
 20
-364.6662790932561
 30
0.0
 10
-129.8897653423329
 20
-366.570104744582
 30
0.0
 10
-126.9378435962979
 20
-367.7783484593032
 30
0.0
 10
-124.0940300191194
 20
-368.1644816035761
 30
0.0
 10
-121.5628212981334
 20
-367.9328244083945
 30
0.0
 10
-119.4844014661805
 20
-367.363124521856
 30
0.0
 10
-117.5163634518617
 20
-366.4480746605314
 30
0.0
 10
-115.6784571591945
 20
-365.2135122865998
 30
0.0
 10
-113.9904324921957
 20
-363.6852748622407
 30
0.0
 10
-112.4720393548833
 20
-361.8891998496345
 30
0.0
 10
-111.1430276512732
 20
-359.851124710959
 30
0.0
 10
-110.3964407406799
 20
-358.3482995092492
 30
0.0
 10
-110.0612941590062
 20
-357.5651660414429
 30
0.0
  0
SPLINE
  5
DB
330
20
100
AcDbEntity
  8
100
  6
CONTINUOUS
100
AcDbSpline
210
0.0
220
0.0
230
1.0
 70
     8
 71
     3
 72
    23
 73
    19
 74
     0
 42
1.000000000000000E-007
 43
1.000000000000000E-007
 40
0.0
 40
0.0
 40
0.0
 40
0.0
 40
0.9963998374795167
 40
2.02866453277135
 40
3.09815782678937
 40
4.205141210907528
 40
5.349264766339188
 40
6.529981298911079
 40
7.746896902288968
 40
9.000070637906459
 40
10.25324437352395
 40
11.47015997690184
 40
12.65087650947374
 40
13.7950000649054
 40
14.90198344902355
 40
15.97147674304158
 40
17.00374143833352
 40
18.00014127581297
 40
18.00014127581297
 40
18.00014127581297
 40
18.00014127581297
 10
-117.9521125117255
 20
-339.369675536956
 30
0.0
 10
-118.1876226777818
 20
-339.5957192821641
 30
0.0
 10
-118.6382610624764
 20
-340.0849366005758
 30
0.0
 10
-119.24628017976
 20
-340.9208471066947
 30
0.0
 10
-119.7795682197807
 20
-341.8495371858293
 30
0.0
 10
-120.231332565035
 20
-342.8617018824954
 30
0.0
 10
-120.5947805980179
 20
-343.9480362412065
 30
0.0
 10
-120.8631197012253
 20
-345.0992353064772
 30
0.0
 10
-121.0295572571532
 20
-346.3059941228233
 30
0.0
 10
-121.0875844453034
 20
-347.5651660414429
 30
0.0
 10
-121.0295572571532
 20
-348.8243379600625
 30
0.0
 10
-120.8631197012253
 20
-350.0310967764086
 30
0.0
 10
-120.5947805980178
 20
-351.1822958416795
 30
0.0
 10
-120.231332565035
 20
-352.2686302003905
 30
0.0
 10
-119.7795682197807
 20
-353.2807948970566
 30
0.0
 10
-119.2462801797601
 20
-354.2094849761908
 30
0.0
 10
-118.6382610624766
 20
-355.0453954823099
 30
0.0
 10
-118.1876226777818
 20
-355.5346128007218
 30
0.0
 10
-117.9521125117255
 20
-355.7606565459299
 30
0.0
  0
SPLINE
  5
DC
330
20
100
AcDbEntity
  8
100
  6
CONTINUOUS
100
AcDbSpline
210
0.0
220
0.0
230
1.0
 70
     8
 71
     3
 72
    23
 73
    19
 74
     0
 42
1.000000000000000E-007
 43
1.000000000000000E-007
 40
0.0
 40
0.0
 40
0.0
 40
0.0
 40
1.232832381226228
 40
2.509915840181573
 40
3.845015725668046
 40
5.244647888247141
 40
6.710674718349543
 40
8.242528452923764
 40
9.839001688713388
 40
11.49968336450525
 40
13.16036504029711
 40
14.75683827608673
 40
16.28869201066095
 40
17.75471884076335
 40
19.15435100334244
 40
20.4894508888289
 40
21.76653434778424
 40
22.99936672901043
 40
22.99936672901043
 40
22.99936672901043
 40
22.99936672901043
 10
-111.6521607493558
 20
-357.1386524640693
 30
0.0
 10
-111.2771743025638
 20
-356.983337979425
 30
0.0
 10
-110.5526912605598
 20
-356.5922855456564
 30
0.0
 10
-109.5584738429967
 20
-355.786405803895
 30
0.0
 10
-108.6728011615766
 20
-354.7831942733553
 30
0.0
 10
-107.9117108070023
 20
-353.6046202563694
 30
0.0
 10
-107.2912403699746
 20
-352.2726530552666
 30
0.0
 10
-106.8274274411957
 20
-350.8092619723796
 30
0.0
 10
-106.5363096113671
 20
-349.2364163100388
 30
0.0
 10
-106.4332511252824
 20
-347.5651660414429
 30
0.0
 10
-106.5363096113671
 20
-345.8939157728471
 30
0.0
 10
-106.8274274411957
 20
-344.3210701105062
 30
0.0
 10
-107.2912403699746
 20
-342.8576790276193
 30
0.0
 10
-107.9117108070023
 20
-341.5257118265166
 30
0.0
 10
-108.6728011615766
 20
-340.3471378095305
 30
0.0
 10
-109.5584738429966
 20
-339.3439262789909
 30
0.0
 10
-110.5526912605599
 20
-338.5380465372293
 30
0.0
 10
-111.2771743025637
 20
-338.1469941034609
 30
0.0
 10
-111.6521607493557
 20
-337.9916796188166
 30
0.0
  0
ELLIPSE
  5
DD
330
20
100
AcDbEntity
  8
100
  6
CONTINUOUS
100
AcDbEllipse
 10
123.74368671197
 20
-347.5651660414429
 11
0.0
 21
12.5
 40
0.6136000000000013
 41
9.978865334276195E-017
 42
6.283185307179586
  0
LINE
  5
DE
330
20
100
AcDbEntity
  8
100
  6
CONTINUOUS
100
AcDbLine
 10
112.6675823247111
 20
-347.5651660414429
 11
111.6521607493558
 21
-357.1386524640693
  0
LINE
  5
DF
330
20
100
AcDbEntity
  8
100
  6
CONTINUOUS
100
AcDbLine
 10
112.6675823247111
 20
-347.5651660414429
 11
111.6521607493557
 21
-337.9916796188166
  0
SPLINE
  5
E0
330
20
100
AcDbEntity
  8
100
  6
CONTINUOUS
100
AcDbSpline
210
0.0
220
0.0
230
1.0
 70
     8
 71
     3
 72
     8
 73
     4
 74
     0
 42
1.000000000000000E-007
 43
1.000000000000000E-007
 40
0.0
 40
0.0
 40
0.0
 40
0.0
 40
18.27370575530749
 40
18.27370575530749
 40
18.27370575530749
 40
18.27370575530749
 10
110.0612941590062
 20
-337.5651660414428
 30
0.0
 10
112.7424668123955
 20
-331.3000982989923
 30
0.0
 10
117.8650393776502
 20
-327.0651660414429
 30
0.0
 10
123.74368671197
 20
-327.0651660414429
 30
0.0
  0
SPLINE
  5
E1
330
20
100
AcDbEntity
  8
100
  6
CONTINUOUS
100
AcDbSpline
210
0.0
220
0.0
230
1.0
 70
     8
 71
     3
 72
    31
 73
    27
 74
     0
 42
1.000000000000000E-007
 43
1.000000000000000E-007
 40
0.0
 40
0.0
 40
0.0
 40
0.0
 40
3.194531501394745
 40
6.377137385521604
 40
9.648213904770159
 40
13.06598478529538
 40
16.65754303856712
 40
20.43180392003092
 40
24.39079557425573
 40
28.53866528209456
 40
32.68653498993339
 40
36.6455266441582
 40
40.419787525622
 40
44.01134577889373
 40
47.42911665941896
 40
50.70019317866751
 40
53.88279906279437
 40
57.07733056418911
 40
59.25468947674264
 40
61.40814340636647
 40
63.57609614709565
 40
65.78710560107488
 40
68.06064538438641
 40
70.40874128103027
 40
72.83790954895122
 40
75.35103632020731
 40
75.35103632020731
 40
75.35103632020731
 40
75.35103632020731
 10
123.74368671197
 20
-327.0651660414429
 30
0.0
 10
124.8254744657011
 20
-327.0651660414429
 30
0.0
 10
126.9378435962979
 20
-327.3519836235826
 30
0.0
 10
129.8897653423329
 20
-328.5602273383039
 30
0.0
 10
132.562042319245
 20
-330.4640529896298
 30
0.0
 10
134.8916617077712
 20
-332.9810251726533
 30
0.0
 10
136.8156106886486
 20
-336.028708482468
 30
0.0
 10
138.2708764426135
 20
-339.5246675141655
 30
0.0
 10
139.1944461504028
 20
-343.3864668628395
 30
0.0
 10
139.5259643206461
 20
-347.5651660414429
 30
0.0
 10
139.1944461504028
 20
-351.7438652200463
 30
0.0
 10
138.2708764426135
 20
-355.6056645687203
 30
0.0
 10
136.8156106886486
 20
-359.1016236004178
 30
0.0
 10
134.8916617077712
 20
-362.1493069102326
 30
0.0
 10
132.562042319245
 20
-364.6662790932561
 30
0.0
 10
129.8897653423329
 20
-366.570104744582
 30
0.0
 10
126.9378435962979
 20
-367.7783484593032
 30
0.0
 10
124.0940300191194
 20
-368.1644816035761
 30
0.0
 10
121.5628212981334
 20
-367.9328244083945
 30
0.0
 10
119.4844014661805
 20
-367.363124521856
 30
0.0
 10
117.5163634518617
 20
-366.4480746605314
 30
0.0
 10
115.6784571591945
 20
-365.2135122865998
 30
0.0
 10
113.9904324921957
 20
-363.6852748622407
 30
0.0
 10
112.4720393548833
 20
-361.8891998496345
 30
0.0
 10
111.1430276512732
 20
-359.851124710959
 30
0.0
 10
110.3964407406799
 20
-358.3482995092492
 30
0.0
 10
110.0612941590062
 20
-357.5651660414429
 30
0.0
  0
SPLINE
  5
E2
330
20
100
AcDbEntity
  8
100
  6
CONTINUOUS
100
AcDbSpline
210
0.0
220
0.0
230
1.0
 70
     8
 71
     3
 72
    31
 73
    27
 74
     0
 42
1.000000000000000E-007
 43
1.000000000000000E-007
 40
0.0
 40
0.0
 40
0.0
 40
0.0
 40
0.2668381603342883
 40
0.5329981241542348
 40
0.7988312262947204
 40
1.064715576179141
 40
1.331055435047927
 40
1.598280211555822
 40
1.866843076382717
 40
2.137219212650937
 40
3.62703888161757
 40
5.12001739683515
 40
6.668399539580936
 40
8.301365678913191
 40
10.03119069757166
 40
11.86023333878753
 40
13.78675883811276
 40
15.80940836595749
 40
17.83205789380217
 40
19.75858339312739
 40
21.58762603434327
 40
23.31745105300169
 40
24.95041719233403
 40
26.49879933507982
 40
27.9917778502974
 40
29.48159751926403
 40
29.48159751926403
 40
29.48159751926403
 40
29.48159751926403
 10
111.6848019675821
 20
-357.1520572983624
 30
0.0
 10
111.6022838892895
 20
-357.1856555280072
 30
0.0
 10
111.436025703682
 20
-357.2489625206956
 30
0.0
 10
111.1831422340799
 20
-357.3320218758464
 30
0.0
 10
110.9269324691657
 20
-357.4029473630371
 30
0.0
 10
110.6675663048143
 20
-357.4615062481896
 30
0.0
 10
110.405213636904
 20
-357.5074657972252
 30
0.0
 10
110.1400443613106
 20
-357.5405932760659
 30
0.0
 10
109.8722283739128
 20
-357.5606559506329
 30
0.0
 10
109.1865729696499
 20
-357.5778171630271
 30
0.0
 10
108.1135264983633
 20
-357.4252550257651
 30
0.0
 10
106.7383491693235
 20
-356.8358678478523
 30
0.0
 10
105.4934466848651
 20
-355.9071724081809
 30
0.0
 10
104.4081740916141
 20
-354.6793810993888
 30
0.0
 10
103.5118864361961
 20
-353.1927063141137
 30
0.0
 10
102.8339387652361
 20
-351.487360444993
 30
0.0
 10
102.4036861253597
 20
-349.6035558846642
 30
0.0
 10
102.2492456248634
 20
-347.5651660414429
 30
0.0
 10
102.4036861253597
 20
-345.5267761982217
 30
0.0
 10
102.8339387652361
 20
-343.642971637893
 30
0.0
 10
103.511886436196
 20
-341.9376257687723
 30
0.0
 10
104.4081740916141
 20
-340.4509509834972
 30
0.0
 10
105.4934466848651
 20
-339.223159674705
 30
0.0
 10
106.7383491693235
 20
-338.2944642350336
 30
0.0
 10
108.1135264983633
 20
-337.7050770571208
 30
0.0
 10
109.0975912496942
 20
-337.5651660414429
 30
0.0
 10
109.6015510839148
 20
-337.5651660414429
 30
0.0
  0
SPLINE
  5
E3
330
20
100
AcDbEntity
  8
100
  6
CONTINUOUS
100
AcDbSpline
210
0.0
220
0.0
230
1.0
 70
     8
 71
     3
 72
     8
 73
     4
 74
     0
 42
1.000000000000000E-007
 43
1.000000000000000E-007
 40
0.0
 40
0.0
 40
0.0
 40
0.0
 40
2.137219212831107
 40
2.137219212831107
 40
2.137219212831107
 40
2.137219212831107
 10
109.6015510839148
 20
-337.5651660414429
 30
0.0
 10
110.3254077861792
 20
-337.5651660414429
 30
0.0
 10
111.0246573412421
 20
-337.7094889473653
 30
0.0
 10
111.6848019675821
 20
-337.9782747845235
 30
0.0
  0
SPLINE
  5
E4
330
20
100
AcDbEntity
  8
100
  6
CONTINUOUS
100
AcDbSpline
210
0.0
220
0.0
230
1.0
 70
     8
 71
     3
 72
    23
 73
    19
 74
     0
 42
1.000000000000000E-007
 43
1.000000000000000E-007
 40
0.0
 40
0.0
 40
0.0
 40
0.0
 40
0.9963998374795167
 40
2.02866453277135
 40
3.09815782678937
 40
4.205141210907528
 40
5.349264766339188
 40
6.529981298911079
 40
7.746896902288968
 40
9.000070637906459
 40
10.25324437352395
 40
11.47015997690184
 40
12.65087650947374
 40
13.7950000649054
 40
14.90198344902355
 40
15.97147674304158
 40
17.00374143833352
 40
18.00014127581297
 40
18.00014127581297
 40
18.00014127581297
 40
18.00014127581297
 10
117.9521125117255
 20
-339.369675536956
 30
0.0
 10
118.1876226777818
 20
-339.5957192821641
 30
0.0
 10
118.6382610624764
 20
-340.0849366005758
 30
0.0
 10
119.24628017976
 20
-340.9208471066947
 30
0.0
 10
119.7795682197807
 20
-341.8495371858293
 30
0.0
 10
120.231332565035
 20
-342.8617018824954
 30
0.0
 10
120.5947805980179
 20
-343.9480362412065
 30
0.0
 10
120.8631197012253
 20
-345.0992353064772
 30
0.0
 10
121.0295572571532
 20
-346.3059941228233
 30
0.0
 10
121.0875844453034
 20
-347.5651660414429
 30
0.0
 10
121.0295572571532
 20
-348.8243379600625
 30
0.0
 10
120.8631197012253
 20
-350.0310967764086
 30
0.0
 10
120.5947805980178
 20
-351.1822958416795
 30
0.0
 10
120.231332565035
 20
-352.2686302003905
 30
0.0
 10
119.7795682197807
 20
-353.2807948970566
 30
0.0
 10
119.2462801797601
 20
-354.2094849761908
 30
0.0
 10
118.6382610624766
 20
-355.0453954823099
 30
0.0
 10
118.1876226777818
 20
-355.5346128007218
 30
0.0
 10
117.9521125117255
 20
-355.7606565459299
 30
0.0
  0
SPLINE
  5
E5
330
20
100
AcDbEntity
  8
100
  6
CONTINUOUS
100
AcDbSpline
210
0.0
220
0.0
230
1.0
 70
     8
 71
     3
 72
    23
 73
    19
 74
     0
 42
1.000000000000000E-007
 43
1.000000000000000E-007
 40
0.0
 40
0.0
 40
0.0
 40
0.0
 40
1.232832381226228
 40
2.509915840181573
 40
3.845015725668046
 40
5.244647888247141
 40
6.710674718349543
 40
8.242528452923764
 40
9.839001688713388
 40
11.49968336450525
 40
13.16036504029711
 40
14.75683827608673
 40
16.28869201066095
 40
17.75471884076335
 40
19.15435100334244
 40
20.4894508888289
 40
21.76653434778424
 40
22.99936672901043
 40
22.99936672901043
 40
22.99936672901043
 40
22.99936672901043
 10
111.6521607493558
 20
-357.1386524640693
 30
0.0
 10
111.2771743025638
 20
-356.983337979425
 30
0.0
 10
110.5526912605598
 20
-356.5922855456564
 30
0.0
 10
109.5584738429967
 20
-355.786405803895
 30
0.0
 10
108.6728011615766
 20
-354.7831942733553
 30
0.0
 10
107.9117108070023
 20
-353.6046202563694
 30
0.0
 10
107.2912403699746
 20
-352.2726530552666
 30
0.0
 10
106.8274274411957
 20
-350.8092619723796
 30
0.0
 10
106.5363096113671
 20
-349.2364163100388
 30
0.0
 10
106.4332511252824
 20
-347.5651660414429
 30
0.0
 10
106.5363096113671
 20
-345.8939157728471
 30
0.0
 10
106.8274274411957
 20
-344.3210701105062
 30
0.0
 10
107.2912403699746
 20
-342.8576790276193
 30
0.0
 10
107.9117108070023
 20
-341.5257118265166
 30
0.0
 10
108.6728011615766
 20
-340.3471378095305
 30
0.0
 10
109.5584738429966
 20
-339.3439262789909
 30
0.0
 10
110.5526912605599
 20
-338.5380465372293
 30
0.0
 10
111.2771743025637
 20
-338.1469941034609
 30
0.0
 10
111.6521607493557
 20
-337.9916796188166
 30
0.0
  0
CIRCLE
  5
E6
330
20
100
AcDbEntity
  8
100
  6
CONTINUOUS
100
AcDbCircle
 10
0.0
 20
0.0
 40
36.376
  0
ENDSEC
  0
SECTION
  2
OBJECTS
  0
DICTIONARY
  5
C
100
AcDbDictionary
281
     1
  3
ACAD_GROUP
350
D
  3
ACAD_MLINESTYLE
350
E
  3
ACDBVARIABLEDICTIONARY
350
E7
  3
ACAD_PLOTSTYLENAME
350
E8
  3
ACAD_LAYOUT
350
E9
  3
ACAD_PLOTSETTINGS
350
EA
  0
DICTIONARY
  5
D
102
{ACAD_REACTORS
330
C
102
}
330
C
100
AcDbDictionary
281
     1
  0
DICTIONARY
  5
E
102
{ACAD_REACTORS
330
C
102
}
330
C
100
AcDbDictionary
281
     1
  3
STANDARD
350
13
  0
DICTIONARY
  5
E7
102
{ACAD_REACTORS
330
C
102
}
330
C
100
AcDbDictionary
281
     1
  3
SORTENTS
350
EB
  0
ACDBDICTIONARYWDFLT
  5
E8
102
{ACAD_REACTORS
330
C
102
}
330
C
100
AcDbDictionary
281
     1
  3
Normal
350
EC
100
AcDbDictionaryWithDefault
340
EC
  0
DICTIONARY
  5
E9
102
{ACAD_REACTORS
330
C
102
}
330
C
100
AcDbDictionary
281
     1
  3
Model
350
ED
  0
DICTIONARY
  5
EA
102
{ACAD_REACTORS
330
C
102
}
330
C
100
AcDbDictionary
281
     1
  0
MLINESTYLE
  5
13
102
{ACAD_REACTORS
330
E
102
}
330
E
100
AcDbMlineStyle
  2
STANDARD
 70
     0
  3

 62
   256
 51
90.0
 52
90.0
 71
     2
 49
0.5
 62
   256
  6
BYLAYER
 49
-0.5
 62
   256
  6
BYLAYER
  0
DICTIONARYVAR
  5
EB
102
{ACAD_REACTORS
330
E7
102
}
330
E7
100
DictionaryVariables
280
     0
  1
96
  0
ACDBPLACEHOLDER
  5
EC
102
{ACAD_REACTORS
330
E8
102
}
330
E8
  0
LAYOUT
  5
ED
102
{ACAD_REACTORS
330
E9
102
}
330
E9
100
AcDbPlotSettings
  1

  2

  4

  6

 40
0.0
 41
0.0
 42
0.0
 43
0.0
 44
0.0
 45
0.0
 46
0.0
 47
0.0
 48
0.0
 49
0.0
140
0.0
141
0.0
142
1.0
143
1.0
 70
  1712
 72
     0
 73
     0
 74
     0
  7

 75
     0
147
1.0
148
0.0
149
0.0
100
AcDbLayout
  1
Model
 70
     1
 71
     0
 10
0.0
 20
0.0
 11
297.0
 21
210.0
 12
0.0
 22
0.0
 32
0.0
 14
0.0
 24
0.0
 34
0.0
 15
0.0
 25
0.0
 35
0.0
146
0.0
 13
0.0
 23
0.0
 33
0.0
 16
1.0
 26
0.0
 36
0.0
 17
0.0
 27
1.0
 37
0.0
 76
     0
330
20
  0
ENDSEC
  0
EOF
